  0
SECTION
  2
HEADER
  9
$ACADVER
  1
AC1015
  9
$ACADMAINTVER
 70
     6
  9
$DWGCODEPAGE
  3
ANSI_932
  9
$INSBASE
 10
0.0
 20
0.0
 30
0.0
  9
$EXTMIN
 10
-1.5625
 20
-1.5625
 30
0.0
  9
$EXTMAX
 10
1155.554707870558
 20
787.1275
 30
0.0
  9
$LIMMIN
 10
-1.5625
 20
-1.5625
  9
$LIMMAX
 10
1155.554707870558
 20
787.1275
  9
$ORTHOMODE
 70
     0
  9
$REGENMODE
 70
     1
  9
$FILLMODE
 70
     1
  9
$QTEXTMODE
 70
     0
  9
$MIRRTEXT
 70
     1
  9
$LTSCALE
 40
0.5
  9
$ATTMODE
 70
     1
  9
$TEXTSIZE
 40
0.2
  9
$TRACEWID
 40
0.05
  9
$TEXTSTYLE
  7
Standard
  9
$CLAYER
  8
View_0_PV
  9
$CELTYPE
  6
ByLayer
  9
$CECOLOR
 62
   256
  9
$CELTSCALE
 40
1.0
  9
$DISPSILH
 70
     0
  9
$DIMSCALE
 40
1.0
  9
$DIMASZ
 40
0.18
  9
$DIMEXO
 40
0.0625
  9
$DIMDLI
 40
0.38
  9
$DIMRND
 40
0.0
  9
$DIMDLE
 40
0.0
  9
$DIMEXE
 40
0.18
  9
$DIMTP
 40
0.0
  9
$DIMTM
 40
0.0
  9
$DIMTXT
 40
0.18
  9
$DIMCEN
 40
0.09
  9
$DIMTSZ
 40
0.0
  9
$DIMTOL
 70
     0
  9
$DIMLIM
 70
     0
  9
$DIMTIH
 70
     1
  9
$DIMTOH
 70
     1
  9
$DIMSE1
 70
     0
  9
$DIMSE2
 70
     0
  9
$DIMTAD
 70
     0
  9
$DIMZIN
 70
     0
  9
$DIMBLK
  1

  9
$DIMASO
 70
     1
  9
$DIMSHO
 70
     1
  9
$DIMPOST
  1

  9
$DIMAPOST
  1

  9
$DIMALT
 70
     0
  9
$DIMALTD
 70
     2
  9
$DIMALTF
 40
25.4
  9
$DIMLFAC
 40
1.0
  9
$DIMTOFL
 70
     0
  9
$DIMTVP
 40
0.0
  9
$DIMTIX
 70
     0
  9
$DIMSOXD
 70
     0
  9
$DIMSAH
 70
     0
  9
$DIMBLK1
  1

  9
$DIMBLK2
  1

  9
$DIMSTYLE
  2
Standard
  9
$DIMCLRD
 70
     0
  9
$DIMCLRE
 70
     0
  9
$DIMCLRT
 70
     0
  9
$DIMTFAC
 40
1.0
  9
$DIMGAP
 40
0.09
  9
$DIMJUST
 70
     0
  9
$DIMSD1
 70
     0
  9
$DIMSD2
 70
     0
  9
$DIMTOLJ
 70
     1
  9
$DIMTZIN
 70
     0
  9
$DIMALTZ
 70
     0
  9
$DIMALTTZ
 70
     0
  9
$DIMUPT
 70
     0
  9
$DIMDEC
 70
     4
  9
$DIMTDEC
 70
     4
  9
$DIMALTU
 70
     2
  9
$DIMALTTD
 70
     2
  9
$DIMTXSTY
  7
Standard
  9
$DIMAUNIT
 70
     0
  9
$DIMADEC
 70
     0
  9
$DIMALTRND
 40
0.0
  9
$DIMAZIN
 70
     0
  9
$DIMDSEP
 70
    46
  9
$DIMATFIT
 70
     3
  9
$DIMFRAC
 70
     0
  9
$DIMLDRBLK
  1

  9
$DIMLUNIT
 70
     2
  9
$DIMLWD
 70
    -2
  9
$DIMLWE
 70
    -2
  9
$DIMTMOVE
 70
     0
  9
$LUNITS
 70
     2
  9
$LUPREC
 70
     2
  9
$SKETCHINC
 40
0.1
  9
$FILLETRAD
 40
0.5
  9
$AUNITS
 70
     0
  9
$AUPREC
 70
     0
  9
$MENU
  1
.
  9
$ELEVATION
 40
0.0
  9
$PELEVATION
 40
0.0
  9
$THICKNESS
 40
0.0
  9
$LIMCHECK
 70
     0
  9
$CHAMFERA
 40
0.0
  9
$CHAMFERB
 40
0.0
  9
$CHAMFERC
 40
0.0
  9
$CHAMFERD
 40
0.0
  9
$SKPOLY
 70
     0
  9
$TDCREATE
 40
2459671.775880058
  9
$TDUCREATE
 40
2459671.400880058
  9
$TDUPDATE
 40
2459671.775882951
  9
$TDUUPDATE
 40
2459671.400882951
  9
$TDINDWG
 40
0.0000000116
  9
$TDUSRTIMER
 40
0.0000000116
  9
$USRTIMER
 70
     1
  9
$ANGBASE
 50
0.0
  9
$ANGDIR
 70
     0
  9
$PDMODE
 70
     0
  9
$PDSIZE
 40
0.0
  9
$PLINEWID
 40
0.0
  9
$SPLFRAME
 70
     0
  9
$SPLINETYPE
 70
     6
  9
$SPLINESEGS
 70
     8
  9
$HANDSEED
  5
4F9
  9
$SURFTAB1
 70
     6
  9
$SURFTAB2
 70
     6
  9
$SURFTYPE
 70
     6
  9
$SURFU
 70
     6
  9
$SURFV
 70
     6
  9
$UCSBASE
  2

  9
$UCSNAME
  2

  9
$UCSORG
 10
0.0
 20
0.0
 30
0.0
  9
$UCSXDIR
 10
1.0
 20
0.0
 30
0.0
  9
$UCSYDIR
 10
0.0
 20
1.0
 30
0.0
  9
$UCSORTHOREF
  2

  9
$UCSORTHOVIEW
 70
     0
  9
$UCSORGTOP
 10
0.0
 20
0.0
 30
0.0
  9
$UCSORGBOTTOM
 10
0.0
 20
0.0
 30
0.0
  9
$UCSORGLEFT
 10
0.0
 20
0.0
 30
0.0
  9
$UCSORGRIGHT
 10
0.0
 20
0.0
 30
0.0
  9
$UCSORGFRONT
 10
0.0
 20
0.0
 30
0.0
  9
$UCSORGBACK
 10
0.0
 20
0.0
 30
0.0
  9
$PUCSBASE
  2

  9
$PUCSNAME
  2

  9
$PUCSORG
 10
0.0
 20
0.0
 30
0.0
  9
$PUCSXDIR
 10
1.0
 20
0.0
 30
0.0
  9
$PUCSYDIR
 10
0.0
 20
1.0
 30
0.0
  9
$PUCSORTHOREF
  2

  9
$PUCSORTHOVIEW
 70
     0
  9
$PUCSORGTOP
 10
0.0
 20
0.0
 30
0.0
  9
$PUCSORGBOTTOM
 10
0.0
 20
0.0
 30
0.0
  9
$PUCSORGLEFT
 10
0.0
 20
0.0
 30
0.0
  9
$PUCSORGRIGHT
 10
0.0
 20
0.0
 30
0.0
  9
$PUCSORGFRONT
 10
0.0
 20
0.0
 30
0.0
  9
$PUCSORGBACK
 10
0.0
 20
0.0
 30
0.0
  9
$USERI1
 70
     0
  9
$USERI2
 70
     0
  9
$USERI3
 70
     0
  9
$USERI4
 70
     0
  9
$USERI5
 70
     0
  9
$USERR1
 40
0.0
  9
$USERR2
 40
0.0
  9
$USERR3
 40
0.0
  9
$USERR4
 40
0.0
  9
$USERR5
 40
0.0
  9
$WORLDVIEW
 70
     1
  9
$SHADEDGE
 70
     3
  9
$SHADEDIF
 70
    70
  9
$TILEMODE
 70
     1
  9
$MAXACTVP
 70
    64
  9
$PINSBASE
 10
0.0
 20
0.0
 30
0.0
  9
$PLIMCHECK
 70
     0
  9
$PEXTMIN
 10
1.000000000000000E+20
 20
1.000000000000000E+20
 30
1.000000000000000E+20
  9
$PEXTMAX
 10
-1.000000000000000E+20
 20
-1.000000000000000E+20
 30
-1.000000000000000E+20
  9
$PLIMMIN
 10
0.0
 20
0.0
  9
$PLIMMAX
 10
12.0
 20
9.0
  9
$UNITMODE
 70
     0
  9
$VISRETAIN
 70
     1
  9
$PLINEGEN
 70
     0
  9
$PSLTSCALE
 70
     0
  9
$TREEDEPTH
 70
  3020
  9
$CMLSTYLE
  2
Standard
  9
$CMLJUST
 70
     0
  9
$CMLSCALE
 40
1.0
  9
$PROXYGRAPHICS
 70
     1
  9
$MEASUREMENT
 70
     1
  9
$CELWEIGHT
370
    -1
  9
$ENDCAPS
280
     0
  9
$JOINSTYLE
280
     0
  9
$LWDISPLAY
290
     1
  9
$INSUNITS
 70
     0
  9
$HYPERLINKBASE
  1

  9
$STYLESHEET
  1

  9
$XEDIT
290
     1
  9
$CEPSNTYPE
380
     0
  9
$PSTYLEMODE
290
     1
  9
$FINGERPRINTGUID
  2
{db63583f-97c5-4096-91b3-5cb86788342f}
  9
$VERSIONGUID
  2
{FAEB1C32-E019-11D5-929B-00C0DF256EC4}
  9
$EXTNAMES
290
     1
  9
$PSVPSCALE
 40
0.0
  9
$OLESTARTUP
290
     0
  0
ENDSEC
  0
SECTION
  2
CLASSES
  0
CLASS
  1
ACDBDICTIONARYWDFLT
  2
AcDbDictionaryWithDefault
  3
ObjectDBX Classes
 90
        0
280
     0
281
     0
  0
CLASS
  1
VISUALSTYLE
  2
AcDbVisualStyle
  3
ObjectDBX Classes
 90
     4095
280
     0
281
     0
  0
CLASS
  1
MATERIAL
  2
AcDbMaterial
  3
ObjectDBX Classes
 90
     1153
280
     0
281
     0
  0
CLASS
  1
SCALE
  2
AcDbScale
  3
ObjectDBX Classes
 90
     1153
280
     0
281
     0
  0
CLASS
  1
TABLESTYLE
  2
AcDbTableStyle
  3
ObjectDBX Classes
 90
     4095
280
     0
281
     0
  0
CLASS
  1
MLEADERSTYLE
  2
AcDbMLeaderStyle
  3
ACDB_MLEADERSTYLE_CLASS
 90
     4095
280
     0
281
     0
  0
CLASS
  1
SUN
  2
AcDbSun
  3
SCENEOE
 90
     1153
280
     0
281
     0
  0
CLASS
  1
RASTERVARIABLES
  2
AcDbRasterVariables
  3
ISM
 90
        0
280
     0
281
     0
  0
CLASS
  1
DICTIONARYVAR
  2
AcDbDictionaryVar
  3
ObjectDBX Classes
 90
        0
280
     0
281
     0
  0
CLASS
  1
ACDBPLACEHOLDER
  2
AcDbPlaceHolder
  3
ObjectDBX Classes
 90
        0
280
     0
281
     0
  0
CLASS
  1
LAYOUT
  2
AcDbLayout
  3
ObjectDBX Classes
 90
        0
280
     0
281
     0
  0
ENDSEC
  0
SECTION
  2
TABLES
  0
TABLE
  2
VPORT
  5
8
102
{ACAD_XDICTIONARY
360
4BC
102
}
330
0
100
AcDbSymbolTable
 70
     1
  0
VPORT
  5
29
330
8
100
AcDbSymbolTableRecord
100
AcDbViewportTableRecord
  2
*Active
 70
     0
 10
0.0
 20
0.0
 11
1.0
 21
1.0
 12
461.596883148223
 22
314.226
 13
0.0
 23
0.0
 14
0.5
 24
0.5
 15
0.5
 25
0.5
 16
0.0
 26
0.0
 36
1.0
 17
0.0
 27
0.0
 37
0.0
 40
662.4996
 41
1.467138175798549
 42
50.0
 43
0.0
 44
0.0
 50
0.0
 51
0.0
 71
     0
 72
 20000
 73
     1
 74
     3
 75
     0
 76
     0
 77
     0
 78
     0
281
     0
 65
     1
110
0.0
120
0.0
130
0.0
111
1.0
121
0.0
131
0.0
112
0.0
122
1.0
132
0.0
 79
     0
146
0.0
  0
ENDTAB
  0
TABLE
  2
LTYPE
  5
5
330
0
100
AcDbSymbolTable
 70
     6
  0
LTYPE
  5
14
330
5
100
AcDbSymbolTableRecord
100
AcDbLinetypeTableRecord
  2
ByBlock
 70
     0
  3

 72
    65
 73
     0
 40
0.0
  0
LTYPE
  5
15
330
5
100
AcDbSymbolTableRecord
100
AcDbLinetypeTableRecord
  2
ByLayer
 70
     0
  3

 72
    65
 73
     0
 40
0.0
  0
LTYPE
  5
16
330
5
100
AcDbSymbolTableRecord
100
AcDbLinetypeTableRecord
  2
Continuous
 70
     0
  3
Solid line
 72
    65
 73
     0
 40
0.0
  0
LTYPE
  5
70
330
5
100
AcDbSymbolTableRecord
100
AcDbLinetypeTableRecord
  2
ACAD_ISO02W100
 70
     0
  3
ISO dash __ __ __ __ __ __ __ __ __ __ __ __ __
 72
    65
 73
     2
 40
15.0
 49
12.0
 74
     0
 49
-3.0
 74
     0
  0
LTYPE
  5
71
330
5
100
AcDbSymbolTableRecord
100
AcDbLinetypeTableRecord
  2
CENTER2
 70
     0
  3

 72
    65
 73
     4
 40
28.575
 49
19.05
 74
     0
 49
-3.174999999999999
 74
     0
 49
3.174999999999999
 74
     0
 49
-3.174999999999999
 74
     0
  0
LTYPE
  5
72
330
5
100
AcDbSymbolTableRecord
100
AcDbLinetypeTableRecord
  2
DASHED2
 70
     0
  3

 72
    65
 73
     2
 40
9.524999999999999
 49
6.349999999999999
 74
     0
 49
-3.174999999999999
 74
     0
  0
LTYPE
  5
73
330
5
100
AcDbSymbolTableRecord
100
AcDbLinetypeTableRecord
  2
Dashed
 70
     0
  3

 72
    65
 73
     2
 40
2.0
 49
1.0
 74
     0
 49
-1.0
 74
     0
  0
LTYPE
  5
74
330
5
100
AcDbSymbolTableRecord
100
AcDbLinetypeTableRecord
  2
Center
 70
     0
  3

 72
    65
 73
     4
 40
1.5
 49
0.5
 74
     0
 49
-0.5
 74
     0
 49
0.0
 74
     0
 49
-0.5
 74
     0
  0
ENDTAB
  0
TABLE
  2
LAYER
  5
2
330
0
100
AcDbSymbolTable
 70
    13
  0
LAYER
  5
10
330
2
100
AcDbSymbolTableRecord
100
AcDbLayerTableRecord
  2
0
 70
     0
 62
     7
  6
Continuous
370
    35
390
F
  0
LAYER
  5
75
330
2
100
AcDbSymbolTableRecord
100
AcDbLayerTableRecord
  2
新しいレイヤ 1
 70
     0
 62
     7
  6
Continuous
370
    13
390
F
  0
LAYER
  5
76
330
2
100
AcDbSymbolTableRecord
100
AcDbLayerTableRecord
  2
View_0_PV
 70
     0
 62
     7
  6
Continuous
370
    18
390
F
  0
LAYER
  5
77
330
2
100
AcDbSymbolTableRecord
100
AcDbLayerTableRecord
  2
View_1_A
 70
     0
 62
     7
  6
Continuous
370
    13
390
F
  0
LAYER
  5
78
330
2
100
AcDbSymbolTableRecord
100
AcDbLayerTableRecord
  2
View_5_D
 70
     0
 62
    -7
  6
Continuous
370
    13
390
F
  0
LAYER
  5
79
330
2
100
AcDbSymbolTableRecord
100
AcDbLayerTableRecord
  2
AM_9
 70
     0
 62
    -6
  6
Dashed
370
    18
390
F
  0
LAYER
  5
7A
330
2
100
AcDbSymbolTableRecord
100
AcDbLayerTableRecord
  2
AM_4
 70
     0
 62
     7
  6
Continuous
370
    18
390
F
  0
LAYER
  5
7B
330
2
100
AcDbSymbolTableRecord
100
AcDbLayerTableRecord
  2
AM_5
 70
     0
 62
     3
  6
Continuous
370
    18
390
F
  0
LAYER
  5
7C
330
2
100
AcDbSymbolTableRecord
100
AcDbLayerTableRecord
  2
AM_7
 70
     0
 62
     7
  6
Center
370
    18
390
F
  0
LAYER
  5
7D
330
2
100
AcDbSymbolTableRecord
100
AcDbLayerTableRecord
  2
新しいレイヤ 2
 70
     0
 62
     7
  6
Continuous
370
    18
390
F
  0
LAYER
  5
7E
330
2
100
AcDbSymbolTableRecord
100
AcDbLayerTableRecord
  2
View_4_C
 70
     0
 62
     7
  6
Continuous
370
    18
390
F
  0
LAYER
  5
7F
330
2
100
AcDbSymbolTableRecord
100
AcDbLayerTableRecord
  2
AM_0
 70
     0
 62
     7
  6
Continuous
370
    50
390
F
  0
LAYER
  5
80
330
2
100
AcDbSymbolTableRecord
100
AcDbLayerTableRecord
  2
ConnectionPoints
 70
     0
 62
     7
  6
Continuous
370
    50
390
F
  0
ENDTAB
  0
TABLE
  2
STYLE
  5
3
330
0
100
AcDbSymbolTable
 70
     4
  0
STYLE
  5
11
330
3
100
AcDbSymbolTableRecord
100
AcDbTextStyleTableRecord
  2
Standard
 70
     0
 40
0.0
 41
1.0
 50
0.0
 71
     0
 42
0.2
  3
txt.shx
  4
extfont
  0
STYLE
  5
81
330
3
100
AcDbSymbolTableRecord
100
AcDbTextStyleTableRecord
  2
MS PGothic
 70
     0
 40
0.0
 41
1.0
 50
0.0
 71
     0
 42
0.2
  3
MS PGothic.ttf
  4

1001
ACAD
1000
ＭＳ Ｐゴシック
1071
    32818
  0
STYLE
  5
82
330
3
100
AcDbSymbolTableRecord
100
AcDbTextStyleTableRecord
  2
VERTICAL
 70
     4
 40
0.0
 41
1.0
 50
0.0
 71
     0
 42
0.2
  3
txt.shx
  4
extfont
  0
STYLE
  5
83
330
3
100
AcDbSymbolTableRecord
100
AcDbTextStyleTableRecord
  2
VERTICAL MS PGothic
 70
     0
 40
0.0
 41
1.0
 50
0.0
 71
     0
 42
0.2
  3
MS PGothic.ttf
  4

1001
ACAD
1000
@ＭＳ Ｐゴシック
1071
    32818
  0
ENDTAB
  0
TABLE
  2
VIEW
  5
6
330
0
100
AcDbSymbolTable
 70
     0
  0
ENDTAB
  0
TABLE
  2
UCS
  5
7
330
0
100
AcDbSymbolTable
 70
     0
  0
ENDTAB
  0
TABLE
  2
APPID
  5
9
330
0
100
AcDbSymbolTable
 70
     3
  0
APPID
  5
12
330
9
100
AcDbSymbolTableRecord
100
AcDbRegAppTableRecord
  2
ACAD
 70
     0
  0
APPID
  5
6E
330
9
100
AcDbSymbolTableRecord
100
AcDbRegAppTableRecord
  2
RootPro CAD
 70
     0
  0
APPID
  5
4F6
330
9
100
AcDbSymbolTableRecord
100
AcDbRegAppTableRecord
  2
ACAD_MLEADERVER
 70
     0
  0
ENDTAB
  0
TABLE
  2
DIMSTYLE
  5
A
330
0
100
AcDbSymbolTable
 70
     1
100
AcDbDimStyleTable
  0
DIMSTYLE
105
27
330
A
100
AcDbSymbolTableRecord
100
AcDbDimStyleTableRecord
  2
Standard
 70
     0
178
     0
340
11
  0
ENDTAB
  0
TABLE
  2
BLOCK_RECORD
  5
1
330
0
100
AcDbSymbolTable
 70
     5
  0
BLOCK_RECORD
  5
1F
330
1
100
AcDbSymbolTableRecord
100
AcDbBlockTableRecord
  2
*Model_Space
340
22
  0
BLOCK_RECORD
  5
1B
330
1
100
AcDbSymbolTableRecord
100
AcDbBlockTableRecord
  2
*Paper_Space
340
1E
  0
BLOCK_RECORD
  5
23
330
1
100
AcDbSymbolTableRecord
100
AcDbBlockTableRecord
  2
*Paper_Space0
340
26
  0
BLOCK_RECORD
  5
84
330
1
100
AcDbSymbolTableRecord
100
AcDbBlockTableRecord
  2
レイアウト (部分図 （モータ）左)
340
0
102
{BLKREFS
331
36E
102
}
  0
BLOCK_RECORD
  5
36F
330
1
100
AcDbSymbolTableRecord
100
AcDbBlockTableRecord
  2
レイアウト (部分図 （減速機）前)
340
0
102
{BLKREFS
331
3E3
102
}
  0
BLOCK_RECORD
  5
3E4
330
1
100
AcDbSymbolTableRecord
100
AcDbBlockTableRecord
  2
レイアウト (部分図 （センサー）)
340
0
102
{BLKREFS
331
4AF
102
}
  0
BLOCK_RECORD
  5
4B0
330
1
100
AcDbSymbolTableRecord
100
AcDbBlockTableRecord
  2
用紙 1
340
0
102
{BLKREFS
331
4B4
102
}
  0
ENDTAB
  0
ENDSEC
  0
SECTION
  2
BLOCKS
  0
BLOCK
  5
20
330
1F
100
AcDbEntity
  8
0
100
AcDbBlockBegin
  2
*Model_Space
 70
     0
 10
0.0
 20
0.0
 30
0.0
  3
*Model_Space
  1

  0
ENDBLK
  5
21
330
1F
100
AcDbEntity
  8
0
100
AcDbBlockEnd
  0
BLOCK
  5
1C
330
1B
100
AcDbEntity
 67
     1
  8
0
100
AcDbBlockBegin
  2
*Paper_Space
 70
     0
 10
0.0
 20
0.0
 30
0.0
  3
*Paper_Space
  1

  0
ENDBLK
  5
1D
330
1B
100
AcDbEntity
 67
     1
  8
0
100
AcDbBlockEnd
  0
BLOCK
  5
24
330
23
100
AcDbEntity
  8
0
100
AcDbBlockBegin
  2
*Paper_Space0
 70
     0
 10
0.0
 20
0.0
 30
0.0
  3
*Paper_Space0
  1

  0
ENDBLK
  5
25
330
23
100
AcDbEntity
  8
0
100
AcDbBlockEnd
  0
BLOCK
  5
85
330
84
100
AcDbEntity
  8
0
100
AcDbBlockBegin
  2
レイアウト (部分図 （モータ）左)
 70
     0
 10
0.0
 20
0.0
 30
0.0
  3
レイアウト (部分図 （モータ）左)
  1

  0
LINE
  5
87
330
84
100
AcDbEntity
  8
AM_9
100
AcDbLine
 10
297.3167454020468
 20
607.505
 30
0.0
 11
145.3167454020468
 21
607.505
 31
0.0
  0
LINE
  5
88
330
84
100
AcDbEntity
  8
AM_9
100
AcDbLine
 10
297.3167454020468
 20
598.1370000000001
 30
0.0
 11
145.3167454020468
 21
598.1370000000001
 31
0.0
  0
LINE
  5
89
330
84
100
AcDbEntity
  8
AM_9
100
AcDbLine
 10
297.3167454020468
 20
597.705894781541
 30
0.0
 11
145.3167454020468
 21
597.705894781541
 31
0.0
  0
LINE
  5
8A
330
84
100
AcDbEntity
  8
AM_9
100
AcDbLine
 10
297.3167454020468
 20
592.325
 30
0.0
 11
145.3167454020468
 21
592.325
 31
0.0
  0
LINE
  5
8B
330
84
100
AcDbEntity
  8
AM_9
100
AcDbLine
 10
297.3167454020468
 20
589.837
 30
0.0
 11
145.3167454020468
 21
589.837
 31
0.0
  0
LINE
  5
8C
330
84
100
AcDbEntity
  8
AM_9
100
AcDbLine
 10
297.3167454020468
 20
537.08
 30
0.0
 11
145.3167454020468
 21
537.08
 31
0.0
  0
LINE
  5
8D
330
84
100
AcDbEntity
  8
AM_9
100
AcDbLine
 10
297.3167454020468
 20
539.568
 30
0.0
 11
145.3167454020468
 21
539.568
 31
0.0
  0
LINE
  5
8E
330
84
100
AcDbEntity
  8
AM_9
100
AcDbLine
 10
297.3167454020468
 20
530.61
 30
0.0
 11
145.3167454020468
 21
530.61
 31
0.0
  0
LINE
  5
8F
330
84
100
AcDbEntity
  8
AM_9
100
AcDbLine
 10
297.3167454020468
 20
533.098
 30
0.0
 11
145.3167454020468
 21
533.098
 31
0.0
  0
LINE
  5
90
330
84
100
AcDbEntity
  8
AM_9
100
AcDbLine
 10
297.3167454020468
 20
523.642
 30
0.0
 11
145.3167454020468
 21
523.642
 31
0.0
  0
LINE
  5
91
330
84
100
AcDbEntity
  8
AM_9
100
AcDbLine
 10
297.3167454020468
 20
526.13
 30
0.0
 11
145.3167454020468
 21
526.13
 31
0.0
  0
LINE
  5
92
330
84
100
AcDbEntity
  8
AM_9
100
AcDbLine
 10
297.3167454020468
 20
584.8210150920422
 30
0.0
 11
145.3167454020468
 21
584.8210150920422
 31
0.0
  0
LINE
  5
93
330
84
100
AcDbEntity
  8
AM_9
100
AcDbLine
 10
297.3167454020468
 20
587.461013729847
 30
0.0
 11
145.3167454020468
 21
587.461013729847
 31
0.0
  0
LINE
  5
94
330
84
100
AcDbEntity
  8
AM_9
100
AcDbLine
 10
297.3167454020468
 20
542.937974868569
 30
0.0
 11
145.3167454020468
 21
542.937974868569
 31
0.0
  0
LINE
  5
95
330
84
100
AcDbEntity
  8
AM_9
100
AcDbLine
 10
297.3167454020468
 20
589.6939692710083
 30
0.0
 11
145.3167454020468
 21
589.6939692710083
 31
0.0
  0
LINE
  5
96
330
84
100
AcDbEntity
  8
AM_9
100
AcDbLine
 10
297.3167454020468
 20
539.7350279845184
 30
0.0
 11
145.3167454020468
 21
539.7350279845184
 31
0.0
  0
LINE
  5
97
330
84
100
AcDbEntity
  8
AM_9
100
AcDbLine
 10
297.3167454020468
 20
589.0148973367332
 30
0.0
 11
145.3167454020468
 21
589.0148973367332
 31
0.0
  0
LINE
  5
98
330
84
100
AcDbEntity
  8
AM_9
100
AcDbLine
 10
297.3167454020468
 20
540.4212359300781
 30
0.0
 11
145.3167454020468
 21
540.4212359300781
 31
0.0
  0
LINE
  5
99
330
84
100
AcDbEntity
  8
AM_9
100
AcDbLine
 10
297.3167454020468
 20
592.5690225344508
 30
0.0
 11
145.3167454020468
 21
592.5690225344508
 31
0.0
  0
LINE
  5
9A
330
84
100
AcDbEntity
  8
AM_9
100
AcDbLine
 10
297.3167454020468
 20
592.8546547179856
 30
0.0
 11
145.3167454020468
 21
592.8546547179856
 31
0.0
  0
LINE
  5
9B
330
84
100
AcDbEntity
  8
AM_9
100
AcDbLine
 10
297.3167454020468
 20
536.8059774894938
 30
0.0
 11
145.3167454020468
 21
536.8059774894938
 31
0.0
  0
LINE
  5
9C
330
84
100
AcDbEntity
  8
AM_9
100
AcDbLine
 10
297.3167454020468
 20
594.439105218459
 30
0.0
 11
145.3167454020468
 21
594.439105218459
 31
0.0
  0
LINE
  5
9D
330
84
100
AcDbEntity
  8
AM_9
100
AcDbLine
 10
297.3167454020468
 20
593.79010011331
 30
0.0
 11
145.3167454020468
 21
593.79010011331
 31
0.0
  0
LINE
  5
9E
330
84
100
AcDbEntity
  8
AM_9
100
AcDbLine
 10
297.3167454020468
 20
536.5280164847829
 30
0.0
 11
145.3167454020468
 21
536.5280164847829
 31
0.0
  0
LINE
  5
9F
330
84
100
AcDbEntity
  8
AM_9
100
AcDbLine
 10
297.3167454020468
 20
594.0080000000027
 30
0.0
 11
145.3167454020468
 21
594.0080000000027
 31
0.0
  0
LINE
  5
A0
330
84
100
AcDbEntity
  8
AM_9
100
AcDbLine
 10
143.3167454020468
 20
597.8905989232414
 30
0.0
 11
141.3167454020468
 21
597.8905989232414
 31
0.0
  0
LINE
  5
A1
330
84
100
AcDbEntity
  8
AM_9
100
AcDbLine
 10
143.3167454020468
 20
602.5094010767585
 30
0.0
 11
141.3167454020468
 21
602.5094010767585
 31
0.0
  0
LINE
  5
A2
330
84
100
AcDbEntity
  8
AM_9
100
AcDbLine
 10
307.3167454020468
 20
599.1826061575155
 30
0.0
 11
309.3167454020468
 21
599.1826061575155
 31
0.0
  0
LINE
  5
A3
330
84
100
AcDbEntity
  8
AM_9
100
AcDbLine
 10
307.3167454020468
 20
594.2173938424846
 30
0.0
 11
309.3167454020468
 21
594.2173938424846
 31
0.0
  0
LINE
  5
A4
330
84
100
AcDbEntity
  8
AM_9
100
AcDbLine
 10
297.3167454020468
 20
533.4470255911478
 30
0.0
 11
145.3167454020468
 21
533.4470255911478
 31
0.0
  0
LINE
  5
A5
330
84
100
AcDbEntity
  8
AM_9
100
AcDbLine
 10
297.3167454020468
 20
534.1809014716915
 30
0.0
 11
145.3167454020468
 21
534.1809014716915
 31
0.0
  0
LINE
  5
A6
330
84
100
AcDbEntity
  8
AM_9
100
AcDbLine
 10
143.3167454020468
 20
602.5094010767585
 30
0.0
 11
143.3167454020468
 21
597.8905989232414
 31
0.0
  0
LINE
  5
A7
330
84
100
AcDbEntity
  8
AM_9
100
AcDbLine
 10
143.3167454020468
 20
601.3547005383792
 30
0.0
 11
141.3167454020468
 21
601.3547005383792
 31
0.0
  0
LINE
  5
A8
330
84
100
AcDbEntity
  8
AM_9
100
AcDbLine
 10
143.3167454020468
 20
599.0452994616207
 30
0.0
 11
141.3167454020468
 21
599.0452994616207
 31
0.0
  0
LINE
  5
A9
330
84
100
AcDbEntity
  8
AM_9
100
AcDbLine
 10
307.3167454020468
 20
595.4586969212423
 30
0.0
 11
309.3167454020468
 21
595.4586969212423
 31
0.0
  0
LINE
  5
AA
330
84
100
AcDbEntity
  8
AM_9
100
AcDbLine
 10
307.3167454020468
 20
597.9413030787578
 30
0.0
 11
309.3167454020468
 21
597.9413030787578
 31
0.0
  0
LINE
  5
AB
330
84
100
AcDbEntity
  8
AM_9
100
AcDbLine
 10
307.3167454020468
 20
599.1826061575155
 30
0.0
 11
307.3167454020468
 21
594.2173938424846
 31
0.0
  0
LINE
  5
AC
330
84
100
AcDbEntity
  8
AM_9
100
AcDbLine
 10
297.3167454020468
 20
530.1040355887983
 30
0.0
 11
145.3167454020468
 21
530.1040355887983
 31
0.0
  0
LINE
  5
AD
330
84
100
AcDbEntity
  8
AM_9
100
AcDbLine
 10
297.3167454020468
 20
529.8767809118265
 30
0.0
 11
145.3167454020468
 21
529.8767809118265
 31
0.0
  0
LINE
  5
AE
330
84
100
AcDbEntity
  8
AM_9
100
AcDbLine
 10
141.3167454020468
 20
596.35
 30
0.0
 11
141.7167454020468
 21
595.95
 31
0.0
  0
LINE
  5
AF
330
84
100
AcDbEntity
  8
AM_9
100
AcDbLine
 10
141.7167454020468
 20
604.45
 30
0.0
 11
141.3167454020468
 21
604.05
 31
0.0
  0
LINE
  5
B0
330
84
100
AcDbEntity
  8
AM_9
100
AcDbLine
 10
141.3167454020468
 20
604.05
 30
0.0
 11
141.3167454020468
 21
596.35
 31
0.0
  0
LINE
  5
B1
330
84
100
AcDbEntity
  8
AM_9
100
AcDbLine
 10
141.7167454020468
 20
595.95
 30
0.0
 11
145.3167454020468
 21
595.95
 31
0.0
  0
LINE
  5
B2
330
84
100
AcDbEntity
  8
AM_9
100
AcDbLine
 10
145.3167454020468
 20
604.45
 30
0.0
 11
141.7167454020468
 21
604.45
 31
0.0
  0
LINE
  5
B3
330
84
100
AcDbEntity
  8
AM_9
100
AcDbLine
 10
141.7167454020468
 20
604.45
 30
0.0
 11
141.7167454020468
 21
595.95
 31
0.0
  0
LINE
  5
B4
330
84
100
AcDbEntity
  8
AM_9
100
AcDbLine
 10
297.3167454020468
 20
526.7339635479382
 30
0.0
 11
145.3167454020468
 21
526.7339635479382
 31
0.0
  0
ARC
  5
B5
330
84
100
AcDbEntity
  8
AM_9
100
AcDbCircle
 10
308.5167454020468
 20
592.45
 30
0.0
 40
0.7999999999999936
100
AcDbArc
 50
270.0
 51
0.0
  0
ARC
  5
B6
330
84
100
AcDbEntity
  8
AM_9
100
AcDbCircle
 10
308.5167454020468
 20
600.95
 30
0.0
 40
0.8000000000000034
100
AcDbArc
 50
0.0
 51
90.0
  0
LINE
  5
B7
330
84
100
AcDbEntity
  8
AM_9
100
AcDbLine
 10
301.3167454020468
 20
591.65
 30
0.0
 11
308.5167454020468
 21
591.65
 31
0.0
  0
LINE
  5
B8
330
84
100
AcDbEntity
  8
AM_9
100
AcDbLine
 10
308.5167454020468
 20
601.75
 30
0.0
 11
301.3167454020468
 21
601.75
 31
0.0
  0
LINE
  5
B9
330
84
100
AcDbEntity
  8
AM_9
100
AcDbLine
 10
308.5167454020468
 20
601.75
 30
0.0
 11
308.5167454020468
 21
591.65
 31
0.0
  0
LINE
  5
BA
330
84
100
AcDbEntity
  8
AM_9
100
AcDbLine
 10
301.3167454020468
 20
591.45
 30
0.0
 11
309.3167454020468
 21
591.45
 31
0.0
  0
LINE
  5
BB
330
84
100
AcDbEntity
  8
AM_9
100
AcDbLine
 10
309.3167454020468
 20
601.95
 30
0.0
 11
301.3167454020468
 21
601.95
 31
0.0
  0
LINE
  5
BC
330
84
100
AcDbEntity
  8
AM_9
100
AcDbLine
 10
301.3167454020468
 20
601.95
 30
0.0
 11
301.3167454020468
 21
591.45
 31
0.0
  0
LINE
  5
BD
330
84
100
AcDbEntity
  8
AM_9
100
AcDbLine
 10
297.3167454020468
 20
527.518680849237
 30
0.0
 11
145.3167454020468
 21
527.518680849237
 31
0.0
  0
LINE
  5
BE
330
84
100
AcDbEntity
  8
AM_9
100
AcDbLine
 10
297.3167454020468
 20
522.8020357831158
 30
0.0
 11
145.3167454020468
 21
522.8020357831158
 31
0.0
  0
LINE
  5
BF
330
84
100
AcDbEntity
  8
AM_9
100
AcDbLine
 10
297.3167454020468
 20
608.0020000005687
 30
0.0
 11
145.3167454020468
 21
608.0020000005687
 31
0.0
  0
LINE
  5
C0
330
84
100
AcDbEntity
  8
AM_9
100
AcDbLine
 10
297.3167454020468
 20
608.0025
 30
0.0
 11
145.3167454020468
 21
608.0025
 31
0.0
  0
LINE
  5
C1
330
84
100
AcDbEntity
  8
AM_9
100
AcDbLine
 10
297.3167454020468
 20
522.6305555342641
 30
0.0
 11
145.3167454020468
 21
522.6305555342641
 31
0.0
  0
LINE
  5
C2
330
84
100
AcDbEntity
  8
AM_9
100
AcDbLine
 10
297.3167454020468
 20
608.1717785432933
 30
0.0
 11
145.3167454020468
 21
608.1717785432933
 31
0.0
  0
LINE
  5
C3
330
84
100
AcDbEntity
  8
AM_9
100
AcDbLine
 10
143.3167454020468
 20
509.0094010767585
 30
0.0
 11
141.3167454020468
 21
509.0094010767585
 31
0.0
  0
LINE
  5
C4
330
84
100
AcDbEntity
  8
AM_9
100
AcDbLine
 10
143.3167454020468
 20
504.3905989232415
 30
0.0
 11
141.3167454020468
 21
504.3905989232415
 31
0.0
  0
LINE
  5
C5
330
84
100
AcDbEntity
  8
AM_9
100
AcDbLine
 10
143.3167454020468
 20
509.0094010767585
 30
0.0
 11
143.3167454020468
 21
504.3905989232415
 31
0.0
  0
LINE
  5
C6
330
84
100
AcDbEntity
  8
AM_9
100
AcDbLine
 10
143.3167454020468
 20
505.5452994616207
 30
0.0
 11
141.3167454020468
 21
505.5452994616207
 31
0.0
  0
LINE
  5
C7
330
84
100
AcDbEntity
  8
AM_9
100
AcDbLine
 10
143.3167454020468
 20
507.8547005383792
 30
0.0
 11
141.3167454020468
 21
507.8547005383792
 31
0.0
  0
LINE
  5
C8
330
84
100
AcDbEntity
  8
AM_9
100
AcDbLine
 10
307.3167454020468
 20
509.1826061575154
 30
0.0
 11
309.3167454020468
 21
509.1826061575154
 31
0.0
  0
LINE
  5
C9
330
84
100
AcDbEntity
  8
AM_9
100
AcDbLine
 10
307.3167454020468
 20
504.2173938424846
 30
0.0
 11
309.3167454020468
 21
504.2173938424846
 31
0.0
  0
LINE
  5
CA
330
84
100
AcDbEntity
  8
AM_9
100
AcDbLine
 10
307.3167454020468
 20
507.9413030787577
 30
0.0
 11
309.3167454020468
 21
507.9413030787577
 31
0.0
  0
LINE
  5
CB
330
84
100
AcDbEntity
  8
AM_9
100
AcDbLine
 10
307.3167454020468
 20
509.1826061575154
 30
0.0
 11
307.3167454020468
 21
504.2173938424846
 31
0.0
  0
LINE
  5
CC
330
84
100
AcDbEntity
  8
AM_9
100
AcDbLine
 10
307.3167454020468
 20
505.4586969212423
 30
0.0
 11
309.3167454020468
 21
505.4586969212423
 31
0.0
  0
LINE
  5
CD
330
84
100
AcDbEntity
  8
AM_9
100
AcDbLine
 10
297.3167454020468
 20
505.7363687707473
 30
0.0
 11
145.3167454020468
 21
505.7363687707473
 31
0.0
  0
ARC
  5
CE
330
84
100
AcDbEntity
  8
AM_9
100
AcDbCircle
 10
308.5167454020468
 20
502.45
 30
0.0
 40
0.8000000000000114
100
AcDbArc
 50
270.0
 51
0.0
  0
ARC
  5
CF
330
84
100
AcDbEntity
  8
AM_9
100
AcDbCircle
 10
308.5167454020468
 20
510.95
 30
0.0
 40
0.7999999999999926
100
AcDbArc
 50
0.0
 51
90.0
  0
LINE
  5
D0
330
84
100
AcDbEntity
  8
AM_9
100
AcDbLine
 10
301.3167454020468
 20
501.65
 30
0.0
 11
308.5167454020468
 21
501.65
 31
0.0
  0
LINE
  5
D1
330
84
100
AcDbEntity
  8
AM_9
100
AcDbLine
 10
308.5167454020468
 20
511.75
 30
0.0
 11
301.3167454020468
 21
511.75
 31
0.0
  0
LINE
  5
D2
330
84
100
AcDbEntity
  8
AM_9
100
AcDbLine
 10
308.5167454020468
 20
511.75
 30
0.0
 11
308.5167454020468
 21
501.65
 31
0.0
  0
LINE
  5
D3
330
84
100
AcDbEntity
  8
AM_9
100
AcDbLine
 10
301.3167454020468
 20
501.45
 30
0.0
 11
309.3167454020468
 21
501.45
 31
0.0
  0
LINE
  5
D4
330
84
100
AcDbEntity
  8
AM_9
100
AcDbLine
 10
309.3167454020468
 20
511.95
 30
0.0
 11
301.3167454020468
 21
511.95
 31
0.0
  0
LINE
  5
D5
330
84
100
AcDbEntity
  8
AM_9
100
AcDbLine
 10
301.3167454020468
 20
511.95
 30
0.0
 11
301.3167454020468
 21
501.45
 31
0.0
  0
LINE
  5
D6
330
84
100
AcDbEntity
  8
AM_9
100
AcDbLine
 10
145.3167454020468
 20
500.4989999748844
 30
0.0
 11
297.3167454020468
 21
500.4989999748844
 31
0.0
  0
LINE
  5
D7
330
84
100
AcDbEntity
  8
AM_9
100
AcDbLine
 10
297.3167454020468
 20
502.3784172854831
 30
0.0
 11
145.3167454020468
 21
502.3784172854831
 31
0.0
  0
LINE
  5
D8
330
84
100
AcDbEntity
  8
AM_9
100
AcDbLine
 10
337.5872454020468
 20
579.9295
 30
0.0
 11
337.5872454020468
 21
573.4705
 31
0.0
  0
LINE
  5
D9
330
84
100
AcDbEntity
  8
AM_9
100
AcDbLine
 10
340.0462454020468
 20
573.4705
 30
0.0
 11
340.0462454020468
 21
579.9295
 31
0.0
  0
LINE
  5
DA
330
84
100
AcDbEntity
  8
AM_9
100
AcDbLine
 10
337.5872454020468
 20
573.4705
 30
0.0
 11
337.3167454020468
 21
573.2
 31
0.0
  0
LINE
  5
DB
330
84
100
AcDbEntity
  8
AM_9
100
AcDbLine
 10
340.3167454020468
 20
573.2
 30
0.0
 11
340.0462454020468
 21
573.4705
 31
0.0
  0
LINE
  5
DC
330
84
100
AcDbEntity
  8
AM_9
100
AcDbLine
 10
340.3167454020468
 20
573.2
 30
0.0
 11
337.3167454020468
 21
573.2
 31
0.0
  0
LINE
  5
DD
330
84
100
AcDbEntity
  8
AM_9
100
AcDbLine
 10
340.0462454020468
 20
573.4705
 30
0.0
 11
337.5872454020468
 21
573.4705
 31
0.0
  0
LINE
  5
DE
330
84
100
AcDbEntity
  8
AM_9
100
AcDbLine
 10
340.0462454020468
 20
579.9295
 30
0.0
 11
340.3167454020468
 21
580.2
 31
0.0
  0
LINE
  5
DF
330
84
100
AcDbEntity
  8
AM_9
100
AcDbLine
 10
337.3167454020468
 20
580.2
 30
0.0
 11
337.5872454020468
 21
579.9295
 31
0.0
  0
LINE
  5
E0
330
84
100
AcDbEntity
  8
AM_9
100
AcDbLine
 10
340.0462454020468
 20
579.9295
 30
0.0
 11
337.5872454020468
 21
579.9295
 31
0.0
  0
ARC
  5
E1
330
84
100
AcDbEntity
  8
AM_9
100
AcDbCircle
 10
107.5767454020461
 20
527.7
 30
0.0
 40
6.999999999999363
100
AcDbArc
 50
162.5423968762771
 51
190.0226860639526
  0
LINE
  5
E2
330
84
100
AcDbEntity
  8
AM_9
100
AcDbLine
 10
102.5167454020468
 20
530.5
 30
0.0
 11
101.8531101935451
 21
530.5
 31
0.0
  0
ARC
  5
E3
330
84
100
AcDbEntity
  8
AM_9
100
AcDbCircle
 10
101.8531101935452
 20
529.5
 30
0.0
 40
1.000000000000057
100
AcDbArc
 50
90.0
 51
162.5423968762763
  0
LINE
  5
E4
330
84
100
AcDbEntity
  8
AM_9
100
AcDbLine
 10
100.8991709921282
 20
529.8
 30
0.0
 11
100.8991709921282
 21
526.4817333333333
 31
0.0
  0
LINE
  5
E5
330
84
100
AcDbEntity
  8
AM_9
100
AcDbLine
 10
101.8531101935451
 20
530.5
 30
0.0
 11
101.8531101935451
 21
526.4817333333333
 31
0.0
  0
LINE
  5
E6
330
84
100
AcDbEntity
  8
AM_9
100
AcDbLine
 10
102.5167454020468
 20
531.0
 30
0.0
 11
100.3167454020468
 21
531.0
 31
0.0
  0
LINE
  5
E7
330
84
100
AcDbEntity
  8
AM_9
100
AcDbLine
 10
102.5167454020468
 20
527.0762421052632
 30
0.0
 11
100.3167454020468
 21
527.0762421052632
 31
0.0
  0
LINE
  5
E8
330
84
100
AcDbEntity
  8
AM_9
100
AcDbLine
 10
323.3167454020468
 20
573.2
 30
0.0
 11
323.3167454020468
 21
576.5137084989848
 31
0.0
  0
LINE
  5
E9
330
84
100
AcDbEntity
  8
AM_9
100
AcDbLine
 10
319.3167454020468
 20
577.2
 30
0.0
 11
319.3167454020468
 21
573.2
 31
0.0
  0
LINE
  5
EA
330
84
100
AcDbEntity
  8
AM_9
100
AcDbLine
 10
319.3167454020468
 20
573.2
 30
0.0
 11
323.3167454020468
 21
573.2
 31
0.0
  0
LINE
  5
EB
330
84
100
AcDbEntity
  8
AM_9
100
AcDbLine
 10
102.5167454020468
 20
604.7
 30
0.0
 11
100.7670055966823
 21
604.7
 31
0.0
  0
LINE
  5
EC
330
84
100
AcDbEntity
  8
AM_9
100
AcDbLine
 10
102.5167454020468
 20
604.2
 30
0.0
 11
100.3167454020468
 21
604.2
 31
0.0
  0
LINE
  5
ED
330
84
100
AcDbEntity
  8
AM_9
100
AcDbLine
 10
102.5167454020468
 20
604.5269446028227
 30
0.0
 11
100.3167454020468
 21
604.5269446028227
 31
0.0
  0
LINE
  5
EE
330
84
100
AcDbEntity
  8
AM_9
100
AcDbLine
 10
102.5167454020468
 20
604.6359260628019
 30
0.0
 11
100.7520717354076
 21
604.6359260628019
 31
0.0
  0
LINE
  5
EF
330
84
100
AcDbEntity
  8
AM_9
100
AcDbLine
 10
102.5167454020468
 20
604.6166164752128
 30
0.0
 11
100.7476954939714
 21
604.6166164752128
 31
0.0
  0
LINE
  5
F0
330
84
100
AcDbEntity
  8
AM_9
100
AcDbLine
 10
102.5167454020468
 20
604.3054814221406
 30
0.0
 11
100.6850190190248
 21
604.3054814221406
 31
0.0
  0
ARC
  5
F1
330
84
100
AcDbEntity
  8
AM_9
100
AcDbCircle
 10
310.3167454020468
 20
588.7
 30
0.0
 40
0.9999999999999999
100
AcDbArc
 50
180.0
 51
270.0
  0
ARC
  5
F2
330
84
100
AcDbEntity
  8
AM_9
100
AcDbCircle
 10
310.3167454020468
 20
541.7
 30
0.0
 40
1.000000000000004
100
AcDbArc
 50
90.0
 51
180.0
  0
LINE
  5
F3
330
84
100
AcDbEntity
  8
AM_9
100
AcDbLine
 10
102.5167454020468
 20
604.9973235982167
 30
0.0
 11
100.8447124280158
 21
604.9973235982167
 31
0.0
  0
LINE
  5
F4
330
84
100
AcDbEntity
  8
AM_9
100
AcDbLine
 10
102.5167454020468
 20
608.180137379191
 30
0.0
 11
100.3167454020468
 21
608.180137379191
 31
0.0
  0
LINE
  5
F5
330
84
100
AcDbEntity
  8
AM_9
100
AcDbLine
 10
102.5167454020468
 20
607.8540146026751
 30
0.0
 11
100.3167454020468
 21
607.8540146026751
 31
0.0
  0
LINE
  5
F6
330
84
100
AcDbEntity
  8
AM_9
100
AcDbLine
 10
102.5167454020468
 20
608.3
 30
0.0
 11
100.3167454020468
 21
608.3
 31
0.0
  0
LINE
  5
F7
330
84
100
AcDbEntity
  8
AM_9
100
AcDbLine
 10
102.5167454020468
 20
608.3
 30
0.0
 11
102.5167454020468
 21
606.5
 31
0.0
  0
LINE
  5
F8
330
84
100
AcDbEntity
  8
AM_9
100
AcDbLine
 10
297.3167454020468
 20
500.698
 30
0.0
 11
145.3167454020468
 21
500.698
 31
0.0
  0
LINE
  5
F9
330
84
100
AcDbEntity
  8
AM_9
100
AcDbLine
 10
313.3167454020468
 20
548.2
 30
0.0
 11
315.3167454020468
 21
548.2
 31
0.0
  0
LINE
  5
FA
330
84
100
AcDbEntity
  8
AM_9
100
AcDbLine
 10
315.3167454020468
 20
582.2
 30
0.0
 11
313.3167454020468
 21
582.2
 31
0.0
  0
LINE
  5
FB
330
84
100
AcDbEntity
  8
AM_9
100
AcDbLine
 10
297.3167454020468
 20
501.855
 30
0.0
 11
145.3167454020468
 21
501.855
 31
0.0
  0
ARC
  5
FC
330
84
100
AcDbEntity
  8
AM_9
100
AcDbCircle
 10
107.5767454020572
 20
603.0790608329655
 30
0.0
 40
7.000000000010732
100
AcDbArc
 50
192.0370293655171
 51
197.4576031237171
  0
LINE
  5
FD
330
84
100
AcDbEntity
  8
AM_9
100
AcDbLine
 10
102.5167454020468
 20
600.6964786985977
 30
0.0
 11
102.5167454020468
 21
600.1293930665851
 31
0.0
  0
LINE
  5
FE
330
84
100
AcDbEntity
  8
AM_9
100
AcDbLine
 10
102.5167454020468
 20
603.7244846858096
 30
0.0
 11
100.6065640521695
 21
603.7244846858096
 31
0.0
  0
LINE
  5
FF
330
84
100
AcDbEntity
  8
AM_9
100
AcDbLine
 10
100.3167454020468
 20
599.9790608329628
 30
0.0
 11
102.5167454020468
 21
599.9790608329628
 31
0.0
  0
ARC
  5
100
330
84
100
AcDbEntity
  8
AM_9
100
AcDbCircle
 10
101.8531101935452
 20
601.2790608329628
 30
0.0
 40
1.000000000000066
100
AcDbArc
 50
197.4576031237237
 51
270.0
  0
LINE
  5
101
330
84
100
AcDbEntity
  8
AM_9
100
AcDbLine
 10
100.8991709921282
 20
601.6192541710993
 30
0.0
 11
100.8991709921282
 21
600.9790608329628
 31
0.0
  0
LINE
  5
102
330
84
100
AcDbEntity
  8
AM_9
100
AcDbLine
 10
101.8531101935451
 20
600.2790608329627
 30
0.0
 11
102.5167454020468
 21
600.2790608329627
 31
0.0
  0
LINE
  5
103
330
84
100
AcDbEntity
  8
AM_9
100
AcDbLine
 10
101.8531101935451
 20
601.6192541710993
 30
0.0
 11
101.8531101935451
 21
600.2790608329627
 31
0.0
  0
LINE
  5
104
330
84
100
AcDbEntity
  8
AM_9
100
AcDbLine
 10
102.5167454020468
 20
601.3914493993861
 30
0.0
 11
100.3167454020468
 21
601.3914493993861
 31
0.0
  0
LINE
  5
105
330
84
100
AcDbEntity
  8
AM_9
100
AcDbLine
 10
297.3167454020468
 20
502.3349894192863
 30
0.0
 11
145.3167454020468
 21
502.3349894192863
 31
0.0
  0
LINE
  5
106
330
84
100
AcDbEntity
  8
AM_9
100
AcDbLine
 10
313.3167454020468
 20
546.2
 30
0.0
 11
315.3167454020468
 21
546.2
 31
0.0
  0
LINE
  5
107
330
84
100
AcDbEntity
  8
AM_9
100
AcDbLine
 10
315.3167454020468
 20
584.2
 30
0.0
 11
313.3167454020468
 21
584.2
 31
0.0
  0
LINE
  5
108
330
84
100
AcDbEntity
  8
AM_9
100
AcDbLine
 10
313.3167454020468
 20
584.2
 30
0.0
 11
313.3167454020468
 21
546.2
 31
0.0
  0
LINE
  5
109
330
84
100
AcDbEntity
  8
AM_9
100
AcDbLine
 10
297.3167454020468
 20
502.3786115423719
 30
0.0
 11
145.3167454020468
 21
502.3786115423719
 31
0.0
  0
LINE
  5
10A
330
84
100
AcDbEntity
  8
AM_9
100
AcDbLine
 10
297.3167454020468
 20
502.8239288643286
 30
0.0
 11
145.3167454020468
 21
502.8239288643286
 31
0.0
  0
LINE
  5
10B
330
84
100
AcDbEntity
  8
AM_9
100
AcDbLine
 10
297.3167454020468
 20
502.8455248169827
 30
0.0
 11
145.3167454020468
 21
502.8455248169827
 31
0.0
  0
LINE
  5
10C
330
84
100
AcDbEntity
  8
AM_9
100
AcDbLine
 10
102.5167454020468
 20
606.2239725241618
 30
0.0
 11
100.3167454020468
 21
606.2239725241618
 31
0.0
  0
LINE
  5
10D
330
84
100
AcDbEntity
  8
AM_9
100
AcDbLine
 10
310.3167454020468
 20
546.7151045634026
 30
0.0
 11
311.3167454020468
 21
546.7151045634026
 31
0.0
  0
LINE
  5
10E
330
84
100
AcDbEntity
  8
AM_9
100
AcDbLine
 10
311.3167454020468
 20
583.6848954365973
 30
0.0
 11
310.3167454020468
 21
583.6848954365973
 31
0.0
  0
LINE
  5
10F
330
84
100
AcDbEntity
  8
AM_9
100
AcDbLine
 10
310.3167454020468
 20
542.7
 30
0.0
 11
315.3167454020468
 21
542.7
 31
0.0
  0
LINE
  5
110
330
84
100
AcDbEntity
  8
AM_9
100
AcDbLine
 10
315.3167454020468
 20
587.7
 30
0.0
 11
310.3167454020468
 21
587.7
 31
0.0
  0
LINE
  5
111
330
84
100
AcDbEntity
  8
AM_9
100
AcDbLine
 10
297.3167454020468
 20
503.6012257527058
 30
0.0
 11
145.3167454020468
 21
503.6012257527058
 31
0.0
  0
LINE
  5
112
330
84
100
AcDbEntity
  8
AM_9
100
AcDbLine
 10
297.3167454020468
 20
504.0381848934255
 30
0.0
 11
145.3167454020468
 21
504.0381848934255
 31
0.0
  0
LINE
  5
113
330
84
100
AcDbEntity
  8
AM_9
100
AcDbLine
 10
297.3167454020468
 20
504.0732881999551
 30
0.0
 11
145.3167454020468
 21
504.0732881999551
 31
0.0
  0
LINE
  5
114
330
84
100
AcDbEntity
  8
AM_9
100
AcDbLine
 10
297.3167454020468
 20
504.50626121122
 30
0.0
 11
145.3167454020468
 21
504.50626121122
 31
0.0
  0
LINE
  5
115
330
84
100
AcDbEntity
  8
AM_9
100
AcDbLine
 10
297.3167454020468
 20
504.540719206318
 30
0.0
 11
145.3167454020468
 21
504.540719206318
 31
0.0
  0
LINE
  5
116
330
84
100
AcDbEntity
  8
AM_9
100
AcDbLine
 10
297.3167454020468
 20
501.743
 30
0.0
 11
145.3167454020468
 21
501.743
 31
0.0
  0
LINE
  5
117
330
84
100
AcDbEntity
  8
AM_9
100
AcDbLine
 10
297.3167454020468
 20
501.6681036718518
 30
0.0
 11
145.3167454020468
 21
501.6681036718518
 31
0.0
  0
LINE
  5
118
330
84
100
AcDbEntity
  8
AM_9
100
AcDbLine
 10
297.3167454020468
 20
629.702
 30
0.0
 11
145.3167454020468
 21
629.702
 31
0.0
  0
LINE
  5
119
330
84
100
AcDbEntity
  8
AM_9
100
AcDbLine
 10
297.3167454020468
 20
505.7359585312593
 30
0.0
 11
145.3167454020468
 21
505.7359585312593
 31
0.0
  0
LINE
  5
11A
330
84
100
AcDbEntity
  8
AM_9
100
AcDbLine
 10
297.3167454020468
 20
506.1567366978943
 30
0.0
 11
145.3167454020468
 21
506.1567366978943
 31
0.0
  0
LINE
  5
11B
330
84
100
AcDbEntity
  8
AM_9
100
AcDbLine
 10
141.3167454020468
 20
527.7
 30
0.0
 11
145.3167454020468
 21
527.7
 31
0.0
  0
LINE
  5
11C
330
84
100
AcDbEntity
  8
AM_9
100
AcDbLine
 10
297.3167454020468
 20
624.4981285471384
 30
0.0
 11
145.3167454020468
 21
624.4981285471384
 31
0.0
  0
LINE
  5
11D
330
84
100
AcDbEntity
  8
AM_9
100
AcDbLine
 10
297.3167454020468
 20
624.996
 30
0.0
 11
145.3167454020468
 21
624.996
 31
0.0
  0
LINE
  5
11E
330
84
100
AcDbEntity
  8
AM_9
100
AcDbLine
 10
145.3167454020468
 20
624.0004858841528
 30
0.0
 11
297.3167454020468
 21
624.0004858841528
 31
0.0
  0
LINE
  5
11F
330
84
100
AcDbEntity
  8
AM_9
100
AcDbLine
 10
297.3167454020468
 20
506.4050607874624
 30
0.0
 11
145.3167454020468
 21
506.4050607874624
 31
0.0
  0
LINE
  5
120
330
84
100
AcDbEntity
  8
AM_9
100
AcDbLine
 10
297.3167454020468
 20
506.6037945435444
 30
0.0
 11
145.3167454020468
 21
506.6037945435444
 31
0.0
  0
LINE
  5
121
330
84
100
AcDbEntity
  8
AM_9
100
AcDbLine
 10
297.3167454020468
 20
506.6539434963275
 30
0.0
 11
145.3167454020468
 21
506.6539434963275
 31
0.0
  0
LINE
  5
122
330
84
100
AcDbEntity
  8
AM_9
100
AcDbLine
 10
141.3167454020468
 20
531.9
 30
0.0
 11
145.3167454020468
 21
531.9
 31
0.0
  0
LINE
  5
123
330
84
100
AcDbEntity
  8
AM_9
100
AcDbLine
 10
307.3167454020468
 20
626.1826061575154
 30
0.0
 11
309.3167454020468
 21
626.1826061575155
 31
0.0
  0
LINE
  5
124
330
84
100
AcDbEntity
  8
AM_9
100
AcDbLine
 10
307.3167454020468
 20
621.2173938424846
 30
0.0
 11
309.3167454020468
 21
621.2173938424846
 31
0.0
  0
LINE
  5
125
330
84
100
AcDbEntity
  8
AM_9
100
AcDbLine
 10
141.3167454020468
 20
533.3142135623731
 30
0.0
 11
145.3167454020468
 21
533.3142135623731
 31
0.0
  0
LINE
  5
126
330
84
100
AcDbEntity
  8
AM_9
100
AcDbLine
 10
297.3167454020468
 20
629.6528106653992
 30
0.0
 11
145.3167454020468
 21
629.6528106653992
 31
0.0
  0
LINE
  5
127
330
84
100
AcDbEntity
  8
AM_9
100
AcDbLine
 10
297.3167454020468
 20
500.7469392125376
 30
0.0
 11
145.3167454020468
 21
500.7469392125376
 31
0.0
  0
LWPOLYLINE
  5
128
330
84
100
AcDbEntity
  8
AM_9
100
AcDbPolyline
 90
        7
 70
     0
 43
0.0
 10
309.3167454020468
 20
584.9720667870622
 10
309.316757813121
 20
584.9657052590114
 10
309.397212697077
 20
584.4686978991328
 10
309.6026116357414
 20
584.0732664878747
 10
309.8517359262923
 20
583.8336130941009
 10
310.1107383445228
 20
583.7127299733087
 10
310.3167454020468
 20
583.6848954365973
  0
LWPOLYLINE
  5
129
330
84
100
AcDbEntity
  8
AM_9
100
AcDbPolyline
 90
        7
 70
     0
 43
0.0
 10
310.3167454020468
 20
546.7151045634026
 10
310.0413069904999
 20
546.6649161309949
 10
309.7986006368437
 20
546.5275189767144
 10
309.5502745612364
 20
546.2522200943172
 10
309.3642662335953
 20
545.8177916061479
 10
309.3167578131208
 20
545.4342947409883
 10
309.3167454020468
 20
545.4279332129378
  0
LINE
  5
12A
330
84
100
AcDbEntity
  8
AM_9
100
AcDbLine
 10
310.3167454020468
 20
526.4202168507587
 30
0.0
 11
310.3167454020468
 21
603.9797831492413
 31
0.0
  0
LINE
  5
12B
330
84
100
AcDbEntity
  8
AM_9
100
AcDbLine
 10
307.3167454020468
 20
624.9413030787578
 30
0.0
 11
309.3167454020468
 21
624.9413030787578
 31
0.0
  0
LINE
  5
12C
330
84
100
AcDbEntity
  8
AM_9
100
AcDbLine
 10
307.3167454020468
 20
622.4586969212423
 30
0.0
 11
309.3167454020468
 21
622.4586969212423
 31
0.0
  0
LINE
  5
12D
330
84
100
AcDbEntity
  8
AM_9
100
AcDbLine
 10
307.3167454020468
 20
626.1826061575154
 30
0.0
 11
307.3167454020468
 21
621.2173938424846
 31
0.0
  0
LINE
  5
12E
330
84
100
AcDbEntity
  8
AM_9
100
AcDbLine
 10
311.3167454020468
 20
603.9797831492413
 30
0.0
 11
311.3167454020468
 21
578.028041187105
 31
0.0
  0
LWPOLYLINE
  5
12F
330
84
100
AcDbEntity
  8
AM_9
100
AcDbPolyline
 90
        6
 70
     0
 43
0.0
 10
312.3167454020468
 20
583.0891673747811
 10
312.2593248059488
 20
583.2917523024196
 10
312.09355441053
 20
583.4681240264999
 10
311.8379689480156
 20
583.5996185051303
 10
311.5244840575513
 20
583.6722483955755
 10
311.3167454020468
 20
583.6848954365973
  0
LINE
  5
130
330
84
100
AcDbEntity
  8
AM_9
100
AcDbLine
 10
311.3167454020468
 20
526.4202168507587
 30
0.0
 11
311.3167454020468
 21
552.3719588128951
 31
0.0
  0
LWPOLYLINE
  5
131
330
84
100
AcDbEntity
  8
AM_9
100
AcDbPolyline
 90
        6
 70
     0
 43
0.0
 10
311.3167454020468
 20
546.7151045634026
 10
311.6440645450272
 20
546.7470695131993
 10
311.9344441235744
 20
546.839599044866
 10
312.1579730967923
 20
546.9846836059504
 10
312.2895975411291
 20
547.170070179601
 10
312.3167454020468
 20
547.3108326252188
  0
LINE
  5
132
330
84
100
AcDbEntity
  8
AM_9
100
AcDbLine
 10
143.3167454020468
 20
626.0094010767585
 30
0.0
 11
141.3167454020468
 21
626.0094010767585
 31
0.0
  0
LINE
  5
133
330
84
100
AcDbEntity
  8
AM_9
100
AcDbLine
 10
143.3167454020468
 20
621.3905989232414
 30
0.0
 11
141.3167454020468
 21
621.3905989232414
 31
0.0
  0
LINE
  5
134
330
84
100
AcDbEntity
  8
AM_9
100
AcDbLine
 10
132.8167454020468
 20
587.3905989232414
 30
0.0
 11
130.8167454020468
 21
587.3905989232414
 31
0.0
  0
LINE
  5
135
330
84
100
AcDbEntity
  8
AM_9
100
AcDbLine
 10
132.8167454020468
 20
538.3905989232414
 30
0.0
 11
130.8167454020468
 21
538.3905989232414
 31
0.0
  0
LINE
  5
136
330
84
100
AcDbEntity
  8
AM_9
100
AcDbLine
 10
132.8167454020468
 20
543.0094010767585
 30
0.0
 11
130.8167454020468
 21
543.0094010767585
 31
0.0
  0
LINE
  5
137
330
84
100
AcDbEntity
  8
AM_9
100
AcDbLine
 10
132.8167454020468
 20
592.0094010767585
 30
0.0
 11
130.8167454020468
 21
592.0094010767585
 31
0.0
  0
ARC
  5
138
330
84
100
AcDbEntity
  8
AM_9
100
AcDbCircle
 10
308.5167454020468
 20
619.45
 30
0.0
 40
0.8000000000000114
100
AcDbArc
 50
270.0
 51
0.0
  0
ARC
  5
139
330
84
100
AcDbEntity
  8
AM_9
100
AcDbCircle
 10
308.5167454020468
 20
627.95
 30
0.0
 40
0.7999999999999909
100
AcDbArc
 50
0.0
 51
90.0
  0
LINE
  5
13A
330
84
100
AcDbEntity
  8
AM_9
100
AcDbLine
 10
301.3167454020468
 20
618.65
 30
0.0
 11
308.5167454020468
 21
618.65
 31
0.0
  0
LINE
  5
13B
330
84
100
AcDbEntity
  8
AM_9
100
AcDbLine
 10
308.5167454020468
 20
628.75
 30
0.0
 11
301.3167454020468
 21
628.75
 31
0.0
  0
LINE
  5
13C
330
84
100
AcDbEntity
  8
AM_9
100
AcDbLine
 10
308.5167454020468
 20
628.75
 30
0.0
 11
308.5167454020468
 21
618.65
 31
0.0
  0
LINE
  5
13D
330
84
100
AcDbEntity
  8
AM_9
100
AcDbLine
 10
301.3167454020468
 20
618.45
 30
0.0
 11
309.3167454020468
 21
618.45
 31
0.0
  0
LINE
  5
13E
330
84
100
AcDbEntity
  8
AM_9
100
AcDbLine
 10
309.3167454020468
 20
628.95
 30
0.0
 11
301.3167454020468
 21
628.95
 31
0.0
  0
LINE
  5
13F
330
84
100
AcDbEntity
  8
AM_9
100
AcDbLine
 10
301.3167454020468
 20
628.95
 30
0.0
 11
301.3167454020468
 21
618.45
 31
0.0
  0
LINE
  5
140
330
84
100
AcDbEntity
  8
AM_9
100
AcDbLine
 10
143.3167454020468
 20
624.8547005383792
 30
0.0
 11
141.3167454020468
 21
624.8547005383792
 31
0.0
  0
LINE
  5
141
330
84
100
AcDbEntity
  8
AM_9
100
AcDbLine
 10
143.3167454020468
 20
626.0094010767585
 30
0.0
 11
143.3167454020468
 21
621.3905989232414
 31
0.0
  0
LINE
  5
142
330
84
100
AcDbEntity
  8
AM_9
100
AcDbLine
 10
143.3167454020468
 20
622.5452994616207
 30
0.0
 11
141.3167454020468
 21
622.5452994616207
 31
0.0
  0
LINE
  5
143
330
84
100
AcDbEntity
  8
AM_9
100
AcDbLine
 10
102.5167454020468
 20
568.5
 30
0.0
 11
100.3167454020468
 21
568.5
 31
0.0
  0
LINE
  5
144
330
84
100
AcDbEntity
  8
AM_9
100
AcDbLine
 10
100.3167454020468
 20
561.9
 30
0.0
 11
102.5167454020468
 21
561.9
 31
0.0
  0
LINE
  5
145
330
84
100
AcDbEntity
  8
AM_9
100
AcDbLine
 10
132.8167454020468
 20
541.8547005383792
 30
0.0
 11
130.8167454020468
 21
541.8547005383792
 31
0.0
  0
LINE
  5
146
330
84
100
AcDbEntity
  8
AM_9
100
AcDbLine
 10
132.8167454020468
 20
588.5452994616207
 30
0.0
 11
130.8167454020468
 21
588.5452994616207
 31
0.0
  0
LINE
  5
147
330
84
100
AcDbEntity
  8
AM_9
100
AcDbLine
 10
132.8167454020468
 20
590.8547005383792
 30
0.0
 11
130.8167454020468
 21
590.8547005383792
 31
0.0
  0
LINE
  5
148
330
84
100
AcDbEntity
  8
AM_9
100
AcDbLine
 10
132.8167454020468
 20
543.0094010767585
 30
0.0
 11
132.8167454020468
 21
538.3905989232414
 31
0.0
  0
LINE
  5
149
330
84
100
AcDbEntity
  8
AM_9
100
AcDbLine
 10
132.8167454020468
 20
539.5452994616207
 30
0.0
 11
130.8167454020468
 21
539.5452994616207
 31
0.0
  0
LINE
  5
14A
330
84
100
AcDbEntity
  8
AM_9
100
AcDbLine
 10
132.8167454020468
 20
592.0094010767585
 30
0.0
 11
132.8167454020468
 21
587.3905989232414
 31
0.0
  0
LINE
  5
14B
330
84
100
AcDbEntity
  8
AM_9
100
AcDbLine
 10
102.5167454020468
 20
561.9594867553498
 30
0.0
 11
100.3167454020468
 21
561.9594867553498
 31
0.0
  0
LINE
  5
14C
330
84
100
AcDbEntity
  8
AM_9
100
AcDbLine
 10
102.5167454020468
 20
568.4405132639597
 30
0.0
 11
100.3167454020468
 21
568.4405132639597
 31
0.0
  0
LINE
  5
14D
330
84
100
AcDbEntity
  8
AM_9
100
AcDbLine
 10
311.3167454020468
 20
552.3719588128951
 30
0.0
 11
310.3167454020468
 21
552.3719588128951
 31
0.0
  0
LINE
  5
14E
330
84
100
AcDbEntity
  8
AM_9
100
AcDbLine
 10
310.3167454020468
 20
578.028041187105
 30
0.0
 11
311.3167454020468
 21
578.028041187105
 31
0.0
  0
LINE
  5
14F
330
84
100
AcDbEntity
  8
AM_9
100
AcDbLine
 10
312.3167454020468
 20
527.0786796564404
 30
0.0
 11
312.3167454020468
 21
551.5534733123382
 31
0.0
  0
LWPOLYLINE
  5
150
330
84
100
AcDbEntity
  8
AM_9
100
AcDbPolyline
 90
        6
 70
     0
 43
0.0
 10
312.3167454020468
 20
551.5534733123382
 10
312.2593248059488
 20
551.8232104513866
 10
312.09355441053
 20
552.0650982282922
 10
311.8379689480156
 20
552.2499405844734
 10
311.5244840575513
 20
552.3537538863621
 10
311.3167454020468
 20
552.3719588128951
  0
LINE
  5
151
330
84
100
AcDbEntity
  8
AM_9
100
AcDbLine
 10
312.3167454020468
 20
603.3213203435596
 30
0.0
 11
312.3167454020468
 21
578.8465266876618
 31
0.0
  0
LWPOLYLINE
  5
152
330
84
100
AcDbEntity
  8
AM_9
100
AcDbPolyline
 90
        6
 70
     0
 43
0.0
 10
311.3167454020468
 20
578.028041187105
 10
311.6440645450272
 20
578.0739798216908
 10
311.9344441235744
 20
578.20560174566
 10
312.1579730967923
 20
578.4080372752604
 10
312.2895975411291
 20
578.6600011393567
 10
312.3167454020468
 20
578.8465266876618
  0
LWPOLYLINE
  5
153
330
84
100
AcDbEntity
  8
AM_9
100
AcDbPolyline
 90
        7
 70
     0
 43
0.0
 10
309.3167454020468
 20
552.4990010248032
 10
309.316757813121
 20
552.498316703807
 10
309.397212697077
 20
552.446564902876
 10
309.6026116357414
 20
552.407838734978
 10
309.8517359262923
 20
552.3854433859799
 10
310.1107383445228
 20
552.3744584418966
 10
310.3167454020468
 20
552.3719588128951
  0
LWPOLYLINE
  5
154
330
84
100
AcDbEntity
  8
AM_9
100
AcDbPolyline
 90
        7
 70
     0
 43
0.0
 10
310.3167454020468
 20
578.028041187105
 10
310.0413069904999
 20
578.023526028743
 10
309.7986006368437
 20
578.0109800779411
 10
309.5502745612364
 20
577.9850319165532
 10
309.3642662335953
 20
577.9419153112035
 10
309.3167578131208
 20
577.901683296196
 10
309.3167454020468
 20
577.9009989751968
  0
LINE
  5
155
330
84
100
AcDbEntity
  8
AM_9
100
AcDbLine
 10
135.3167454020468
 20
588.8054434262249
 30
0.0
 11
134.8167454020468
 21
588.8054434262249
 31
0.0
  0
LINE
  5
156
330
84
100
AcDbEntity
  8
AM_9
100
AcDbLine
 10
134.8167454020468
 20
586.4306658881347
 30
0.0
 11
135.3167454020468
 21
586.4306658881349
 31
0.0
  0
LINE
  5
157
330
84
100
AcDbEntity
  8
AM_9
100
AcDbLine
 10
135.3167454020468
 20
543.9693341118651
 30
0.0
 11
134.8167454020468
 21
543.9693341118651
 31
0.0
  0
LINE
  5
158
330
84
100
AcDbEntity
  8
AM_9
100
AcDbLine
 10
134.8167454020468
 20
541.5945565737751
 30
0.0
 11
135.3167454020468
 21
541.5945565737752
 31
0.0
  0
LWPOLYLINE
  5
159
330
84
100
AcDbEntity
  8
AM_9
100
AcDbPolyline
 90
        6
 70
     0
 43
0.0
 10
309.3167454020468
 20
525.7757492042145
 10
309.3734235939987
 20
525.98807897902
 10
309.537349677502
 20
526.1778878601876
 10
309.7895115178458
 20
526.3224712191281
 10
310.1005670115398
 20
526.4048158836257
 10
310.3167454020468
 20
526.4202168507587
  0
LINE
  5
15A
330
84
100
AcDbEntity
  8
AM_9
100
AcDbLine
 10
311.3167454020468
 20
526.4202168507587
 30
0.0
 11
310.3167454020468
 21
526.4202168507587
 31
0.0
  0
LWPOLYLINE
  5
15B
330
84
100
AcDbEntity
  8
AM_9
100
AcDbPolyline
 90
        6
 70
     0
 43
0.0
 10
312.3167454020468
 20
527.0786796564404
 10
312.260173734511
 20
526.8588017923771
 10
312.0968394435482
 20
526.6650688233221
 10
311.845128804714
 20
526.5187453928608
 10
311.5340030835719
 20
526.435781813118
 10
311.3167454020468
 20
526.4202168507587
  0
LWPOLYLINE
  5
15C
330
84
100
AcDbEntity
  8
AM_9
100
AcDbPolyline
 90
        6
 70
     0
 43
0.0
 10
311.3167454020468
 20
532.077071100251
 10
311.6470367017986
 20
532.0342875805015
 10
311.9400842211991
 20
531.9110901642543
 10
312.1634046629558
 20
531.7217437534852
 10
312.2918336306124
 20
531.4877542651977
 10
312.3167454020468
 20
531.3213203435596
  0
LINE
  5
15D
330
84
100
AcDbEntity
  8
AM_9
100
AcDbLine
 10
310.3167454020468
 20
532.077071100251
 30
0.0
 11
311.3167454020468
 21
532.077071100251
 31
0.0
  0
LWPOLYLINE
  5
15E
330
84
100
AcDbEntity
  8
AM_9
100
AcDbPolyline
 90
        6
 70
     0
 43
0.0
 10
310.3167454020468
 20
532.077071100251
 10
309.9865566376578
 20
532.1198713036805
 10
309.6935977061199
 20
532.2436007299211
 10
309.4704515483294
 20
532.4350147987614
 10
309.3419663564638
 20
532.6738145101028
 10
309.3167454020468
 20
532.84681701608
  0
LWPOLYLINE
  5
15F
330
84
100
AcDbEntity
  8
AM_9
100
AcDbPolyline
 90
        6
 70
     0
 43
0.0
 10
309.3167454020468
 20
597.55318298392
 10
309.3734235939987
 20
597.8102016222596
 10
309.537349677502
 20
598.037094331684
 10
309.7895115178458
 20
598.2081468109387
 10
310.1005670115399
 20
598.3048892065299
 10
310.3167454020468
 20
598.322928899749
  0
LINE
  5
160
330
84
100
AcDbEntity
  8
AM_9
100
AcDbLine
 10
311.3167454020468
 20
598.322928899749
 30
0.0
 11
310.3167454020468
 21
598.322928899749
 31
0.0
  0
LWPOLYLINE
  5
161
330
84
100
AcDbEntity
  8
AM_9
100
AcDbPolyline
 90
        6
 70
     0
 43
0.0
 10
312.3167454020468
 20
599.0786796564404
 10
312.260173734511
 20
598.829637524121
 10
312.0968394435482
 20
598.6074704102047
 10
311.845128804714
 20
598.4379382937279
 10
311.5340030835719
 20
598.3411434377241
 10
311.3167454020468
 20
598.322928899749
  0
LWPOLYLINE
  5
162
330
84
100
AcDbEntity
  8
AM_9
100
AcDbPolyline
 90
        6
 70
     0
 43
0.0
 10
311.3167454020468
 20
603.9797831492413
 10
311.6470367017986
 20
603.9431996575803
 10
311.9400842211991
 20
603.8373974530842
 10
312.1634046629558
 20
603.6734500492572
 10
312.2918336306124
 20
603.4685835577476
 10
312.3167454020468
 20
603.3213203435596
  0
LINE
  5
163
330
84
100
AcDbEntity
  8
AM_9
100
AcDbLine
 10
310.3167454020468
 20
603.9797831492413
 30
0.0
 11
311.3167454020468
 21
603.9797831492413
 31
0.0
  0
LWPOLYLINE
  5
164
330
84
100
AcDbEntity
  8
AM_9
100
AcDbPolyline
 90
        6
 70
     0
 43
0.0
 10
310.3167454020468
 20
603.9797831492413
 10
309.9865566376578
 20
604.0162992238434
 10
309.6935977061199
 20
604.121404742778
 10
309.4704515483294
 20
604.2826783212539
 10
309.3419663564638
 20
604.481640208586
 10
309.3167454020468
 20
604.6242507957854
  0
LINE
  5
165
330
84
100
AcDbEntity
  8
AM_9
100
AcDbLine
 10
309.3167454020468
 20
514.2
 30
0.0
 11
315.3167454020468
 21
514.2
 31
0.0
  0
LINE
  5
166
330
84
100
AcDbEntity
  8
AM_9
100
AcDbLine
 10
315.3167454020468
 20
616.2
 30
0.0
 11
309.3167454020468
 21
616.2
 31
0.0
  0
LINE
  5
167
330
84
100
AcDbEntity
  8
AM_9
100
AcDbLine
 10
297.3167454020468
 20
611.9652416360248
 30
0.0
 11
309.3167454020468
 21
611.9652416360248
 31
0.0
  0
LINE
  5
168
330
84
100
AcDbEntity
  8
AM_9
100
AcDbLine
 10
309.3167454020468
 20
620.9652416360248
 30
0.0
 11
297.3167454020468
 21
620.9652416360248
 31
0.0
  0
LINE
  5
169
330
84
100
AcDbEntity
  8
AM_9
100
AcDbLine
 10
297.3167454020468
 20
509.4347583639753
 30
0.0
 11
309.3167454020468
 21
509.4347583639753
 31
0.0
  0
LINE
  5
16A
330
84
100
AcDbEntity
  8
AM_9
100
AcDbLine
 10
309.3167454020468
 20
518.4347583639753
 30
0.0
 11
297.3167454020468
 21
518.4347583639753
 31
0.0
  0
LINE
  5
16B
330
84
100
AcDbEntity
  8
AM_9
100
AcDbLine
 10
143.3167454020468
 20
532.5094010767585
 30
0.0
 11
141.3167454020468
 21
532.5094010767585
 31
0.0
  0
LINE
  5
16C
330
84
100
AcDbEntity
  8
AM_9
100
AcDbLine
 10
307.3167454020468
 20
531.2173938424846
 30
0.0
 11
309.3167454020468
 21
531.2173938424846
 31
0.0
  0
LINE
  5
16D
330
84
100
AcDbEntity
  8
AM_9
100
AcDbLine
 10
307.3167454020468
 20
536.1826061575154
 30
0.0
 11
309.3167454020468
 21
536.1826061575154
 31
0.0
  0
LINE
  5
16E
330
84
100
AcDbEntity
  8
AM_9
100
AcDbLine
 10
143.3167454020468
 20
527.8905989232416
 30
0.0
 11
141.3167454020468
 21
527.8905989232416
 31
0.0
  0
LINE
  5
16F
330
84
100
AcDbEntity
  8
AM_9
100
AcDbLine
 10
143.3167454020468
 20
531.3547005383792
 30
0.0
 11
141.3167454020468
 21
531.3547005383792
 31
0.0
  0
LINE
  5
170
330
84
100
AcDbEntity
  8
AM_9
100
AcDbLine
 10
143.3167454020468
 20
532.5094010767585
 30
0.0
 11
143.3167454020468
 21
527.8905989232416
 31
0.0
  0
LINE
  5
171
330
84
100
AcDbEntity
  8
AM_9
100
AcDbLine
 10
143.3167454020468
 20
529.0452994616207
 30
0.0
 11
141.3167454020468
 21
529.0452994616207
 31
0.0
  0
LINE
  5
172
330
84
100
AcDbEntity
  8
AM_9
100
AcDbLine
 10
307.3167454020468
 20
532.4586969212423
 30
0.0
 11
309.3167454020468
 21
532.4586969212423
 31
0.0
  0
LINE
  5
173
330
84
100
AcDbEntity
  8
AM_9
100
AcDbLine
 10
307.3167454020468
 20
536.1826061575154
 30
0.0
 11
307.3167454020468
 21
531.2173938424846
 31
0.0
  0
LINE
  5
174
330
84
100
AcDbEntity
  8
AM_9
100
AcDbLine
 10
307.3167454020468
 20
534.9413030787576
 30
0.0
 11
309.3167454020468
 21
534.9413030787576
 31
0.0
  0
ARC
  5
175
330
84
100
AcDbEntity
  8
AM_9
100
AcDbCircle
 10
308.5167454020468
 20
529.45
 30
0.0
 40
0.8000000000000043
100
AcDbArc
 50
270.0
 51
0.0
  0
ARC
  5
176
330
84
100
AcDbEntity
  8
AM_9
100
AcDbCircle
 10
308.5167454020468
 20
537.95
 30
0.0
 40
0.7999999999999936
100
AcDbArc
 50
0.0
 51
90.0
  0
LINE
  5
177
330
84
100
AcDbEntity
  8
AM_9
100
AcDbLine
 10
301.3167454020468
 20
528.65
 30
0.0
 11
308.5167454020468
 21
528.65
 31
0.0
  0
LINE
  5
178
330
84
100
AcDbEntity
  8
AM_9
100
AcDbLine
 10
308.5167454020468
 20
538.75
 30
0.0
 11
301.3167454020468
 21
538.75
 31
0.0
  0
LINE
  5
179
330
84
100
AcDbEntity
  8
AM_9
100
AcDbLine
 10
308.5167454020468
 20
538.75
 30
0.0
 11
308.5167454020468
 21
528.65
 31
0.0
  0
LINE
  5
17A
330
84
100
AcDbEntity
  8
AM_9
100
AcDbLine
 10
301.3167454020468
 20
528.45
 30
0.0
 11
309.3167454020468
 21
528.45
 31
0.0
  0
LINE
  5
17B
330
84
100
AcDbEntity
  8
AM_9
100
AcDbLine
 10
309.3167454020468
 20
538.95
 30
0.0
 11
301.3167454020468
 21
538.95
 31
0.0
  0
LINE
  5
17C
330
84
100
AcDbEntity
  8
AM_9
100
AcDbLine
 10
301.3167454020468
 20
538.95
 30
0.0
 11
301.3167454020468
 21
528.45
 31
0.0
  0
LINE
  5
17D
330
84
100
AcDbEntity
  8
AM_4
370
    18
100
AcDbLine
 10
263.0
 20
351.2
 30
0.0
 11
263.0
 21
221.2
 31
0.0
  0
POINT
  5
17E
330
84
100
AcDbEntity
  8
View_0_PV
100
AcDbPoint
 10
551.0
 20
286.2
 30
0.0
  0
POINT
  5
17F
330
84
100
AcDbEntity
  8
View_0_PV
100
AcDbPoint
 10
414.0
 20
376.2
 30
0.0
  0
POINT
  5
180
330
84
100
AcDbEntity
  8
View_0_PV
100
AcDbPoint
 10
551.0
 20
286.2
 30
0.0
  0
LINE
  5
181
330
84
100
AcDbEntity
  8
View_0_PV
  6
CENTER2
 62
     4
370
    13
100
AcDbLine
 10
537.676513671875
 20
322.2143737792968
 30
0.0
 11
537.676513671875
 21
250.7768737792969
 31
0.0
  0
TEXT
  5
182
330
84
100
AcDbEntity
  8
View_0_PV
100
AcDbText
 10
534.5090612428213
 20
328.4822771386219
 30
0.0
 40
18.61818390312986
  1
Ａ
 41
0.51
  7
MS PGothic
 11
534.5090612428213
 21
324.6740122493453
 31
0.0
100
AcDbText
 73
     1
  0
TEXT
  5
183
330
84
100
AcDbEntity
  8
View_0_PV
100
AcDbText
 10
534.5090612428213
 20
233.232277138622
 30
0.0
 40
18.61818390312986
  1
Ａ
 41
0.51
  7
MS PGothic
 11
534.5090612428213
 21
229.4240122493454
 31
0.0
100
AcDbText
 73
     1
  0
POINT
  5
184
330
84
100
AcDbEntity
  8
View_0_PV
100
AcDbPoint
 10
492.0
 20
286.2
 30
0.0
  0
POINT
  5
185
330
84
100
AcDbEntity
  8
View_0_PV
100
AcDbPoint
 10
365.0
 20
286.2
 30
0.0
  0
POINT
  5
186
330
84
100
AcDbEntity
  8
View_0_PV
100
AcDbPoint
 10
441.0
 20
286.2
 30
0.0
  0
LINE
  5
187
330
84
100
AcDbEntity
  8
View_0_PV
 62
     7
370
    18
100
AcDbLine
 10
414.0
 20
384.2
 30
0.0
 11
414.0
 21
286.2
 31
0.0
  0
LINE
  5
188
330
84
100
AcDbEntity
  8
View_0_PV
 62
     7
370
    18
100
AcDbLine
 10
399.0
 20
388.2
 30
0.0
 11
399.0
 21
286.2
 31
0.0
  0
LINE
  5
189
330
84
100
AcDbEntity
  8
View_0_PV
 62
     7
370
    18
100
AcDbLine
 10
365.0
 20
388.2
 30
0.0
 11
365.0
 21
286.2
 31
0.0
  0
LINE
  5
18A
330
84
100
AcDbEntity
  8
View_0_PV
 62
     7
370
    18
100
AcDbLine
 10
412.0
 20
386.2
 30
0.0
 11
399.0
 21
386.2
 31
0.0
  0
LINE
  5
18B
330
84
100
AcDbEntity
  8
View_0_PV
 62
     7
370
    18
100
AcDbLine
 10
399.0
 20
388.2
 30
0.0
 11
365.0
 21
388.2
 31
0.0
  0
LINE
  5
18C
330
84
100
AcDbEntity
  8
View_0_PV
  6
CENTER2
 62
     4
370
    18
100
AcDbLine
 10
424.25341796875
 20
376.2
 30
0.0
 11
340.0945434570312
 21
376.2
 31
0.0
  0
LINE
  5
18D
330
84
100
AcDbEntity
  8
View_0_PV
 62
     7
370
    18
100
AcDbLine
 10
492.0
 20
286.2
 30
0.0
 11
492.0
 21
235.2
 31
0.0
  0
LINE
  5
18E
330
84
100
AcDbEntity
  8
View_0_PV
 62
     7
370
    18
100
AcDbLine
 10
450.0
 20
286.2
 30
0.0
 11
450.0
 21
254.2
 31
0.0
  0
LINE
  5
18F
330
84
100
AcDbEntity
  8
View_0_PV
 62
     7
370
    18
100
AcDbLine
 10
432.0
 20
286.2
 30
0.0
 11
432.0
 21
255.0204956054688
 31
0.0
  0
LINE
  5
190
330
84
100
AcDbEntity
  8
View_0_PV
 62
     7
370
    18
100
AcDbLine
 10
414.0
 20
286.2
 30
0.0
 11
414.0
 21
186.2
 31
0.0
  0
LINE
  5
191
330
84
100
AcDbEntity
  8
View_0_PV
 62
     7
370
    18
100
AcDbLine
 10
399.0
 20
286.2
 30
0.0
 11
399.0
 21
232.2
 31
0.0
  0
LINE
  5
192
330
84
100
AcDbEntity
  8
View_0_PV
 62
     7
370
    18
100
AcDbLine
 10
365.0
 20
286.2
 30
0.0
 11
365.0
 21
185.8808471679689
 31
0.0
  0
LINE
  5
193
330
84
100
AcDbEntity
  8
View_0_PV
 62
     7
370
    18
100
AcDbLine
 10
452.0
 20
256.2
 30
0.0
 11
476.1377563476562
 21
256.2
 31
0.0
  0
LINE
  5
194
330
84
100
AcDbEntity
  8
View_0_PV
 62
     7
370
    18
100
AcDbLine
 10
435.9757690429688
 20
251.2
 30
0.0
 11
447.0
 21
251.2
 31
0.0
  0
LINE
  5
195
330
84
100
AcDbEntity
  8
View_0_PV
  6
CENTER2
 62
     4
370
    13
100
AcDbLine
 10
340.0945434570312
 20
196.2
 30
0.0
 11
424.25341796875
 21
196.2
 31
0.0
  0
LINE
  5
196
330
84
100
AcDbEntity
  8
View_0_PV
 62
     7
370
    18
100
AcDbLine
 10
417.1336873058692
 20
237.1594792689817
 30
0.0
 11
429.109480983208
 21
248.4699504753421
 31
0.0
  0
LINE
  5
197
330
84
100
AcDbEntity
  8
View_0_PV
 62
     7
370
    18
100
AcDbLine
 10
489.0
 20
166.2
 30
0.0
 11
334.0
 21
166.2
 31
0.0
  0
LINE
  5
198
330
84
100
AcDbEntity
  8
View_0_PV
 62
     7
370
    18
100
AcDbLine
 10
487.0
 20
181.2
 30
0.0
 11
336.0
 21
181.2
 31
0.0
  0
LINE
  5
199
330
84
100
AcDbEntity
  8
View_0_PV
 62
     7
370
    18
100
AcDbLine
 10
334.0
 20
179.2
 30
0.0
 11
334.0
 21
166.2
 31
0.0
  0
LINE
  5
19A
330
84
100
AcDbEntity
  8
View_0_PV
 62
     7
370
    18
100
AcDbLine
 10
489.0
 20
179.2
 30
0.0
 11
489.0
 21
166.2
 31
0.0
  0
LINE
  5
19B
330
84
100
AcDbEntity
  8
View_0_PV
  6
CENTER2
 62
     4
370
    13
100
AcDbLine
 10
469.0
 20
190.1165649414062
 30
0.0
 11
469.0
 21
156.7791015625
 31
0.0
  0
LINE
  5
19C
330
84
100
AcDbEntity
  8
View_0_PV
  6
DASHED2
 62
     7
370
    18
100
AcDbLine
 10
462.0
 20
181.2
 30
0.0
 11
462.0
 21
166.2
 31
0.0
  0
LINE
  5
19D
330
84
100
AcDbEntity
  8
View_0_PV
  6
DASHED2
 62
     7
370
    18
100
AcDbLine
 10
476.0
 20
181.2
 30
0.0
 11
476.0
 21
166.2
 31
0.0
  0
LINE
  5
19E
330
84
100
AcDbEntity
  8
View_0_PV
  6
CENTER2
 62
     4
370
    18
100
AcDbLine
 10
354.0
 20
190.1165649414062
 30
0.0
 11
354.0
 21
156.7791015625
 31
0.0
  0
LINE
  5
19F
330
84
100
AcDbEntity
  8
View_0_PV
  6
DASHED2
 62
     7
370
    18
100
AcDbLine
 10
347.0
 20
181.2
 30
0.0
 11
347.0
 21
166.2
 31
0.0
  0
LINE
  5
1A0
330
84
100
AcDbEntity
  8
View_0_PV
  6
DASHED2
 62
     7
370
    18
100
AcDbLine
 10
361.0
 20
181.2
 30
0.0
 11
361.0
 21
166.2
 31
0.0
  0
LINE
  5
1A1
330
84
100
AcDbEntity
  8
View_0_PV
 62
     7
370
    18
100
AcDbLine
 10
479.0
 20
255.65263671875
 30
0.0
 11
479.0
 21
186.2
 31
0.0
  0
LINE
  5
1A2
330
84
100
AcDbEntity
  8
View_0_PV
 62
     7
370
    18
100
AcDbLine
 10
401.0
 20
297.2
 30
0.0
 11
401.0
 21
236.2
 31
0.0
  0
LINE
  5
1A3
330
84
100
AcDbEntity
  8
View_0_PV
 62
     7
370
    18
100
AcDbLine
 10
396.0
 20
231.2
 30
0.0
 11
390.8662109375
 21
231.2
 31
0.0
  0
LINE
  5
1A4
330
84
100
AcDbEntity
  8
View_0_PV
 62
     7
370
    18
100
AcDbLine
 10
355.8762871269087
 20
181.9981912171413
 30
0.0
 11
376.4879983327053
 21
190.7691314455867
 31
0.0
  0
LINE
  5
1A5
330
84
100
AcDbEntity
  8
View_0_PV
 62
     7
370
    18
100
AcDbLine
 10
375.9455554775112
 20
188.6835014253948
 30
0.0
 11
386.0269275361171
 21
227.4580132006162
 31
0.0
  0
LINE
  5
1A6
330
84
100
AcDbEntity
  8
View_0_PV
 62
     7
370
    18
100
AcDbLine
 10
479.0
 20
232.2
 30
0.0
 11
489.0
 21
232.2
 31
0.0
  0
LINE
  5
1A7
330
84
100
AcDbEntity
  8
View_0_PV
 62
     7
370
    18
100
AcDbLine
 10
450.0
 20
254.2
 30
0.0
 11
450.0
 21
254.0222045898438
 31
0.0
  0
ARC
  5
1A8
330
84
100
AcDbEntity
  8
View_0_PV
 62
     7
370
    18
100
AcDbCircle
 10
412.0
 20
384.2
 30
0.0
 40
2.0
100
AcDbArc
 50
0.0000359721780683
 51
90.0000179860923
  0
ARC
  5
1A9
330
84
100
AcDbEntity
  8
View_0_PV
 62
     7
370
    18
100
AcDbCircle
 10
424.0
 20
366.5104248046875
 30
0.0
 40
10.0
100
AcDbArc
 50
180.0
 51
226.6366204453042
  0
ARC
  5
1AA
330
84
100
AcDbEntity
  8
View_0_PV
 62
     7
370
    18
100
AcDbCircle
 10
489.0
 20
235.2
 30
0.0
 40
3.0
100
AcDbArc
 50
269.9999273723943
 51
359.9999093863075
  0
ARC
  5
1AB
330
84
100
AcDbEntity
  8
View_0_PV
 62
     7
370
    18
100
AcDbCircle
 10
447.0
 20
254.2
 30
0.0
 40
3.0
100
AcDbArc
 50
269.9999273723943
 51
359.9999093863075
  0
ARC
  5
1AC
330
84
100
AcDbEntity
  8
View_0_PV
 62
     7
370
    18
100
AcDbCircle
 10
424.0
 20
229.8895141601562
 30
0.0
 40
10.0
100
AcDbArc
 50
133.3633795546956
 51
179.9999337860601
  0
ARC
  5
1AD
330
84
100
AcDbEntity
  8
View_0_PV
 62
     7
370
    18
100
AcDbCircle
 10
435.9757690429688
 20
241.2
 30
0.0
 40
10.0
100
AcDbArc
 50
89.99996334457893
 51
133.3633761395984
  0
ARC
  5
1AE
330
84
100
AcDbEntity
  8
View_0_PV
 62
     7
370
    18
100
AcDbCircle
 10
452.0
 20
254.2
 30
0.0
 40
2.0
100
AcDbArc
 50
90.0000179860923
 51
180.0
  0
ARC
  5
1AF
330
84
100
AcDbEntity
  8
View_0_PV
 62
     7
370
    18
100
AcDbCircle
 10
487.0
 20
179.2
 30
0.0
 40
2.0
100
AcDbArc
 50
0.0000359721797167
 51
90.0000179860923
  0
ARC
  5
1B0
330
84
100
AcDbEntity
  8
View_0_PV
 62
     7
370
    18
100
AcDbCircle
 10
336.0
 20
179.2
 30
0.0
 40
2.0
100
AcDbArc
 50
90.0000179860923
 51
180.0
  0
ARC
  5
1B1
330
84
100
AcDbEntity
  8
View_0_PV
 62
     7
370
    18
100
AcDbCircle
 10
419.0
 20
186.2
 30
0.0
 40
5.0
100
AcDbArc
 50
180.0
 51
269.9999820139077
  0
ARC
  5
1B2
330
84
100
AcDbEntity
  8
View_0_PV
 62
     7
370
    18
100
AcDbCircle
 10
484.0
 20
186.2
 30
0.0
 40
5.0
100
AcDbArc
 50
180.0
 51
269.9999820139077
  0
ARC
  5
1B3
330
84
100
AcDbEntity
  8
View_0_PV
 62
     7
370
    18
100
AcDbCircle
 10
351.9607543945312
 20
191.2
 30
0.0
 40
10.0
100
AcDbArc
 50
270.0000366554211
 51
293.051324047569
  0
ARC
  5
1B4
330
84
100
AcDbEntity
  8
View_0_PV
 62
     7
370
    18
100
AcDbCircle
 10
366.2675170898438
 20
191.2
 30
0.0
 40
10.0
100
AcDbArc
 50
270.0000366554211
 51
345.4257610183632
  0
ARC
  5
1B5
330
84
100
AcDbEntity
  8
View_0_PV
 62
     7
370
    18
100
AcDbCircle
 10
390.8662109375
 20
226.2
 30
0.0
 40
5.0
100
AcDbArc
 50
89.99990870306557
 51
165.425752594309
  0
ARC
  5
1B6
330
84
100
AcDbEntity
  8
View_0_PV
 62
     7
370
    18
100
AcDbCircle
 10
396.0
 20
236.2
 30
0.0
 40
5.0
100
AcDbArc
 50
269.999999316757
 51
0.000035972178722
  0
ARC
  5
1B7
330
84
100
AcDbEntity
  8
View_0_PV
 62
     7
370
    18
100
AcDbCircle
 10
399.0
 20
297.2
 30
0.0
 40
2.0
100
AcDbArc
 50
0.0000359721797167
 51
90.0000179860923
  0
ELLIPSE
  5
1B8
330
84
100
AcDbEntity
  8
View_0_PV
 62
     7
370
    18
100
AcDbEllipse
 10
484.0
 20
255.65263671875
 30
0.0
 11
0.0
 21
5.0
 31
0.0
210
0.0
220
0.0
230
1.0
 40
1.0
 41
0.7853981633974642
 42
1.570796326794897
  0
POINT
  5
1B9
330
84
100
AcDbEntity
  8
View_0_PV
100
AcDbPoint
 10
414.0
 20
376.2
 30
0.0
  0
LINE
  5
1BA
330
84
100
AcDbEntity
  8
View_0_PV
 62
     7
370
    18
100
AcDbLine
 10
414.0
 20
423.2
 30
0.0
 11
414.0
 21
405.2
 31
0.0
  0
LINE
  5
1BB
330
84
100
AcDbEntity
  8
View_0_PV
 62
     7
370
    18
100
AcDbLine
 10
417.2000122070312
 20
423.2
 30
0.0
 11
417.2000122070312
 21
363.2
 31
0.0
  0
LINE
  5
1BC
330
84
100
AcDbEntity
  8
View_0_PV
 62
     7
370
    18
100
AcDbLine
 10
417.2000122070312
 20
363.2
 30
0.0
 11
414.5638427734375
 21
363.2
 31
0.0
  0
LINE
  5
1BD
330
84
100
AcDbEntity
  8
View_0_PV
  6
CENTER2
 62
     4
370
    18
100
AcDbLine
 10
420.4293823242188
 20
403.2
 30
0.0
 11
405.8441772460938
 21
403.2
 31
0.0
  0
LINE
  5
1BE
330
84
100
AcDbEntity
  8
View_0_PV
 62
     7
370
    18
100
AcDbLine
 10
417.2000122070312
 20
423.2
 30
0.0
 11
414.0
 21
423.2
 31
0.0
  0
LINE
  5
1BF
330
84
100
AcDbEntity
  8
View_0_PV
 62
     7
370
    18
100
AcDbLine
 10
408.2000122070312
 20
405.2
 30
0.0
 11
408.2000122070312
 21
386.2
 31
0.0
  0
LINE
  5
1C0
330
84
100
AcDbEntity
  8
View_0_PV
 62
     7
370
    18
100
AcDbLine
 10
417.2000122070312
 20
386.2
 30
0.0
 11
408.2000122070312
 21
386.2
 31
0.0
  0
LINE
  5
1C1
330
84
100
AcDbEntity
  8
View_0_PV
 62
     7
370
    18
100
AcDbLine
 10
417.2000122070312
 20
405.2
 30
0.0
 11
408.2000122070312
 21
405.2
 31
0.0
  0
LINE
  5
1C2
330
84
100
AcDbEntity
  8
View_0_PV
 62
     7
370
    18
100
AcDbLine
 10
414.0
 20
386.2
 30
0.0
 11
414.0
 21
363.2
 31
0.0
  0
POINT
  5
1C3
330
84
100
AcDbEntity
  8
View_0_PV
100
AcDbPoint
 10
354.0
 20
386.2
 30
0.0
  0
POINT
  5
1C4
330
84
100
AcDbEntity
  8
View_0_PV
100
AcDbPoint
 10
365.0
 20
286.2
 30
0.0
  0
LINE
  5
1C5
330
84
100
AcDbEntity
  8
View_0_PV
 62
     7
370
    18
100
AcDbLine
 10
305.0
 20
351.2
 30
0.0
 11
305.0
 21
221.2
 31
0.0
  0
LINE
  5
1C6
330
84
100
AcDbEntity
  8
View_0_PV
 62
     7
370
    18
100
AcDbLine
 10
263.0
 20
353.7
 30
0.0
 11
263.0
 21
218.7
 31
0.0
  0
LINE
  5
1C7
330
84
100
AcDbEntity
  8
View_0_PV
 62
     7
370
    18
100
AcDbLine
 10
287.0
 20
353.7
 30
0.0
 11
263.0
 21
353.7
 31
0.0
  0
LINE
  5
1C8
330
84
100
AcDbEntity
  8
View_0_PV
 62
     7
370
    18
100
AcDbLine
 10
286.9999667286198
 20
353.6997612925104
 30
0.0
 11
289.4999587411528
 21
351.1997694907109
 31
0.0
  0
LINE
  5
1C9
330
84
100
AcDbEntity
  8
View_0_PV
 62
     7
370
    18
100
AcDbLine
 10
289.5
 20
351.2
 30
0.0
 11
305.0
 21
351.2
 31
0.0
  0
LINE
  5
1CA
330
84
100
AcDbEntity
  8
View_0_PV
 62
     7
370
    18
100
AcDbLine
 10
263.0
 20
218.7
 30
0.0
 11
287.0
 21
218.7
 31
0.0
  0
LINE
  5
1CB
330
84
100
AcDbEntity
  8
View_0_PV
 62
     7
370
    18
100
AcDbLine
 10
289.4998820320861
 20
221.1998467586444
 30
0.0
 11
286.999890019553
 21
218.6998549568449
 31
0.0
  0
LINE
  5
1CC
330
84
100
AcDbEntity
  8
View_0_PV
 62
     7
370
    18
100
AcDbLine
 10
305.0
 20
221.2
 30
0.0
 11
289.5
 21
221.2
 31
0.0
  0
LINE
  5
1CD
330
84
100
AcDbEntity
  8
View_0_PV
 62
     7
370
    18
100
AcDbLine
 10
364.9699999999998
 20
386.2
 30
0.0
 11
364.9699999999998
 21
186.2
 31
0.0
  0
LINE
  5
1CE
330
84
100
AcDbEntity
  8
View_0_PV
 62
     7
370
    18
100
AcDbLine
 10
365.0
 20
386.2
 30
0.0
 11
348.0
 21
386.2
 31
0.0
  0
LINE
  5
1CF
330
84
100
AcDbEntity
  8
View_0_PV
 62
     7
370
    18
100
AcDbLine
 10
365.0
 20
186.2
 30
0.0
 11
354.0
 21
186.2
 31
0.0
  0
LINE
  5
1D0
330
84
100
AcDbEntity
  8
View_0_PV
 62
     7
370
    18
100
AcDbLine
 10
352.0
 20
384.2
 30
0.0
 11
352.0
 21
188.2
 31
0.0
  0
LINE
  5
1D1
330
84
100
AcDbEntity
  8
View_0_PV
  6
CENTER2
 62
     4
370
    13
100
AcDbLine
 10
354.0
 20
393.1329833984374
 30
0.0
 11
354.0
 21
377.0595581054688
 31
0.0
  0
LINE
  5
1D2
330
84
100
AcDbEntity
  8
View_0_PV
 62
     7
370
    18
100
AcDbLine
 10
346.0
 20
384.2
 30
0.0
 11
346.0
 21
356.2
 31
0.0
  0
LINE
  5
1D3
330
84
100
AcDbEntity
  8
View_0_PV
 62
     7
370
    18
100
AcDbLine
 10
347.0
 20
346.2
 30
0.0
 11
292.0130615234375
 21
346.2
 31
0.0
  0
LINE
  5
1D4
330
84
100
AcDbEntity
  8
View_0_PV
 62
     7
370
    18
100
AcDbLine
 10
347.0
 20
351.2
 30
0.0
 11
305.0
 21
351.2
 31
0.0
  0
LINE
  5
1D5
330
84
100
AcDbEntity
  8
View_0_PV
 62
     7
370
    18
100
AcDbLine
 10
347.0
 20
296.2
 30
0.0
 11
292.0130615234375
 21
296.2
 31
0.0
  0
LINE
  5
1D6
330
84
100
AcDbEntity
  8
View_0_PV
 62
     7
370
    18
100
AcDbLine
 10
347.0
 20
276.2
 30
0.0
 11
292.0130615234375
 21
276.2
 31
0.0
  0
LINE
  5
1D7
330
84
100
AcDbEntity
  8
View_0_PV
 62
     7
370
    18
100
AcDbLine
 10
292.5421752929688
 20
226.2
 30
0.0
 11
347.0
 21
226.2
 31
0.0
  0
LINE
  5
1D8
330
84
100
AcDbEntity
  8
View_0_PV
 62
     7
370
    18
100
AcDbLine
 10
305.0
 20
221.2
 30
0.0
 11
347.0
 21
221.2
 31
0.0
  0
ARC
  5
1D9
330
84
100
AcDbEntity
  8
View_0_PV
 62
     7
370
    18
100
AcDbCircle
 10
354.0
 20
384.2
 30
0.0
 40
2.0
100
AcDbArc
 50
90.00001798608903
 51
180.0
  0
ARC
  5
1DA
330
84
100
AcDbEntity
  8
View_0_PV
 62
     7
370
    18
100
AcDbCircle
 10
354.0
 20
188.2
 30
0.0
 40
2.0
100
AcDbArc
 50
180.0
 51
269.999982013911
  0
ARC
  5
1DB
330
84
100
AcDbEntity
  8
View_0_PV
 62
     7
370
    18
100
AcDbCircle
 10
348.0
 20
384.2
 30
0.0
 40
2.0
100
AcDbArc
 50
90.00001798608903
 51
180.0
  0
ARC
  5
1DC
330
84
100
AcDbEntity
  8
View_0_PV
 62
     7
370
    18
100
AcDbCircle
 10
347.0
 20
351.2
 30
0.0
 40
5.0
100
AcDbArc
 50
269.9999993167544
 51
0.0000359721793757
  0
ARC
  5
1DD
330
84
100
AcDbEntity
  8
View_0_PV
 62
     7
370
    18
100
AcDbCircle
 10
347.0
 20
356.2
 30
0.0
 40
5.0
100
AcDbArc
 50
269.9999993167544
 51
0.0000359721793757
  0
ARC
  5
1DE
330
84
100
AcDbEntity
  8
View_0_PV
 62
     7
370
    18
100
AcDbCircle
 10
341.0
 20
356.2
 30
0.0
 40
5.0
100
AcDbArc
 50
269.9999993167544
 51
0.0000359721793757
  0
ARC
  5
1DF
330
84
100
AcDbEntity
  8
View_0_PV
 62
     7
370
    18
100
AcDbCircle
 10
347.0
 20
301.2
 30
0.0
 40
5.0
100
AcDbArc
 50
269.9999993167544
 51
0.0000359721793757
  0
ARC
  5
1E0
330
84
100
AcDbEntity
  8
View_0_PV
 62
     7
370
    18
100
AcDbCircle
 10
347.0
 20
271.2
 30
0.0
 40
5.0
100
AcDbArc
 50
0.000035972178722
 51
90.00001798608967
  0
ARC
  5
1E1
330
84
100
AcDbEntity
  8
View_0_PV
 62
     7
370
    18
100
AcDbCircle
 10
347.0
 20
221.2
 30
0.0
 40
5.0
100
AcDbArc
 50
359.9999813306654
 51
90.00001798608967
  0
ARC
  5
1E2
330
84
100
AcDbEntity
  8
View_0_PV
 62
     7
370
    18
100
AcDbCircle
 10
347.0
 20
216.2
 30
0.0
 40
5.0
100
AcDbArc
 50
359.9999813306654
 51
90.00001798608967
  0
POINT
  5
1E3
330
84
100
AcDbEntity
  8
View_0_PV
100
AcDbPoint
 10
492.0
 20
286.2
 30
0.0
  0
LINE
  5
1E4
330
84
100
AcDbEntity
  8
View_0_PV
  6
CENTER2
 62
     4
370
    13
100
AcDbLine
 10
565.223388671875
 20
286.2
 30
0.0
 11
250.0053100585937
 21
286.2
 31
0.0
  0
LINE
  5
1E5
330
84
100
AcDbEntity
  8
View_0_PV
 62
     7
370
    18
100
AcDbLine
 10
495.0
 20
253.7
 30
0.0
 11
492.0
 21
253.7
 31
0.0
  0
LINE
  5
1E6
330
84
100
AcDbEntity
  8
View_0_PV
 62
     7
370
    18
100
AcDbLine
 10
492.0
 20
318.7
 30
0.0
 11
492.0
 21
253.7
 31
0.0
  0
LINE
  5
1E7
330
84
100
AcDbEntity
  8
View_0_PV
 62
     7
370
    18
100
AcDbLine
 10
551.0
 20
304.2000057058984
 30
0.0
 11
551.0
 21
268.2
 31
0.0
  0
LINE
  5
1E8
330
84
100
AcDbEntity
  8
View_0_PV
 62
     7
370
    18
100
AcDbLine
 10
495.9999858928769
 20
254.6999929238641
 30
0.0
 11
494.9999988492568
 21
253.7000209685064
 31
0.0
  0
LINE
  5
1E9
330
84
100
AcDbEntity
  8
View_0_PV
 62
     7
370
    18
100
AcDbLine
 10
550.9999855586748
 20
304.1999912645452
 30
0.0
 11
549.9999835105928
 21
305.19999137387
 31
0.0
  0
LINE
  5
1EA
330
84
100
AcDbEntity
  8
View_0_PV
 62
     7
370
    18
100
AcDbLine
 10
550.9999691645852
 20
268.1999810418658
 30
0.0
 11
549.9999886957106
 21
267.2000025117067
 31
0.0
  0
LINE
  5
1EB
330
84
100
AcDbEntity
  8
View_0_PV
  6
DASHED2
 62
     7
370
    18
100
AcDbLine
 10
550.9999820459483
 20
280.6999798516686
 30
0.0
 11
548.5751214978313
 21
282.0999737669986
 31
0.0
  0
LINE
  5
1EC
330
84
100
AcDbEntity
  8
View_0_PV
  6
DASHED2
 62
     7
370
    18
100
AcDbLine
 10
551.0000153253585
 20
291.7000101350998
 30
0.0
 11
548.5751019192462
 21
290.2999857021914
 31
0.0
  0
LINE
  5
1ED
330
84
100
AcDbEntity
  8
View_0_PV
  6
DASHED2
 62
     7
370
    18
100
AcDbLine
 10
547.4000244140625
 20
290.3000061035157
 30
0.0
 11
547.4000244140625
 21
282.0999938964844
 31
0.0
  0
LINE
  5
1EE
330
84
100
AcDbEntity
  8
View_0_PV
  6
DASHED2
 62
     7
370
    18
100
AcDbLine
 10
548.5751342773438
 20
290.3000061035157
 30
0.0
 11
547.4000244140625
 21
290.3000061035157
 31
0.0
  0
LINE
  5
1EF
330
84
100
AcDbEntity
  8
View_0_PV
  6
DASHED2
 62
     7
370
    18
100
AcDbLine
 10
548.5751342773438
 20
282.0999938964844
 30
0.0
 11
547.4000244140625
 21
282.0999938964844
 31
0.0
  0
LINE
  5
1F0
330
84
100
AcDbEntity
  8
View_0_PV
  6
DASHED2
 62
     3
370
    18
100
AcDbLine
 10
547.4000244140625
 20
290.2
 30
0.0
 11
527.4000244140625
 21
290.2
 31
0.0
  0
LINE
  5
1F1
330
84
100
AcDbEntity
  8
View_0_PV
  6
DASHED2
 62
     3
370
    18
100
AcDbLine
 10
547.4000244140625
 20
282.2
 30
0.0
 11
527.4000244140625
 21
282.2
 31
0.0
  0
LINE
  5
1F2
330
84
100
AcDbEntity
  8
View_0_PV
  6
DASHED2
 62
     7
370
    18
100
AcDbLine
 10
527.4000244140625
 20
290.2
 30
0.0
 11
527.4000244140625
 21
282.2
 31
0.0
  0
LINE
  5
1F3
330
84
100
AcDbEntity
  8
View_0_PV
  6
DASHED2
 62
     7
370
    18
100
AcDbLine
 10
523.4000244140625
 20
289.523486328125
 30
0.0
 11
523.4000244140625
 21
282.8765136718749
 31
0.0
  0
LINE
  5
1F4
330
84
100
AcDbEntity
  8
View_0_PV
  6
DASHED2
 62
     7
370
    18
100
AcDbLine
 10
523.3999854705451
 20
282.8764902102023
 30
0.0
 11
521.4811622025279
 21
286.1999895415024
 31
0.0
  0
LINE
  5
1F5
330
84
100
AcDbEntity
  8
View_0_PV
  6
DASHED2
 62
     7
370
    18
100
AcDbLine
 10
523.4000053230137
 20
289.5235307685228
 30
0.0
 11
521.4811820549967
 21
286.2000314372228
 31
0.0
  0
LINE
  5
1F6
330
84
100
AcDbEntity
  8
View_0_PV
  6
DASHED2
 62
     7
370
    18
100
AcDbLine
 10
548.5751342773438
 20
290.3000061035157
 30
0.0
 11
548.5751342773438
 21
282.0999938964844
 31
0.0
  0
LINE
  5
1F7
330
84
100
AcDbEntity
  8
View_0_PV
  6
DASHED2
 62
     7
370
    18
100
AcDbLine
 10
547.4000244140625
 20
289.523486328125
 30
0.0
 11
523.4000244140625
 21
289.523486328125
 31
0.0
  0
LINE
  5
1F8
330
84
100
AcDbEntity
  8
View_0_PV
  6
DASHED2
 62
     7
370
    18
100
AcDbLine
 10
547.4000244140625
 20
282.8765136718749
 30
0.0
 11
523.4000244140625
 21
282.8765136718749
 31
0.0
  0
CIRCLE
  5
1F9
330
84
100
AcDbEntity
  8
View_0_PV
 62
     3
370
    18
100
AcDbCircle
 10
537.676513671875
 20
286.2050354003907
 30
0.0
 40
17.0
  0
TEXT
  5
1FA
330
84
100
AcDbEntity
  8
View_0_PV
 62
     7
100
AcDbText
 10
569.9809642023847
 20
340.3831305019051
 30
0.0
 40
18.61920884624043
  1
Ｚ
 41
0.51
  7
MS PGothic
 11
569.9809642023847
 21
336.5746559651741
 31
0.0
100
AcDbText
 73
     1
  0
HATCH
  5
1FB
330
84
100
AcDbEntity
  8
View_0_PV
  6
Continuous
 62
     3
370
    18
100
AcDbHatch
 10
0.0
 20
0.0
 30
0.0
210
0.0
220
0.0
230
1.0
  2
SOLID
 70
     1
 71
     1
 91
        1
 92
        3
 72
     0
 73
     1
 93
        3
 10
549.7861869126659
 20
313.5735481529864
 10
545.3204307227063
 20
301.3896188704049
 10
553.4963393183701
 20
311.4666040220492
 97
        0
 75
     0
 76
     1
 98
        1
 10
549.7861869126659
 20
313.5735481529864
  0
LWPOLYLINE
  5
1FC
330
84
100
AcDbEntity
  8
View_0_PV
  6
Continuous
 62
     3
370
    18
100
AcDbPolyline
 90
        3
 70
     0
 43
0.0
 10
545.3204307227062
 20
301.3896188704049
 10
565.2145094742938
 20
336.4214277616263
 10
579.9132342338562
 20
336.4214277616263
  0
LINE
  5
1FD
330
84
100
AcDbEntity
  8
View_0_PV
 62
     7
370
    18
100
AcDbLine
 10
418.9283943982759
 20
357.5451068017549
 30
0.0
 11
417.1336359521533
 21
359.2401563553935
 31
0.0
  0
LINE
  5
1FE
330
84
100
AcDbEntity
  8
View_0_PV
 62
     7
370
    18
100
AcDbLine
 10
432.0
 20
326.7149340820313
 30
0.0
 11
432.0
 21
286.2
 31
0.0
  0
LINE
  5
1FF
330
84
100
AcDbEntity
  8
View_0_PV
 62
     7
370
    18
100
AcDbLine
 10
450.0
 20
326.7149340820313
 30
0.0
 11
450.0
 21
286.2
 31
0.0
  0
LINE
  5
200
330
84
100
AcDbEntity
  8
View_0_PV
 62
     7
370
    18
100
AcDbLine
 10
492.0
 20
326.7149340820313
 30
0.0
 11
492.0
 21
286.2
 31
0.0
  0
LINE
  5
201
330
84
100
AcDbEntity
  8
View_0_PV
 62
     7
370
    18
100
AcDbLine
 10
497.9832545979532
 20
305.2
 30
0.0
 11
496.0
 21
305.2
 31
0.0
  0
LINE
  5
202
330
84
100
AcDbEntity
  8
View_0_PV
 62
     7
370
    18
100
AcDbLine
 10
550.0
 20
305.2
 30
0.0
 11
518.1032545979532
 21
305.2
 31
0.0
  0
LINE
  5
203
330
84
100
AcDbEntity
  8
View_0_PV
  6
DASHED2
 62
     7
370
    18
100
AcDbLine
 10
551.0
 20
300.2
 30
0.0
 11
518.1032545979532
 21
300.2
 31
0.0
  0
LINE
  5
204
330
84
100
AcDbEntity
  8
View_0_PV
 62
     7
370
    18
100
AcDbLine
 10
496.0
 20
317.6999929692258
 30
0.0
 11
496.0
 21
254.7
 31
0.0
  0
LINE
  5
205
330
84
100
AcDbEntity
  8
View_0_PV
 62
     7
370
    18
100
AcDbLine
 10
497.9832545979532
 20
267.2
 30
0.0
 11
496.0
 21
267.2
 31
0.0
  0
LINE
  5
206
330
84
100
AcDbEntity
  8
View_0_PV
 62
     7
370
    18
100
AcDbLine
 10
550.0
 20
267.2
 30
0.0
 11
518.1032545979532
 21
267.2
 31
0.0
  0
LINE
  5
207
330
84
100
AcDbEntity
  8
View_0_PV
 62
     7
370
    35
100
AcDbLine
 10
508.1032545979532
 20
267.2
 30
0.0
 11
507.9832545979532
 21
267.2
 31
0.0
  0
POINT
  5
208
330
84
100
AcDbEntity
  8
View_1_A
100
AcDbPoint
 10
155.0
 20
82.3185669628802
 30
0.0
  0
POINT
  5
209
330
84
100
AcDbEntity
  8
View_4_C
100
AcDbPoint
 10
285.6690692901611
 20
82.3163801529196
 30
0.0
  0
TEXT
  5
20A
330
84
100
AcDbEntity
  8
View_1_A
100
AcDbText
 10
149.2152861295152
 20
29.8503045951629
 30
0.0
 40
9.308075050967235
  1
Ａ－Ａ
 41
0.62
  7
MS PGothic
 11
149.2152861295152
 21
27.9463801529196
 31
0.0
100
AcDbText
 73
     1
  0
CIRCLE
  5
20B
330
84
100
AcDbEntity
  8
View_0_PV
370
    35
100
AcDbCircle
 10
155.0
 20
82.31856696288025
 30
0.0
 40
4.0
  0
POINT
  5
20C
330
84
100
AcDbEntity
  8
View_1_A
100
AcDbPoint
 10
155.0
 20
82.31856696288025
 30
0.0
  0
LINE
  5
20D
330
84
100
AcDbEntity
  8
View_1_A
 62
     7
370
    35
100
AcDbLine
 10
160.0
 20
104.3185669628803
 30
0.0
 11
160.0
 21
96.31856696288025
 31
0.0
  0
LINE
  5
20E
330
84
100
AcDbEntity
  8
View_1_A
 62
     7
370
    35
100
AcDbLine
 10
150.0
 20
104.3185669628803
 30
0.0
 11
150.0
 21
96.31856696288025
 31
0.0
  0
LINE
  5
20F
330
84
100
AcDbEntity
  8
View_1_A
 62
     7
370
    35
100
AcDbLine
 10
150.0
 20
104.3185669628803
 30
0.0
 11
160.0
 21
104.3185669628803
 31
0.0
  0
LINE
  5
210
330
84
100
AcDbEntity
  8
View_1_A
 62
     7
370
    35
100
AcDbLine
 10
150.0
 20
96.31856696288025
 30
0.0
 11
160.0
 21
96.31856696288025
 31
0.0
  0
LINE
  5
211
330
84
100
AcDbEntity
  8
View_1_A
  6
CENTER2
 62
     4
370
    13
100
AcDbLine
 10
155.0
 20
105.8185669628803
 30
0.0
 11
155.0
 21
58.81856696288025
 31
0.0
  0
LINE
  5
212
330
84
100
AcDbEntity
  8
View_1_A
  6
CENTER2
 62
     4
370
    13
100
AcDbLine
 10
131.5
 20
82.31856696288025
 30
0.0
 11
178.5
 21
82.31856696288025
 31
0.0
  0
ARC
  5
213
330
84
100
AcDbEntity
  8
View_1_A
 62
     3
370
    18
100
AcDbCircle
 10
155.0
 20
82.31856696288025
 30
0.0
 40
19.0
100
AcDbArc
 50
89.99998201391067
 51
105.2574771479386
  0
ARC
  5
214
330
84
100
AcDbEntity
  8
View_1_A
 62
     7
370
    35
100
AcDbCircle
 10
155.0
 20
82.31856696288025
 30
0.0
 40
19.0
100
AcDbArc
 50
105.2574771479386
 51
74.74246957703873
  0
POINT
  5
215
330
84
100
AcDbEntity
  8
View_4_C
100
AcDbPoint
 10
285.6690692901611
 20
82.3163801529196
 30
0.0
  0
LINE
  5
216
330
84
100
AcDbEntity
  8
View_4_C
 62
     7
370
    35
100
AcDbLine
 10
285.6690692901611
 20
112.7163816787985
 30
0.0
 11
285.6690692901611
 21
61.7822767593649
 31
0.0
  0
LINE
  5
217
330
84
100
AcDbEntity
  8
View_4_C
 62
     3
370
    18
100
AcDbLine
 10
279.9090595245361
 20
88.71638167879851
 30
0.0
 11
247.9090595245361
 21
88.71638167879851
 31
0.0
  0
LINE
  5
218
330
84
100
AcDbEntity
  8
View_4_C
 62
     7
370
    35
100
AcDbLine
 10
279.9090595245361
 20
88.87637771151336
 30
0.0
 11
279.9090595245361
 21
75.75638259432586
 31
0.0
  0
LINE
  5
219
330
84
100
AcDbEntity
  8
View_4_C
 62
     7
370
    35
100
AcDbLine
 10
281.7892780303954
 20
75.75638259432586
 30
0.0
 11
279.9090595245361
 21
75.75638259432586
 31
0.0
  0
LINE
  5
21A
330
84
100
AcDbEntity
  8
View_4_C
 62
     7
370
    35
100
AcDbLine
 10
281.7892780303954
 20
88.87637771151336
 30
0.0
 11
279.9090595245361
 21
88.87637771151336
 31
0.0
  0
LINE
  5
21B
330
84
100
AcDbEntity
  8
View_4_C
 62
     7
370
    35
100
AcDbLine
 10
285.6690553653622
 20
91.11638229491535
 30
0.0
 11
281.7892520593774
 21
88.87637677159819
 31
0.0
  0
LINE
  5
21C
330
84
100
AcDbEntity
  8
View_4_C
 62
     3
370
    18
100
AcDbLine
 10
279.9090595245361
 20
75.9163786270407
 30
0.0
 11
247.9090595245361
 21
75.9163786270407
 31
0.0
  0
LINE
  5
21D
330
84
100
AcDbEntity
  8
View_4_C
 62
     7
370
    35
100
AcDbLine
 10
285.6690640110116
 20
73.51637539137435
 30
0.0
 11
281.7892607050269
 21
75.75638091469155
 31
0.0
  0
LINE
  5
21E
330
84
100
AcDbEntity
  8
View_4_C
  6
CENTER2
 62
     4
370
    13
100
AcDbLine
 10
290.5315265655518
 20
82.3163801529196
 30
0.0
 11
230.1588764190674
 21
82.3163801529196
 31
0.0
  0
LINE
  5
21F
330
84
100
AcDbEntity
  8
View_4_C
 62
     7
370
    35
100
AcDbLine
 10
247.9090595245361
 20
88.71638167879851
 30
0.0
 11
247.9090595245361
 21
75.9163786270407
 31
0.0
  0
LINE
  5
220
330
84
100
AcDbEntity
  8
View_4_C
 62
     7
370
    35
100
AcDbLine
 10
241.5090656280517
 20
87.63397658846645
 30
0.0
 11
241.5090656280517
 21
76.99878371737276
 31
0.0
  0
LINE
  5
221
330
84
100
AcDbEntity
  8
View_4_C
 62
     7
370
    35
100
AcDbLine
 10
241.5090529358148
 20
76.99876954334275
 30
0.0
 11
238.4389311293506
 21
82.31637640212219
 31
0.0
  0
LINE
  5
222
330
84
100
AcDbEntity
  8
View_4_C
 62
     7
370
    35
100
AcDbLine
 10
241.5090615814643
 20
87.63398814294695
 30
0.0
 11
238.4389397750002
 21
82.3163812841675
 31
0.0
  0
LINE
  5
223
330
84
100
AcDbEntity
  8
View_4_C
 62
     3
370
    18
100
AcDbLine
 10
285.6690553653622
 20
91.11638229491535
 30
0.0
 11
329.7740692901612
 21
116.4463801529196
 31
0.0
  0
LINE
  5
224
330
84
100
AcDbEntity
  8
View_4_C
 62
     3
370
    18
100
AcDbLine
 10
285.6690692901611
 20
91.11638320467739
 30
0.0
 11
305.8746967315674
 21
91.11638320467739
 31
0.0
  0
LINE
  5
225
330
84
100
AcDbEntity
  8
View_4_C
 62
     3
370
    18
100
AcDbLine
 10
285.6690692901611
 20
73.51637710116181
 30
0.0
 11
305.8746967315674
 21
73.51637710116181
 31
0.0
  0
LINE
  5
226
330
84
100
AcDbEntity
  8
View_4_C
 62
     7
370
    35
100
AcDbLine
 10
281.7892780303954
 20
88.87637771151336
 30
0.0
 11
281.7892780303954
 21
75.75638259432586
 31
0.0
  0
LINE
  5
227
330
84
100
AcDbEntity
  8
View_4_C
 62
     7
370
    35
100
AcDbLine
 10
279.9090595245361
 20
87.63397658846645
 30
0.0
 11
241.5090656280517
 21
87.63397658846645
 31
0.0
  0
LINE
  5
228
330
84
100
AcDbEntity
  8
View_4_C
 62
     7
370
    35
100
AcDbLine
 10
279.9090595245361
 20
76.99878371737276
 30
0.0
 11
241.5090656280517
 21
76.99878371737276
 31
0.0
  0
SPLINE
  5
229
330
84
100
AcDbEntity
  8
View_4_C
 62
     3
370
    18
100
AcDbSpline
210
0.0
220
0.0
230
1.0
 70
     8
 71
     3
 72
    15
 73
    11
 74
     0
 42
0.000000001
 43
0.0000000001
 40
0.0
 40
0.0
 40
0.0
 40
0.0
 40
31.67788889451427
 40
81.26664795518542
 40
115.374862254684
 40
155.286279912251
 40
186.5359545408564
 40
245.3912651233918
 40
273.8485088748417
 40
301.2157147661438
 40
301.2157147661438
 40
301.2157147661438
 40
301.2157147661438
 10
285.6690692901611
 20
112.7163816787985
 30
0.0
 10
280.4945822340538
 20
111.6054129035576
 30
0.0
 10
267.2199218127857
 20
108.7553268814951
 30
0.0
 10
249.1818163975653
 20
102.7210785801687
 30
0.0
 10
227.1319666001519
 20
102.6007789468238
 30
0.0
 10
217.9656931777748
 20
79.36408602564094
 30
0.0
 10
238.743612711761
 20
67.8708442132841
 30
0.0
 10
256.6896561206623
 20
52.2315381595583
 30
0.0
 10
274.1524147945851
 20
66.3439272343637
 30
0.0
 10
283.3485970020499
 20
62.58947625012566
 30
0.0
 10
287.8569049835204
 20
60.74890578768525
 30
0.0
  0
TEXT
  5
22A
330
84
100
AcDbEntity
  8
View_4_C
100
AcDbText
 10
266.8257964297684
 20
45.9781082038252
 30
0.0
 40
9.309641270705335
  1
Ｚ
 41
0.51
  7
MS PGothic
 11
266.8257964297684
 21
44.07386339845365
 31
0.0
100
AcDbText
 73
     1
  0
TEXT
  5
22B
330
84
100
AcDbEntity
  8
View_1_A
 62
     7
100
AcDbText
 10
136.6267206988478
 20
47.93116043367844
 30
0.0
 40
11.48329964684067
  1
φ
 41
0.9
  7
MS PGothic
 11
136.6267206988478
 21
45.58230368773376
 31
0.0
100
AcDbText
 73
     1
  0
TEXT
  5
22C
330
84
100
AcDbEntity
  8
View_1_A
 62
     7
100
AcDbText
 10
149.8325152397156
 20
47.9311618623816
 30
0.0
 40
11.48330663161168
  1
38
 41
0.9
  7
MS PGothic
 11
149.8325152397156
 21
45.58230368773376
 31
0.0
100
AcDbText
 73
     1
  0
TEXT
  5
22D
330
84
100
AcDbEntity
  8
View_1_A
 62
     7
100
AcDbText
 10
163.0383097805833
 20
47.93115768276073
 30
0.0
 40
11.48328619790965
  1
h6
 41
0.9000000000000012
  7
MS PGothic
 11
163.0383097805833
 21
45.58230368773376
 31
0.0
100
AcDbText
 73
     1
  0
LINE
  5
22E
330
84
100
AcDbEntity
  8
View_1_A
  6
Continuous
 62
     3
370
    18
100
AcDbLine
 10
136.0
 20
80.31856696288025
 30
0.0
 11
136.0
 21
42.58230368773376
 31
0.0
  0
LINE
  5
22F
330
84
100
AcDbEntity
  8
View_1_A
  6
Continuous
 62
     3
370
    18
100
AcDbLine
 10
174.0
 20
80.31856696288025
 30
0.0
 11
174.0
 21
42.58230368773376
 31
0.0
  0
HATCH
  5
230
330
84
100
AcDbEntity
  8
View_1_A
  6
Continuous
 62
     3
370
    18
100
AcDbHatch
 10
0.0
 20
0.0
 30
0.0
210
0.0
220
0.0
230
1.0
  2
SOLID
 70
     1
 71
     1
 91
        1
 92
        3
 72
     0
 73
     1
 93
        3
 10
143.0000000000001
 20
45.74897035440046
 10
136.0000000000001
 20
44.58230368773376
 10
143.0000000000001
 20
43.4156370210671
 97
        0
 75
     0
 76
     1
 98
        1
 10
143.0000000000001
 20
45.74897035440046
  0
HATCH
  5
231
330
84
100
AcDbEntity
  8
View_1_A
  6
Continuous
 62
     3
370
    18
100
AcDbHatch
 10
0.0
 20
0.0
 30
0.0
210
0.0
220
0.0
230
1.0
  2
SOLID
 70
     1
 71
     1
 91
        1
 92
        3
 72
     0
 73
     1
 93
        3
 10
167.0
 20
43.4156370210671
 10
174.0
 20
44.58230368773376
 10
167.0
 20
45.74897035440046
 97
        0
 75
     0
 76
     1
 98
        1
 10
167.0
 20
43.4156370210671
  0
LINE
  5
232
330
84
100
AcDbEntity
  8
View_1_A
  6
Continuous
 62
     3
370
    18
100
AcDbLine
 10
136.0
 20
44.58230368773376
 30
0.0
 11
174.0
 21
44.58230368773376
 31
0.0
  0
TEXT
  5
233
330
84
100
AcDbEntity
  8
View_1_A
 62
     7
100
AcDbText
 10
150.0528960227966
 20
126.2866273387825
 30
0.0
 40
10.9935699649147
  1
10
 41
0.8999999999999999
  7
MS PGothic
 11
150.0528960227966
 21
124.0379425732318
 31
0.0
100
AcDbText
 73
     1
  0
LINE
  5
234
330
84
100
AcDbEntity
  8
View_1_A
  6
Continuous
 62
     3
370
    18
100
AcDbLine
 10
150.0
 20
106.3185669628803
 30
0.0
 11
150.0
 21
125.0379425732318
 31
0.0
  0
LINE
  5
235
330
84
100
AcDbEntity
  8
View_1_A
  6
Continuous
 62
     3
370
    18
100
AcDbLine
 10
160.0
 20
106.3185669628803
 30
0.0
 11
160.0
 21
125.0379425732318
 31
0.0
  0
HATCH
  5
236
330
84
100
AcDbEntity
  8
View_1_A
  6
Continuous
 62
     3
370
    18
100
AcDbHatch
 10
0.0
 20
0.0
 30
0.0
210
0.0
220
0.0
230
1.0
  2
SOLID
 70
     1
 71
     1
 91
        1
 92
        3
 72
     0
 73
     1
 93
        3
 10
157.0
 20
124.2046092398984
 10
150.0
 20
123.0379425732318
 10
157.0
 20
121.871275906565
 97
        0
 75
     0
 76
     1
 98
        1
 10
157.0
 20
124.2046092398984
  0
HATCH
  5
237
330
84
100
AcDbEntity
  8
View_1_A
  6
Continuous
 62
     3
370
    18
100
AcDbHatch
 10
0.0
 20
0.0
 30
0.0
210
0.0
220
0.0
230
1.0
  2
SOLID
 70
     1
 71
     1
 91
        1
 92
        3
 72
     0
 73
     1
 93
        3
 10
153.0
 20
121.871275906565
 10
160.0
 20
123.0379425732318
 10
153.0
 20
124.2046092398984
 97
        0
 75
     0
 76
     1
 98
        1
 10
153.0
 20
121.871275906565
  0
LINE
  5
238
330
84
100
AcDbEntity
  8
View_1_A
  6
Continuous
 62
     3
370
    18
100
AcDbLine
 10
150.0
 20
123.0379425732318
 30
0.0
 11
160.0
 21
123.0379425732318
 31
0.0
  0
TEXT
  5
239
330
84
100
AcDbEntity
  8
View_1_A
 62
     7
100
AcDbText
 10
124.1871427377157
 20
96.4091695992175
 30
0.0
 40
10.7084252180431
  1
5
 50
90.0
 41
0.9
  7
MS PGothic
 11
126.3775024414063
 21
96.4091695992175
 31
0.0
100
AcDbText
 73
     1
  0
LINE
  5
23A
330
84
100
AcDbEntity
  8
View_1_A
  6
Continuous
 62
     3
370
    18
100
AcDbLine
 10
153.0
 20
101.3185669628803
 30
0.0
 11
125.3775024414063
 21
101.3185669628803
 31
0.0
  0
LINE
  5
23B
330
84
100
AcDbEntity
  8
View_1_A
  6
Continuous
 62
     3
370
    18
100
AcDbLine
 10
148.0
 20
96.31856696288025
 30
0.0
 11
125.3775024414063
 21
96.31856696288031
 31
0.0
  0
HATCH
  5
23C
330
84
100
AcDbEntity
  8
View_1_A
  6
Continuous
 62
     3
370
    18
100
AcDbHatch
 10
0.0
 20
0.0
 30
0.0
210
0.0
220
0.0
230
1.0
  2
SOLID
 70
     1
 71
     1
 91
        1
 92
        3
 72
     0
 73
     1
 93
        3
 10
128.5441691080729
 20
94.31856696288031
 10
127.3775024414063
 20
101.3185669628803
 10
126.2108357747396
 20
94.31856696288031
 97
        0
 75
     0
 76
     1
 98
        1
 10
128.5441691080729
 20
94.31856696288031
  0
HATCH
  5
23D
330
84
100
AcDbEntity
  8
View_1_A
  6
Continuous
 62
     3
370
    18
100
AcDbHatch
 10
0.0
 20
0.0
 30
0.0
210
0.0
220
0.0
230
1.0
  2
SOLID
 70
     1
 71
     1
 91
        1
 92
        3
 72
     0
 73
     1
 93
        3
 10
126.2108357747396
 20
103.3185669628803
 10
127.3775024414063
 20
96.31856696288031
 10
128.5441691080729
 20
103.3185669628803
 97
        0
 75
     0
 76
     1
 98
        1
 10
126.2108357747396
 20
103.3185669628803
  0
LINE
  5
23E
330
84
100
AcDbEntity
  8
View_1_A
  6
Continuous
 62
     3
370
    18
100
AcDbLine
 10
127.3775024414063
 20
101.3185669628803
 30
0.0
 11
127.3775024414063
 21
96.31856696288031
 31
0.0
  0
TEXT
  5
23F
330
84
100
AcDbEntity
  8
View_1_A
 62
     7
100
AcDbText
 10
179.2361106605797
 20
97.95548669974241
 30
0.0
 40
10.50259581997863
  1
8
 50
90.0
 41
0.9
  7
MS PGothic
 11
181.3843688964844
 21
97.95548669974241
 31
0.0
100
AcDbText
 73
     1
  0
LINE
  5
240
330
84
100
AcDbEntity
  8
View_1_A
  6
Continuous
 62
     3
370
    18
100
AcDbLine
 10
162.0
 20
104.3185669628803
 30
0.0
 11
184.3843688964844
 21
104.3185669628803
 31
0.0
  0
LINE
  5
241
330
84
100
AcDbEntity
  8
View_1_A
  6
Continuous
 62
     3
370
    18
100
AcDbLine
 10
162.0
 20
96.31856696288025
 30
0.0
 11
184.3843688964844
 21
96.31856696288025
 31
0.0
  0
HATCH
  5
242
330
84
100
AcDbEntity
  8
View_1_A
  6
Continuous
 62
     3
370
    18
100
AcDbHatch
 10
0.0
 20
0.0
 30
0.0
210
0.0
220
0.0
230
1.0
  2
SOLID
 70
     1
 71
     1
 91
        1
 92
        3
 72
     0
 73
     1
 93
        3
 10
183.5510355631511
 20
97.31856696288025
 10
182.3843688964845
 20
104.3185669628803
 10
181.2177022298179
 20
97.31856696288025
 97
        0
 75
     0
 76
     1
 98
        1
 10
183.5510355631511
 20
97.31856696288025
  0
HATCH
  5
243
330
84
100
AcDbEntity
  8
View_1_A
  6
Continuous
 62
     3
370
    18
100
AcDbHatch
 10
0.0
 20
0.0
 30
0.0
210
0.0
220
0.0
230
1.0
  2
SOLID
 70
     1
 71
     1
 91
        1
 92
        3
 72
     0
 73
     1
 93
        3
 10
181.2177022298178
 20
103.3185669628803
 10
182.3843688964844
 20
96.31856696288031
 10
183.5510355631511
 20
103.3185669628803
 97
        0
 75
     0
 76
     1
 98
        1
 10
181.2177022298178
 20
103.3185669628803
  0
LINE
  5
244
330
84
100
AcDbEntity
  8
View_1_A
  6
Continuous
 62
     3
370
    18
100
AcDbLine
 10
182.3843688964844
 20
104.3185669628803
 30
0.0
 11
182.3843688964844
 21
96.31856696288025
 31
0.0
  0
TEXT
  5
245
330
84
100
AcDbEntity
  8
View_4_C
 62
     7
100
AcDbText
 10
340.6839413152247
 20
88.51787592276297
 30
0.0
 40
11.19986670488919
  1
60ﾟ
 50
270.0000018212327
 41
0.9
  7
MS PGothic
 11
338.3930594892247
 21
88.51787584994383
 31
0.0
100
AcDbText
 73
     1
  0
LINE
  5
246
330
84
100
AcDbEntity
  8
View_4_C
  6
Continuous
 62
     3
370
    18
100
AcDbLine
 10
287.4011148357965
 20
72.51637542119346
 30
0.0
 11
330.1533614068176
 21
47.83335533631936
 31
0.0
  0
HATCH
  5
247
330
84
100
AcDbEntity
  8
View_4_C
  6
Continuous
 62
     3
370
    18
100
AcDbHatch
 10
0.0
 20
0.0
 30
0.0
210
0.0
220
0.0
230
1.0
  2
SOLID
 70
     1
 71
     1
 91
        1
 92
        3
 72
     0
 73
     1
 93
        3
 10
330.5616543614203
 20
109.0333140954048
 10
328.4213084534156
 20
115.7994082792895
 10
332.6403689125178
 20
110.0932151565893
 97
        0
 75
     0
 76
     1
 98
        1
 10
330.5616543614203
 20
109.0333140954048
  0
HATCH
  5
248
330
84
100
AcDbEntity
  8
View_4_C
  6
Continuous
 62
     3
370
    18
100
AcDbHatch
 10
0.0
 20
0.0
 30
0.0
210
0.0
220
0.0
230
1.0
  2
SOLID
 70
     1
 71
     1
 91
        1
 92
        3
 72
     0
 73
     1
 93
        3
 10
332.6403706783749
 20
54.53954869741891
 10
328.4213105820326
 20
48.83335530650031
 10
330.5616560598963
 20
55.59944962645325
 97
        0
 75
     0
 76
     1
 98
        1
 10
332.6403706783749
 20
54.53954869741891
  0
ARC
  5
249
330
84
100
AcDbEntity
  8
View_4_C
  6
Continuous
 62
     3
370
    18
100
AcDbCircle
 10
270.427008403567
 20
82.31637994945851
 30
0.0
 40
66.9660512827815
100
AcDbArc
 50
335.9918921145584
 51
24.00811152790723
  0
TEXT
  5
24A
330
84
100
AcDbEntity
  8
View_4_C
 62
     7
100
AcDbText
 10
304.7879003377953
 20
99.93113444053074
 30
0.0
 40
12.13018916208719
  1
φ
 50
90.0
 41
0.9
  7
MS PGothic
 11
307.2690753936768
 21
99.93113444053074
 31
0.0
100
AcDbText
 73
     1
  0
TEXT
  5
24B
330
84
100
AcDbEntity
  8
View_4_C
 62
     7
100
AcDbText
 10
304.78790379455
 20
111.0808462622799
 30
0.0
 40
12.13017226239732
  1
8.2
 50
90.0
 41
0.9
  7
MS PGothic
 11
307.2690753936768
 21
111.0808462622799
 31
0.0
100
AcDbText
 73
     1
  0
LINE
  5
24C
330
84
100
AcDbEntity
  8
View_4_C
  6
Continuous
 62
     3
370
    18
100
AcDbLine
 10
283.7892780303954
 20
88.87637771151336
 30
0.0
 11
310.0690631866454
 21
88.87637771151341
 31
0.0
  0
LINE
  5
24D
330
84
100
AcDbEntity
  8
View_4_C
  6
Continuous
 62
     3
370
    18
100
AcDbLine
 10
283.5090656280516
 20
75.75638259432586
 30
0.0
 11
310.0690631866454
 21
75.75638259432586
 31
0.0
  0
HATCH
  5
24E
330
84
100
AcDbEntity
  8
View_4_C
  6
Continuous
 62
     3
370
    18
100
AcDbHatch
 10
0.0
 20
0.0
 30
0.0
210
0.0
220
0.0
230
1.0
  2
SOLID
 70
     1
 71
     1
 91
        1
 92
        3
 72
     0
 73
     1
 93
        3
 10
306.9023965199788
 20
81.87637771151341
 10
308.0690631866454
 20
88.87637771151341
 10
309.235729853312
 20
81.87637771151341
 97
        0
 75
     0
 76
     1
 98
        1
 10
306.9023965199788
 20
81.87637771151341
  0
HATCH
  5
24F
330
84
100
AcDbEntity
  8
View_4_C
  6
Continuous
 62
     3
370
    18
100
AcDbHatch
 10
0.0
 20
0.0
 30
0.0
210
0.0
220
0.0
230
1.0
  2
SOLID
 70
     1
 71
     1
 91
        1
 92
        3
 72
     0
 73
     1
 93
        3
 10
309.2357298533121
 20
82.75638259432586
 10
308.0690631866454
 20
75.75638259432586
 10
306.9023965199788
 20
82.75638259432586
 97
        0
 75
     0
 76
     1
 98
        1
 10
309.2357298533121
 20
82.75638259432586
  0
LINE
  5
250
330
84
100
AcDbEntity
  8
View_4_C
  6
Continuous
 62
     3
370
    18
100
AcDbLine
 10
308.0690631866454
 20
88.87637771151341
 30
0.0
 11
308.0690631866454
 21
75.75638259432586
 31
0.0
  0
LINE
  5
251
330
84
100
AcDbEntity
  8
View_4_C
  6
Continuous
 62
     3
370
    18
100
AcDbLine
 10
308.0690631866454
 20
88.87637771151341
 30
0.0
 11
308.0690631866454
 21
124.2155613425411
 31
0.0
  0
TEXT
  5
252
330
84
100
AcDbEntity
  8
View_4_C
 62
     7
100
AcDbText
 10
298.2298531576779
 20
131.9928557761799
 30
0.0
 40
12.21647861671175
  1
3.6
 41
0.9
  7
MS PGothic
 11
298.2298531576779
 21
129.4940306045798
 31
0.0
100
AcDbText
 73
     1
  0
LINE
  5
253
330
84
100
AcDbEntity
  8
View_4_C
  6
Continuous
 62
     3
370
    18
100
AcDbLine
 10
285.6690692901611
 20
114.7163816787985
 30
0.0
 11
285.669069290161
 21
130.4940306045798
 31
0.0
  0
LINE
  5
254
330
84
100
AcDbEntity
  8
View_4_C
  6
Continuous
 62
     3
370
    18
100
AcDbLine
 10
279.9090595245361
 20
90.87637771151336
 30
0.0
 11
279.9090595245361
 21
130.4940306045798
 31
0.0
  0
HATCH
  5
255
330
84
100
AcDbEntity
  8
View_4_C
  6
Continuous
 62
     3
370
    18
100
AcDbHatch
 10
0.0
 20
0.0
 30
0.0
210
0.0
220
0.0
230
1.0
  2
SOLID
 70
     1
 71
     1
 91
        1
 92
        3
 72
     0
 73
     1
 93
        3
 10
278.6690692901611
 20
129.6606972712464
 10
285.6690692901611
 20
128.4940306045798
 10
278.6690692901611
 20
127.3273639379131
 97
        0
 75
     0
 76
     1
 98
        1
 10
278.6690692901611
 20
129.6606972712464
  0
HATCH
  5
256
330
84
100
AcDbEntity
  8
View_4_C
  6
Continuous
 62
     3
370
    18
100
AcDbHatch
 10
0.0
 20
0.0
 30
0.0
210
0.0
220
0.0
230
1.0
  2
SOLID
 70
     1
 71
     1
 91
        1
 92
        3
 72
     0
 73
     1
 93
        3
 10
286.9090595245361
 20
127.3273639379131
 10
279.9090595245361
 20
128.4940306045798
 10
286.9090595245361
 20
129.6606972712464
 97
        0
 75
     0
 76
     1
 98
        1
 10
286.9090595245361
 20
127.3273639379131
  0
LINE
  5
257
330
84
100
AcDbEntity
  8
View_4_C
  6
Continuous
 62
     3
370
    18
100
AcDbLine
 10
285.669069290161
 20
128.4940306045798
 30
0.0
 11
279.9090595245361
 21
128.4940306045798
 31
0.0
  0
LINE
  5
258
330
84
100
AcDbEntity
  8
View_4_C
  6
Continuous
 62
     3
370
    18
100
AcDbLine
 10
285.669069290161
 20
128.4940306045798
 30
0.0
 11
311.4580178305295
 21
128.4940306045798
 31
0.0
  0
TEXT
  5
259
330
84
100
AcDbEntity
  8
View_4_C
 62
     7
100
AcDbText
 10
258.8078136444092
 20
131.8127786421231
 30
0.0
 40
11.33610151687869
  1
20
 41
0.8999999999999975
  7
MS PGothic
 11
258.8078136444092
 21
129.4940306045798
 31
0.0
100
AcDbText
 73
     1
  0
LINE
  5
25A
330
84
100
AcDbEntity
  8
View_4_C
  6
Continuous
 62
     3
370
    18
100
AcDbLine
 10
247.9090595245361
 20
90.71638167879851
 30
0.0
 11
247.9090595245361
 21
130.4940306045798
 31
0.0
  0
HATCH
  5
25B
330
84
100
AcDbEntity
  8
View_4_C
  6
Continuous
 62
     3
370
    18
100
AcDbHatch
 10
0.0
 20
0.0
 30
0.0
210
0.0
220
0.0
230
1.0
  2
SOLID
 70
     1
 71
     1
 91
        1
 92
        3
 72
     0
 73
     1
 93
        3
 10
272.9090595245361
 20
129.6606972712464
 10
279.9090595245361
 20
128.4940306045798
 10
272.9090595245361
 20
127.3273639379131
 97
        0
 75
     0
 76
     1
 98
        1
 10
272.9090595245361
 20
129.6606972712464
  0
HATCH
  5
25C
330
84
100
AcDbEntity
  8
View_4_C
  6
Continuous
 62
     3
370
    18
100
AcDbHatch
 10
0.0
 20
0.0
 30
0.0
210
0.0
220
0.0
230
1.0
  2
SOLID
 70
     1
 71
     1
 91
        1
 92
        3
 72
     0
 73
     1
 93
        3
 10
254.9090595245361
 20
127.3273639379131
 10
247.9090595245361
 20
128.4940306045798
 10
254.9090595245361
 20
129.6606972712464
 97
        0
 75
     0
 76
     1
 98
        1
 10
254.9090595245361
 20
127.3273639379131
  0
LINE
  5
25D
330
84
100
AcDbEntity
  8
View_4_C
  6
Continuous
 62
     3
370
    18
100
AcDbLine
 10
279.909059524536
 20
128.4940306045798
 30
0.0
 11
247.9090595245361
 21
128.4940306045798
 31
0.0
  0
TEXT
  5
25E
330
84
100
AcDbEntity
  8
View_4_C
100
AcDbText
 10
237.1778678867425
 20
51.86511669896168
 30
0.0
 40
9.30551014827904
  1
Ｍ８
 41
0.59
  7
MS PGothic
 11
237.1778678867425
 21
49.9617168959046
 31
0.0
100
AcDbText
 73
     1
  0
HATCH
  5
25F
330
84
100
AcDbEntity
  8
View_4_C
  6
Continuous
 62
     3
370
    18
100
AcDbHatch
 10
0.0
 20
0.0
 30
0.0
210
0.0
220
0.0
230
1.0
  2
SOLID
 70
     1
 71
     1
 91
        1
 92
        3
 72
     0
 73
     1
 93
        3
 10
257.0126954034071
 20
69.6295216820791
 10
258.6168327032677
 20
75.91637473436005
 10
255.0604261594165
 20
70.48961232269775
 97
        0
 75
     0
 76
     1
 98
        1
 10
257.0126954034071
 20
69.6295216820791
  0
LWPOLYLINE
  5
260
330
84
100
AcDbEntity
  8
View_4_C
  6
Continuous
 62
     3
370
    18
100
AcDbPolyline
 90
        3
 70
     0
 43
0.0
 10
258.6168327032677
 20
75.91637473436005
 10
247.1482138049919
 20
49.88443008949305
 10
235.9617991447448
 20
49.88443008949305
  0
TEXT
  5
261
330
84
100
AcDbEntity
  8
View_4_C
 62
     7
100
AcDbText
 10
318.1148774316173
 20
72.32089260775018
 30
0.0
 40
10.77607892562437
  1
φ
 50
90.0
 41
0.9000000000000015
  7
MS PGothic
 11
320.3190753936768
 21
72.32089260775018
 31
0.0
100
AcDbText
 73
     1
  0
TEXT
  5
262
330
84
100
AcDbEntity
  8
View_4_C
 62
     7
100
AcDbText
 10
318.2648787423389
 20
81.26339090670686
 30
0.0
 40
10.77607251765129
  1
11
 50
90.0
 41
0.9
  7
MS PGothic
 11
320.4690753936767
 21
81.26339090670686
 31
0.0
100
AcDbText
 73
     1
  0
LINE
  5
263
330
84
100
AcDbEntity
  8
View_4_C
  6
Continuous
 62
     3
370
    18
100
AcDbLine
 10
311.448091506958
 20
91.11638320467739
 30
0.0
 11
324.0690631866455
 21
91.11638320467736
 31
0.0
  0
LINE
  5
264
330
84
100
AcDbEntity
  8
View_4_C
  6
Continuous
 62
     3
370
    18
100
AcDbLine
 10
311.448091506958
 20
73.51637710116181
 30
0.0
 11
324.0690631866455
 21
73.51637710116181
 31
0.0
  0
HATCH
  5
265
330
84
100
AcDbEntity
  8
View_4_C
  6
Continuous
 62
     3
370
    18
100
AcDbHatch
 10
0.0
 20
0.0
 30
0.0
210
0.0
220
0.0
230
1.0
  2
SOLID
 70
     1
 71
     1
 91
        1
 92
        3
 72
     0
 73
     1
 93
        3
 10
320.9023965199789
 20
84.11638320467736
 10
322.0690631866455
 20
91.11638320467736
 10
323.2357298533123
 20
84.11638320467736
 97
        0
 75
     0
 76
     1
 98
        1
 10
320.9023965199789
 20
84.11638320467736
  0
HATCH
  5
266
330
84
100
AcDbEntity
  8
View_4_C
  6
Continuous
 62
     3
370
    18
100
AcDbHatch
 10
0.0
 20
0.0
 30
0.0
210
0.0
220
0.0
230
1.0
  2
SOLID
 70
     1
 71
     1
 91
        1
 92
        3
 72
     0
 73
     1
 93
        3
 10
323.2357298533121
 20
80.5163771011618
 10
322.0690631866455
 20
73.51637710116181
 10
320.9023965199789
 20
80.5163771011618
 97
        0
 75
     0
 76
     1
 98
        1
 10
323.2357298533121
 20
80.5163771011618
  0
LINE
  5
267
330
84
100
AcDbEntity
  8
View_4_C
  6
Continuous
 62
     3
370
    18
100
AcDbLine
 10
322.0690631866455
 20
91.11638320467736
 30
0.0
 11
322.0690631866455
 21
73.51637710116181
 31
0.0
  0
LINE
  5
268
330
84
100
AcDbEntity
  8
View_4_C
  6
Continuous
 62
     3
370
    18
100
AcDbLine
 10
322.0690631866455
 20
91.11638320467736
 30
0.0
 11
322.0690631866455
 21
93.3618676980889
 31
0.0
  0
LINE
  5
269
330
84
100
AcDbEntity
  8
View_4_C
  6
Continuous
 62
     3
370
    18
100
AcDbLine
 10
322.0690631866455
 20
73.51637710116181
 30
0.0
 11
322.0690631866455
 21
71.2708926077503
 31
0.0
  0
LINE
  5
26A
330
84
100
AcDbEntity
  8
View_0_PV
 62
     7
370
    18
100
AcDbLine
 10
495.9999858928769
 20
317.700007076136
 30
0.0
 11
494.9999988492568
 21
318.6999790314937
 31
0.0
  0
LINE
  5
26B
330
84
100
AcDbEntity
  8
View_0_PV
 62
     7
370
    18
100
AcDbLine
 10
495.0
 20
318.7
 30
0.0
 11
492.0
 21
318.7
 31
0.0
  0
LWPOLYLINE
  5
26C
330
84
100
AcDbEntity
  8
View_0_PV
100
AcDbPolyline
 90
        5
 70
     1
 43
0.0
 10
251.0
 20
218.7
 10
263.0
 20
218.7
 10
263.0
 20
353.7
 10
251.0
 20
353.7
 10
251.0
 20
218.7
  0
LINE
  5
26D
330
84
100
AcDbEntity
  8
AM_0
370
    18
100
AcDbLine
 10
112.2
 20
223.85
 30
0.0
 11
112.6
 21
223.45
 31
0.0
  0
LINE
  5
26E
330
84
100
AcDbEntity
  8
AM_0
370
    18
100
AcDbLine
 10
112.6
 20
231.95
 30
0.0
 11
112.2
 21
231.55
 31
0.0
  0
LINE
  5
26F
330
84
100
AcDbEntity
  8
AM_0
370
    18
100
AcDbLine
 10
112.2
 20
231.55
 30
0.0
 11
112.2
 21
223.85
 31
0.0
  0
LINE
  5
270
330
84
100
AcDbEntity
  8
AM_0
370
    18
100
AcDbLine
 10
112.6
 20
223.45
 30
0.0
 11
117.2
 21
223.45
 31
0.0
  0
LINE
  5
271
330
84
100
AcDbEntity
  8
AM_0
370
    18
100
AcDbLine
 10
117.2
 20
231.95
 30
0.0
 11
112.6
 21
231.95
 31
0.0
  0
LINE
  5
272
330
84
100
AcDbEntity
  8
AM_0
370
    18
100
AcDbLine
 10
112.6
 20
231.95
 30
0.0
 11
112.6
 21
223.45
 31
0.0
  0
LINE
  5
273
330
84
100
AcDbEntity
  8
AM_0
370
    18
100
AcDbLine
 10
117.2
 20
222.7
 30
0.0
 11
118.0
 21
222.7
 31
0.0
  0
LINE
  5
274
330
84
100
AcDbEntity
  8
AM_0
370
    18
100
AcDbLine
 10
118.0
 20
232.7
 30
0.0
 11
117.2
 21
232.7
 31
0.0
  0
LINE
  5
275
330
84
100
AcDbEntity
  8
AM_0
370
    18
100
AcDbLine
 10
117.2
 20
232.7
 30
0.0
 11
117.2
 21
222.7
 31
0.0
  0
LINE
  5
276
330
84
100
AcDbEntity
  8
AM_0
370
    18
100
AcDbLine
 10
73.0
 20
348.2
 30
0.0
 11
73.0
 21
247.5337845732643
 31
0.0
  0
LINE
  5
277
330
84
100
AcDbEntity
  8
AM_0
370
    18
100
AcDbLine
 10
73.0
 20
247.5337845732643
 30
0.0
 11
75.5
 21
247.5337845732643
 31
0.0
  0
LINE
  5
278
330
84
100
AcDbEntity
  8
AM_0
370
    18
100
AcDbLine
 10
239.0
 20
243.2
 30
0.0
 11
75.5
 21
243.2
 31
0.0
  0
LINE
  5
279
330
84
100
AcDbEntity
  8
AM_4
370
    18
100
AcDbLine
 10
118.0
 20
244.2
 30
0.0
 11
75.5
 21
244.2
 31
0.0
  0
LINE
  5
27A
330
84
100
AcDbEntity
  8
AM_4
370
    18
100
AcDbLine
 10
118.0
 20
244.7
 30
0.0
 11
108.0
 21
244.7
 31
0.0
  0
LINE
  5
27B
330
84
100
AcDbEntity
  8
AM_4
370
    18
100
AcDbLine
 10
108.0
 20
245.3833367360829
 30
0.0
 11
75.5
 21
245.3833367360829
 31
0.0
  0
LINE
  5
27C
330
84
100
AcDbEntity
  8
AM_0
370
    18
100
AcDbLine
 10
75.5
 20
325.7327649859956
 30
0.0
 11
73.0
 21
325.7327649859956
 31
0.0
  0
LINE
  5
27D
330
84
100
AcDbEntity
  8
AM_4
370
    18
100
AcDbLine
 10
73.95539537394549
 20
324.7001012043191
 30
0.0
 11
73.0
 21
324.7001012043191
 31
0.0
  0
LINE
  5
27E
330
84
100
AcDbEntity
  8
AM_4
370
    18
100
AcDbLine
 10
75.5
 20
325.3691150553227
 30
0.0
 11
73.0
 21
325.3691150553227
 31
0.0
  0
LINE
  5
27F
330
84
100
AcDbEntity
  8
AM_4
370
    18
100
AcDbLine
 10
75.5
 20
326.1393398282202
 30
0.0
 11
73.0
 21
326.1393398282202
 31
0.0
  0
LINE
  5
280
330
84
100
AcDbEntity
  8
AM_0
370
    18
100
AcDbLine
 10
78.625
 20
370.2
 30
0.0
 11
78.125
 21
369.7
 31
0.0
  0
LINE
  5
281
330
84
100
AcDbEntity
  8
AM_0
370
    18
100
AcDbLine
 10
107.875
 20
369.7
 30
0.0
 11
107.375
 21
370.2
 31
0.0
  0
LINE
  5
282
330
84
100
AcDbEntity
  8
AM_0
370
    18
100
AcDbLine
 10
107.375
 20
370.2
 30
0.0
 11
78.625
 21
370.2
 31
0.0
  0
LINE
  5
283
330
84
100
AcDbEntity
  8
AM_0
370
    18
100
AcDbLine
 10
78.125
 20
369.7
 30
0.0
 11
78.125
 21
360.8000000000001
 31
0.0
  0
LINE
  5
284
330
84
100
AcDbEntity
  8
AM_0
370
    18
100
AcDbLine
 10
107.875
 20
360.8000000000001
 30
0.0
 11
107.875
 21
369.7
 31
0.0
  0
LINE
  5
285
330
84
100
AcDbEntity
  8
AM_0
370
    18
100
AcDbLine
 10
107.875
 20
369.7
 30
0.0
 11
78.125
 21
369.7
 31
0.0
  0
LINE
  5
286
330
84
100
AcDbEntity
  8
AM_0
370
    18
100
AcDbLine
 10
78.125
 20
360.8000000000001
 30
0.0
 11
77.125
 21
359.8000000000001
 31
0.0
  0
LINE
  5
287
330
84
100
AcDbEntity
  8
AM_0
370
    18
100
AcDbLine
 10
108.875
 20
359.8000000000001
 30
0.0
 11
107.875
 21
360.8000000000001
 31
0.0
  0
LINE
  5
288
330
84
100
AcDbEntity
  8
AM_0
370
    18
100
AcDbLine
 10
107.875
 20
360.8000000000001
 30
0.0
 11
78.125
 21
360.8000000000001
 31
0.0
  0
LINE
  5
289
330
84
100
AcDbEntity
  8
AM_0
370
    18
100
AcDbLine
 10
77.125
 20
359.8000000000001
 30
0.0
 11
77.125
 21
353.1872440148222
 31
0.0
  0
LINE
  5
28A
330
84
100
AcDbEntity
  8
AM_0
370
    18
100
AcDbLine
 10
108.875
 20
353.1872440148222
 30
0.0
 11
108.875
 21
359.8000000000001
 31
0.0
  0
LINE
  5
28B
330
84
100
AcDbEntity
  8
AM_0
370
    18
100
AcDbLine
 10
108.875
 20
359.8000000000001
 30
0.0
 11
77.125
 21
359.8000000000001
 31
0.0
  0
LINE
  5
28C
330
84
100
AcDbEntity
  8
AM_0
370
    18
100
AcDbLine
 10
137.5
 20
403.7
 30
0.0
 11
137.5
 21
394.8100000000001
 31
0.0
  0
LINE
  5
28D
330
84
100
AcDbEntity
  8
AM_0
370
    18
100
AcDbLine
 10
170.5
 20
394.8100000000001
 30
0.0
 11
170.5
 21
403.7
 31
0.0
  0
LINE
  5
28E
330
84
100
AcDbEntity
  8
AM_0
370
    18
100
AcDbLine
 10
138.0
 20
404.2
 30
0.0
 11
137.5
 21
403.7
 31
0.0
  0
LINE
  5
28F
330
84
100
AcDbEntity
  8
AM_0
370
    18
100
AcDbLine
 10
170.5
 20
403.7
 30
0.0
 11
170.0
 21
404.2
 31
0.0
  0
LINE
  5
290
330
84
100
AcDbEntity
  8
AM_0
370
    18
100
AcDbLine
 10
170.5
 20
403.7
 30
0.0
 11
137.5
 21
403.7
 31
0.0
  0
LINE
  5
291
330
84
100
AcDbEntity
  8
AM_0
370
    18
100
AcDbLine
 10
170.0
 20
404.2
 30
0.0
 11
138.0
 21
404.2
 31
0.0
  0
ARC
  5
292
330
84
100
AcDbEntity
  8
AM_0
370
    18
100
AcDbCircle
 10
78.3200000000001
 20
346.2900000000008
 30
0.0
 40
6.999999999999234
100
AcDbArc
 50
73.82332337088133
 51
106.1766766291184
  0
ARC
  5
293
330
84
100
AcDbEntity
  8
AM_0
370
    18
100
AcDbCircle
 10
107.6800000000001
 20
346.2900000000005
 30
0.0
 40
6.999999999999537
100
AcDbArc
 50
73.82332337088155
 51
106.1766766291182
  0
ARC
  5
294
330
84
100
AcDbEntity
  8
AM_0
370
    18
100
AcDbCircle
 10
80.19999999999371
 20
322.0465258614394
 30
0.0
 40
6.999999999993626
100
AcDbArc
 50
162.5423968762721
 51
176.1107942283963
  0
ARC
  5
295
330
84
100
AcDbEntity
  8
AM_0
370
    18
100
AcDbCircle
 10
76.6483989406739
 20
352.0524430494767
 30
0.0
 40
0.9999999999998939
100
AcDbArc
 50
106.176676629113
 51
175.0000000000045
  0
ARC
  5
296
330
84
100
AcDbEntity
  8
AM_0
370
    18
100
AcDbCircle
 10
79.991601059326
 20
352.0524430494766
 30
0.0
 40
0.9999999999999497
100
AcDbArc
 50
4.999999999997594
 51
73.82332337088293
  0
LINE
  5
297
330
84
100
AcDbEntity
  8
AM_4
370
    18
100
AcDbLine
 10
80.27020123588031
 20
353.0128502243894
 30
0.0
 11
76.36979876411971
 21
353.0128502243894
 31
0.0
  0
ARC
  5
298
330
84
100
AcDbEntity
  8
AM_0
370
    18
100
AcDbCircle
 10
106.008398940674
 20
352.0524430494766
 30
0.0
 40
1.000000000000021
100
AcDbArc
 50
106.1766766291177
 51
174.9999999999994
  0
ARC
  5
299
330
84
100
AcDbEntity
  8
AM_0
370
    18
100
AcDbCircle
 10
109.351601059326
 20
352.0524430494766
 30
0.0
 40
1.00000000000004
100
AcDbArc
 50
5.000000000000412
 51
73.82332337088071
  0
LINE
  5
29A
330
84
100
AcDbEntity
  8
AM_4
370
    18
100
AcDbLine
 10
109.6302012358803
 20
353.0128502243894
 30
0.0
 11
105.7297987641197
 21
353.0128502243894
 31
0.0
  0
LINE
  5
29B
330
84
100
AcDbEntity
  8
AM_0
370
    18
100
AcDbLine
 10
75.65220424258229
 20
352.1395987922242
 30
0.0
 11
75.57
 21
351.2
 31
0.0
  0
LINE
  5
29C
330
84
100
AcDbEntity
  8
AM_0
370
    18
100
AcDbLine
 10
81.07
 20
351.2
 30
0.0
 11
80.9877957574177
 21
352.1395987922242
 31
0.0
  0
LINE
  5
29D
330
84
100
AcDbEntity
  8
AM_4
370
    18
100
AcDbLine
 10
80.9877957574177
 20
352.1395987922242
 30
0.0
 11
75.65220424258229
 21
352.1395987922242
 31
0.0
  0
LINE
  5
29E
330
84
100
AcDbEntity
  8
AM_0
370
    18
100
AcDbLine
 10
105.0122042425822
 20
352.1395987922242
 30
0.0
 11
104.93
 21
351.2
 31
0.0
  0
LINE
  5
29F
330
84
100
AcDbEntity
  8
AM_0
370
    18
100
AcDbLine
 10
110.43
 20
351.2
 30
0.0
 11
110.3477957574177
 21
352.1395987922242
 31
0.0
  0
LINE
  5
2A0
330
84
100
AcDbEntity
  8
AM_4
370
    18
100
AcDbLine
 10
110.3477957574177
 20
352.1395987922242
 30
0.0
 11
105.0122042425822
 21
352.1395987922242
 31
0.0
  0
LINE
  5
2A1
330
84
100
AcDbEntity
  8
AM_0
370
    18
100
AcDbLine
 10
136.5
 20
393.8100000000001
 30
0.0
 11
136.5
 21
386.7
 31
0.0
  0
LINE
  5
2A2
330
84
100
AcDbEntity
  8
AM_0
370
    18
100
AcDbLine
 10
171.5
 20
386.7
 30
0.0
 11
171.5
 21
393.8100000000001
 31
0.0
  0
LINE
  5
2A3
330
84
100
AcDbEntity
  8
AM_0
370
    18
100
AcDbLine
 10
137.5
 20
394.8100000000001
 30
0.0
 11
136.5
 21
393.8100000000001
 31
0.0
  0
LINE
  5
2A4
330
84
100
AcDbEntity
  8
AM_0
370
    18
100
AcDbLine
 10
171.5
 20
393.8100000000001
 30
0.0
 11
170.5
 21
394.8100000000001
 31
0.0
  0
LINE
  5
2A5
330
84
100
AcDbEntity
  8
AM_0
370
    18
100
AcDbLine
 10
171.5
 20
393.8100000000001
 30
0.0
 11
136.5
 21
393.8100000000001
 31
0.0
  0
LINE
  5
2A6
330
84
100
AcDbEntity
  8
AM_0
370
    18
100
AcDbLine
 10
170.5
 20
394.8100000000001
 30
0.0
 11
137.5
 21
394.8100000000001
 31
0.0
  0
LINE
  5
2A7
330
84
100
AcDbEntity
  8
AM_0
370
    18
100
AcDbLine
 10
75.5
 20
324.846525861438
 30
0.0
 11
74.4763647914983
 21
324.846525861438
 31
0.0
  0
LINE
  5
2A8
330
84
100
AcDbEntity
  8
AM_4
370
    18
100
AcDbLine
 10
74.4763647914983
 20
322.5213171777635
 30
0.0
 11
74.4763647914983
 21
324.846525861438
 31
0.0
  0
LINE
  5
2A9
330
84
100
AcDbEntity
  8
AM_4
370
    18
100
AcDbLine
 10
73.52242559008141
 20
322.5213171777635
 30
0.0
 11
73.52242559008141
 21
324.146525861438
 31
0.0
  0
ARC
  5
2AA
330
84
100
AcDbEntity
  8
AM_0
370
    18
100
AcDbCircle
 10
74.4763647914983
 20
323.846525861438
 30
0.0
 40
0.9999999999999787
100
AcDbArc
 50
89.99999999999675
 51
162.5423968762783
  0
LINE
  5
2AB
330
84
100
AcDbEntity
  8
AM_4
370
    18
100
AcDbLine
 10
73.3113747606549
 20
323.2902470166245
 30
0.0
 11
73.0
 21
323.2902470166245
 31
0.0
  0
LINE
  5
2AC
330
84
100
AcDbEntity
  8
AM_0
370
    18
100
AcDbLine
 10
112.0
 20
348.2
 30
0.0
 11
112.0
 21
348.9
 31
0.0
  0
LINE
  5
2AD
330
84
100
AcDbEntity
  8
AM_0
370
    18
100
AcDbLine
 10
74.0
 20
348.9
 30
0.0
 11
74.0
 21
348.2
 31
0.0
  0
LINE
  5
2AE
330
84
100
AcDbEntity
  8
AM_0
370
    18
100
AcDbLine
 10
73.94999999999999
 20
348.9
 30
0.0
 11
112.05
 21
348.9
 31
0.0
  0
LINE
  5
2AF
330
84
100
AcDbEntity
  8
AM_0
370
    18
100
AcDbLine
 10
112.05
 20
351.2
 30
0.0
 11
73.94999999999999
 21
351.2
 31
0.0
  0
LINE
  5
2B0
330
84
100
AcDbEntity
  8
AM_0
370
    18
100
AcDbLine
 10
112.05
 20
348.9
 30
0.0
 11
112.05
 21
351.2
 31
0.0
  0
LINE
  5
2B1
330
84
100
AcDbEntity
  8
AM_0
370
    18
100
AcDbLine
 10
73.94999999999999
 20
351.2
 30
0.0
 11
73.94999999999999
 21
348.9
 31
0.0
  0
LINE
  5
2B2
330
84
100
AcDbEntity
  8
AM_0
370
    18
100
AcDbLine
 10
75.5
 20
322.5213171777635
 30
0.0
 11
73.0
 21
322.5213171777635
 31
0.0
  0
LINE
  5
2B3
330
84
100
AcDbEntity
  8
AM_4
370
    18
100
AcDbLine
 10
75.5
 20
322.4635556614396
 30
0.0
 11
73.0
 21
322.4635556614396
 31
0.0
  0
LINE
  5
2B4
330
84
100
AcDbEntity
  8
AM_0
370
    18
100
AcDbLine
 10
113.0
 20
340.45
 30
0.0
 11
113.0
 21
326.7
 31
0.0
  0
LINE
  5
2B5
330
84
100
AcDbEntity
  8
AM_0
370
    18
100
AcDbLine
 10
112.2
 20
348.2
 30
0.0
 11
73.0
 21
348.2
 31
0.0
  0
LINE
  5
2B6
330
84
100
AcDbEntity
  8
AM_0
370
    18
100
AcDbLine
 10
75.5
 20
328.1755881435865
 30
0.0
 11
75.5
 21
321.967408235447
 31
0.0
  0
LINE
  5
2B7
330
84
100
AcDbEntity
  8
AM_4
370
    18
100
AcDbLine
 10
75.5
 20
328.1755881435865
 30
0.0
 11
73.0
 21
328.1755881435865
 31
0.0
  0
LINE
  5
2B8
330
84
100
AcDbEntity
  8
AM_0
370
    18
100
AcDbLine
 10
73.0
 20
327.4755881435865
 30
0.0
 11
75.5
 21
327.4755881435865
 31
0.0
  0
LINE
  5
2B9
330
84
100
AcDbEntity
  8
AM_4
370
    18
100
AcDbLine
 10
75.5
 20
322.0550523086332
 30
0.0
 11
73.0
 21
322.0550523086332
 31
0.0
  0
LINE
  5
2BA
330
84
100
AcDbEntity
  8
AM_0
370
    18
100
AcDbLine
 10
75.5
 20
321.967408235447
 30
0.0
 11
73.0
 21
321.967408235447
 31
0.0
  0
LINE
  5
2BB
330
84
100
AcDbEntity
  8
AM_0
370
    18
100
AcDbLine
 10
73.0
 20
321.157321375607
 30
0.0
 11
75.5
 21
321.157321375607
 31
0.0
  0
LINE
  5
2BC
330
84
100
AcDbEntity
  8
AM_4
370
    18
100
AcDbLine
 10
108.0
 20
321.3887766198259
 30
0.0
 11
73.0
 21
321.3887766198259
 31
0.0
  0
ARC
  5
2BD
330
84
100
AcDbEntity
  8
AM_0
370
    18
100
AcDbCircle
 10
132.4000000000001
 20
380.5800000000007
 30
0.0
 40
6.999999999999376
100
AcDbArc
 50
73.7861392436546
 51
106.2138607563454
  0
ARC
  5
2BE
330
84
100
AcDbEntity
  8
AM_0
370
    18
100
AcDbCircle
 10
178.9000000000001
 20
380.5800000000006
 30
0.0
 40
6.999999999999448
100
AcDbArc
 50
73.78613924365466
 51
106.2138607563452
  0
ARC
  5
2BF
330
84
100
AcDbEntity
  8
AM_0
370
    18
100
AcDbCircle
 10
177.2203
 20
386.3401000000001
 30
0.0
 40
0.9999999999999981
100
AcDbArc
 50
105.9539010872293
 51
158.9059451896218
  0
ARC
  5
2C0
330
84
100
AcDbEntity
  8
AM_0
370
    18
100
AcDbCircle
 10
180.5796999999999
 20
386.3401000000001
 30
0.0
 40
1.000000000000079
100
AcDbArc
 50
21.09405481037977
 51
74.04609891276772
  0
LINE
  5
2C1
330
84
100
AcDbEntity
  8
AM_0
370
    18
100
AcDbLine
 10
180.8545638568546
 20
387.3015831564803
 30
0.0
 11
176.9454361431455
 21
387.3015831564803
 31
0.0
  0
ARC
  5
2C2
330
84
100
AcDbEntity
  8
AM_0
370
    18
100
AcDbCircle
 10
130.7203
 20
386.3401000000001
 30
0.0
 40
0.9999999999999981
100
AcDbArc
 50
105.9539010872293
 51
158.9059451896218
  0
ARC
  5
2C3
330
84
100
AcDbEntity
  8
AM_0
370
    18
100
AcDbCircle
 10
134.0796999999999
 20
386.3401000000001
 30
0.0
 40
1.000000000000079
100
AcDbArc
 50
21.09405481037977
 51
74.04609891276772
  0
LINE
  5
2C4
330
84
100
AcDbEntity
  8
AM_0
370
    18
100
AcDbLine
 10
134.3545638568545
 20
387.3015831564803
 30
0.0
 11
130.4454361431455
 21
387.3015831564803
 31
0.0
  0
LWPOLYLINE
  5
2C5
330
84
100
AcDbEntity
  8
AM_0
370
    18
100
AcDbPolyline
 90
       19
 70
     0
 43
0.0
 10
181.9
 20
386.7
 10
182.0307336141215
 20
386.6942920471377
 10
182.1604722665004
 20
386.6772116295184
 10
182.2882285676538
 20
386.6488887394336
 10
182.4130302149885
 20
386.6095389311789
 10
182.533927392611
 20
386.559461680555
 10
182.65
 20
386.4990381056767
 10
182.7603646545266
 20
386.4287280664336
 10
182.8641814145298
 20
386.3490666646786
 10
182.9606601717798
 20
386.2606601717798
 10
183.0490666646785
 20
386.1641814145298
 10
183.1287280664335
 20
386.0603646545266
 10
183.1990381056767
 20
385.95
 10
183.259461680555
 20
385.8339273926111
 10
183.3095389311788
 20
385.7130302149885
 10
183.3488887394336
 20
385.5882285676538
 10
183.3772116295183
 20
385.4604722665005
 10
183.3942920471376
 20
385.3307336141215
 10
183.3990862405286
 20
385.2523492450543
  0
LWPOLYLINE
  5
2C6
330
84
100
AcDbEntity
  8
AM_0
370
    18
100
AcDbPolyline
 90
       19
 70
     0
 43
0.0
 10
127.3749596541449
 20
385.2523492450539
 10
127.3852266672116
 20
385.3828040151079
 10
127.4068244935729
 20
385.5118675362268
 10
127.439588760729
 20
385.6385575570843
 10
127.4832701128234
 20
385.7619098901241
 10
127.5375361083911
 20
385.8809857496095
 10
127.601973750439
 20
385.99487889635
 10
127.6760926296027
 20
386.1027225347282
 10
127.7593286564575
 20
386.2036959095385
 10
127.8510483545799
 20
386.297030552429
 10
127.9505536816852
 20
386.3820161304102
 10
128.0570873421511
 20
386.4580058519182
 10
128.1698385504948
 20
386.5244213892885
 10
128.2879492019398
 20
386.5807572801788
 10
128.4105204031112
 20
386.6265847744428
 10
128.5366193131579
 20
386.6615550971779
 10
128.6652862432336
 20
386.6854021031124
 10
128.7955419603093
 20
386.6979443021319
 10
128.8740458946735
 20
386.7
  0
LINE
  5
2C7
330
84
100
AcDbEntity
  8
AM_0
370
    18
100
AcDbLine
 10
181.9
 20
386.7
 30
0.0
 11
128.8740458946735
 21
386.7
 31
0.0
  0
LINE
  5
2C8
330
84
100
AcDbEntity
  8
AM_0
370
    18
100
AcDbLine
 10
127.3749596541449
 20
385.2523492450538
 30
0.0
 11
126.7978002599765
 21
352.2
 31
0.0
  0
LINE
  5
2C9
330
84
100
AcDbEntity
  8
AM_0
370
    18
100
AcDbLine
 10
186.9
 20
352.2
 30
0.0
 11
186.9
 21
356.9
 31
0.0
  0
LINE
  5
2CA
330
84
100
AcDbEntity
  8
AM_0
370
    18
100
AcDbLine
 10
186.9
 20
356.9
 30
0.0
 11
183.4
 21
371.9
 31
0.0
  0
LINE
  5
2CB
330
84
100
AcDbEntity
  8
AM_0
370
    18
100
AcDbLine
 10
183.4
 20
371.9
 30
0.0
 11
183.4
 21
385.2
 31
0.0
  0
LINE
  5
2CC
330
84
100
AcDbEntity
  8
AM_0
370
    18
100
AcDbLine
 10
183.4
 20
385.2
 30
0.0
 11
183.3990862405287
 21
385.2523492450538
 31
0.0
  0
LINE
  5
2CD
330
84
100
AcDbEntity
  8
AM_4
370
    18
100
AcDbLine
 10
183.3990862405286
 20
385.2523492450538
 30
0.0
 11
127.3749596541449
 21
385.2523492450538
 31
0.0
  0
LINE
  5
2CE
330
84
100
AcDbEntity
  8
AM_0
370
    18
100
AcDbLine
 10
126.4
 20
352.2
 30
0.0
 11
126.4
 21
351.2
 31
0.0
  0
LINE
  5
2CF
330
84
100
AcDbEntity
  8
AM_0
370
    18
100
AcDbLine
 10
187.4
 20
351.2
 30
0.0
 11
187.4
 21
352.2
 31
0.0
  0
LINE
  5
2D0
330
84
100
AcDbEntity
  8
AM_0
370
    18
100
AcDbLine
 10
187.4
 20
352.2
 30
0.0
 11
126.4
 21
352.2
 31
0.0
  0
LINE
  5
2D1
330
84
100
AcDbEntity
  8
AM_0
370
    18
100
AcDbLine
 10
118.0
 20
326.7
 30
0.0
 11
108.0
 21
326.7
 31
0.0
  0
LINE
  5
2D2
330
84
100
AcDbEntity
  8
AM_4
370
    18
100
AcDbLine
 10
118.0
 20
323.7
 30
0.0
 11
108.0
 21
323.7
 31
0.0
  0
LINE
  5
2D3
330
84
100
AcDbEntity
  8
AM_0
370
    18
100
AcDbLine
 10
118.0
 20
245.7
 30
0.0
 11
108.0
 21
245.7
 31
0.0
  0
LINE
  5
2D4
330
84
100
AcDbEntity
  8
AM_4
370
    18
100
AcDbLine
 10
112.2
 20
248.7
 30
0.0
 11
108.0
 21
248.7
 31
0.0
  0
LINE
  5
2D5
330
84
100
AcDbEntity
  8
AM_4
370
    18
100
AcDbLine
 10
118.0
 20
319.5054049667618
 30
0.0
 11
108.0
 21
319.5054049667618
 31
0.0
  0
LINE
  5
2D6
330
84
100
AcDbEntity
  8
AM_4
370
    18
100
AcDbLine
 10
112.2
 20
252.8945950332383
 30
0.0
 11
108.0
 21
252.8945950332383
 31
0.0
  0
LINE
  5
2D7
330
84
100
AcDbEntity
  8
AM_4
370
    18
100
AcDbLine
 10
118.0
 20
318.041431122069
 30
0.0
 11
108.0
 21
318.041431122069
 31
0.0
  0
LINE
  5
2D8
330
84
100
AcDbEntity
  8
AM_4
370
    18
100
AcDbLine
 10
112.2
 20
254.3585688779311
 30
0.0
 11
108.0
 21
254.3585688779311
 31
0.0
  0
LINE
  5
2D9
330
84
100
AcDbEntity
  8
AM_4
370
    18
100
AcDbLine
 10
118.0
 20
315.8373626373627
 30
0.0
 11
108.0
 21
315.8373626373627
 31
0.0
  0
LINE
  5
2DA
330
84
100
AcDbEntity
  8
AM_4
370
    18
100
AcDbLine
 10
118.0
 20
256.5626374626059
 30
0.0
 11
108.0
 21
256.5626374626059
 31
0.0
  0
ARC
  5
2DB
330
84
100
AcDbEntity
  8
AM_0
370
    18
100
AcDbCircle
 10
80.20000000000121
 20
286.2
 30
0.0
 40
7.000000000001195
100
AcDbArc
 50
162.5423968762798
 51
197.4576031237202
  0
LINE
  5
2DC
330
84
100
AcDbEntity
  8
AM_0
370
    18
100
AcDbLine
 10
74.4763647914983
 20
283.4
 30
0.0
 11
75.5
 21
283.4
 31
0.0
  0
LINE
  5
2DD
330
84
100
AcDbEntity
  8
AM_0
370
    18
100
AcDbLine
 10
75.5
 20
289.0000000000001
 30
0.0
 11
74.4763647914983
 21
289.0000000000001
 31
0.0
  0
ARC
  5
2DE
330
84
100
AcDbEntity
  8
AM_0
370
    18
100
AcDbCircle
 10
74.4763647914983
 20
284.4
 30
0.0
 40
0.9999999999999682
100
AcDbArc
 50
197.4576031237222
 51
270.0000000000032
  0
ARC
  5
2DF
330
84
100
AcDbEntity
  8
AM_0
370
    18
100
AcDbCircle
 10
74.4763647914983
 20
288.0000000000001
 30
0.0
 40
0.9999999999999818
100
AcDbArc
 50
89.99999999999675
 51
162.5423968762779
  0
LINE
  5
2E0
330
84
100
AcDbEntity
  8
AM_4
370
    18
100
AcDbLine
 10
73.52242559008141
 20
288.3000000000001
 30
0.0
 11
73.52242559008141
 21
284.1
 31
0.0
  0
LINE
  5
2E1
330
84
100
AcDbEntity
  8
AM_4
370
    18
100
AcDbLine
 10
74.4763647914983
 20
289.0000000000001
 30
0.0
 11
74.4763647914983
 21
283.4
 31
0.0
  0
LINE
  5
2E2
330
84
100
AcDbEntity
  8
AM_4
370
    18
100
AcDbLine
 10
75.5
 20
318.9657577151216
 30
0.0
 11
73.0
 21
318.9657577151216
 31
0.0
  0
LINE
  5
2E3
330
84
100
AcDbEntity
  8
AM_4
370
    18
100
AcDbLine
 10
75.5
 20
247.5361807215468
 30
0.0
 11
73.0
 21
247.5361807215468
 31
0.0
  0
LINE
  5
2E4
330
84
100
AcDbEntity
  8
AM_0
370
    18
100
AcDbLine
 10
75.5
 20
289.45
 30
0.0
 11
73.0
 21
289.45
 31
0.0
  0
LINE
  5
2E5
330
84
100
AcDbEntity
  8
AM_4
370
    18
100
AcDbLine
 10
75.5
 20
289.99889178618
 30
0.0
 11
73.0
 21
289.99889178618
 31
0.0
  0
LINE
  5
2E6
330
84
100
AcDbEntity
  8
AM_4
370
    18
100
AcDbLine
 10
75.5
 20
282.4011082138201
 30
0.0
 11
73.0
 21
282.4011082138201
 31
0.0
  0
LINE
  5
2E7
330
84
100
AcDbEntity
  8
AM_0
370
    18
100
AcDbLine
 10
75.5
 20
282.95
 30
0.0
 11
73.0
 21
282.95
 31
0.0
  0
LINE
  5
2E8
330
84
100
AcDbEntity
  8
AM_4
370
    18
100
AcDbLine
 10
108.0
 20
319.6929319634487
 30
0.0
 11
75.5
 21
319.6929319634487
 31
0.0
  0
LINE
  5
2E9
330
84
100
AcDbEntity
  8
AM_4
370
    18
100
AcDbLine
 10
108.0
 20
247.3504048451874
 30
0.0
 11
75.5
 21
247.3504048451874
 31
0.0
  0
LINE
  5
2EA
330
84
100
AcDbEntity
  8
AM_0
370
    18
100
AcDbLine
 10
112.6
 20
340.45
 30
0.0
 11
117.2
 21
340.45
 31
0.0
  0
LINE
  5
2EB
330
84
100
AcDbEntity
  8
AM_0
370
    18
100
AcDbLine
 10
117.2
 20
348.95
 30
0.0
 11
112.6
 21
348.95
 31
0.0
  0
LINE
  5
2EC
330
84
100
AcDbEntity
  8
AM_0
370
    18
100
AcDbLine
 10
112.2
 20
340.8500000000001
 30
0.0
 11
112.6
 21
340.45
 31
0.0
  0
LINE
  5
2ED
330
84
100
AcDbEntity
  8
AM_0
370
    18
100
AcDbLine
 10
112.6
 20
348.95
 30
0.0
 11
112.2
 21
348.5500000000001
 31
0.0
  0
LINE
  5
2EE
330
84
100
AcDbEntity
  8
AM_0
370
    18
100
AcDbLine
 10
112.6
 20
348.95
 30
0.0
 11
112.6
 21
340.45
 31
0.0
  0
LINE
  5
2EF
330
84
100
AcDbEntity
  8
AM_0
370
    18
100
AcDbLine
 10
112.2
 20
348.5500000000001
 30
0.0
 11
112.2
 21
340.8500000000001
 31
0.0
  0
LINE
  5
2F0
330
84
100
AcDbEntity
  8
AM_0
370
    18
100
AcDbLine
 10
103.9
 20
307.2
 30
0.0
 11
107.5
 21
307.2
 31
0.0
  0
LINE
  5
2F1
330
84
100
AcDbEntity
  8
AM_0
370
    18
100
AcDbLine
 10
107.5
 20
314.2
 30
0.0
 11
103.9
 21
314.2
 31
0.0
  0
LINE
  5
2F2
330
84
100
AcDbEntity
  8
AM_0
370
    18
100
AcDbLine
 10
103.5
 20
258.6
 30
0.0
 11
103.9
 21
258.2
 31
0.0
  0
LINE
  5
2F3
330
84
100
AcDbEntity
  8
AM_0
370
    18
100
AcDbLine
 10
103.9
 20
265.2
 30
0.0
 11
103.5
 21
264.8000000000001
 31
0.0
  0
LINE
  5
2F4
330
84
100
AcDbEntity
  8
AM_0
370
    18
100
AcDbLine
 10
103.5
 20
264.8000000000001
 30
0.0
 11
103.5
 21
258.6
 31
0.0
  0
LINE
  5
2F5
330
84
100
AcDbEntity
  8
AM_0
370
    18
100
AcDbLine
 10
103.5
 20
307.6
 30
0.0
 11
103.9
 21
307.2
 31
0.0
  0
LINE
  5
2F6
330
84
100
AcDbEntity
  8
AM_0
370
    18
100
AcDbLine
 10
103.9
 20
314.2
 30
0.0
 11
103.5
 21
313.8000000000001
 31
0.0
  0
LINE
  5
2F7
330
84
100
AcDbEntity
  8
AM_0
370
    18
100
AcDbLine
 10
103.9
 20
314.2
 30
0.0
 11
103.9
 21
307.2
 31
0.0
  0
LINE
  5
2F8
330
84
100
AcDbEntity
  8
AM_0
370
    18
100
AcDbLine
 10
103.5
 20
313.8000000000001
 30
0.0
 11
103.5
 21
307.6
 31
0.0
  0
LINE
  5
2F9
330
84
100
AcDbEntity
  8
AM_0
370
    18
100
AcDbLine
 10
103.9
 20
258.2
 30
0.0
 11
107.5
 21
258.2
 31
0.0
  0
LINE
  5
2FA
330
84
100
AcDbEntity
  8
AM_0
370
    18
100
AcDbLine
 10
107.5
 20
265.2
 30
0.0
 11
103.9
 21
265.2
 31
0.0
  0
LINE
  5
2FB
330
84
100
AcDbEntity
  8
AM_0
370
    18
100
AcDbLine
 10
103.9
 20
265.2
 30
0.0
 11
103.9
 21
258.2
 31
0.0
  0
LINE
  5
2FC
330
84
100
AcDbEntity
  8
AM_0
370
    18
100
AcDbLine
 10
117.2
 20
339.7
 30
0.0
 11
118.0
 21
339.7
 31
0.0
  0
LINE
  5
2FD
330
84
100
AcDbEntity
  8
AM_0
370
    18
100
AcDbLine
 10
118.0
 20
349.7
 30
0.0
 11
117.2
 21
349.7
 31
0.0
  0
LINE
  5
2FE
330
84
100
AcDbEntity
  8
AM_0
370
    18
100
AcDbLine
 10
117.2
 20
349.7
 30
0.0
 11
117.2
 21
339.7
 31
0.0
  0
LINE
  5
2FF
330
84
100
AcDbEntity
  8
AM_0
370
    18
100
AcDbLine
 10
107.5
 20
257.7
 30
0.0
 11
108.0
 21
257.7
 31
0.0
  0
LINE
  5
300
330
84
100
AcDbEntity
  8
AM_0
370
    18
100
AcDbLine
 10
108.0
 20
265.7
 30
0.0
 11
107.5
 21
265.7
 31
0.0
  0
LINE
  5
301
330
84
100
AcDbEntity
  8
AM_0
370
    18
100
AcDbLine
 10
107.5
 20
265.7
 30
0.0
 11
107.5
 21
257.7
 31
0.0
  0
LINE
  5
302
330
84
100
AcDbEntity
  8
AM_0
370
    18
100
AcDbLine
 10
118.0
 20
257.2
 30
0.0
 11
108.0
 21
257.2
 31
0.0
  0
LINE
  5
303
330
84
100
AcDbEntity
  8
AM_4
370
    18
100
AcDbLine
 10
118.0
 20
260.2
 30
0.0
 11
108.0
 21
260.2
 31
0.0
  0
LINE
  5
304
330
84
100
AcDbEntity
  8
AM_0
370
    18
100
AcDbLine
 10
107.5
 20
306.7
 30
0.0
 11
108.0
 21
306.7
 31
0.0
  0
LINE
  5
305
330
84
100
AcDbEntity
  8
AM_0
370
    18
100
AcDbLine
 10
108.0
 20
314.7
 30
0.0
 11
107.5
 21
314.7
 31
0.0
  0
LINE
  5
306
330
84
100
AcDbEntity
  8
AM_0
370
    18
100
AcDbLine
 10
107.5
 20
314.7
 30
0.0
 11
107.5
 21
306.7
 31
0.0
  0
LINE
  5
307
330
84
100
AcDbEntity
  8
AM_4
370
    18
100
AcDbLine
 10
118.0
 20
312.2
 30
0.0
 11
108.0
 21
312.2
 31
0.0
  0
LINE
  5
308
330
84
100
AcDbEntity
  8
AM_0
370
    18
100
AcDbLine
 10
118.0
 20
315.2
 30
0.0
 11
108.0
 21
315.2
 31
0.0
  0
LINE
  5
309
330
84
100
AcDbEntity
  8
AM_4
370
    18
100
AcDbLine
 10
108.0
 20
293.3385542168675
 30
0.0
 11
75.5
 21
293.3385542168675
 31
0.0
  0
LINE
  5
30A
330
84
100
AcDbEntity
  8
AM_4
370
    18
100
AcDbLine
 10
108.0
 20
279.0614457831326
 30
0.0
 11
75.5
 21
279.0614457831326
 31
0.0
  0
LINE
  5
30B
330
84
100
AcDbEntity
  8
AM_4
370
    18
100
AcDbLine
 10
118.0
 20
292.7
 30
0.0
 11
108.0
 21
292.7
 31
0.0
  0
LINE
  5
30C
330
84
100
AcDbEntity
  8
AM_0
370
    18
100
AcDbLine
 10
108.0
 20
291.7
 30
0.0
 11
108.0
 21
326.7
 31
0.0
  0
LINE
  5
30D
330
84
100
AcDbEntity
  8
AM_0
370
    18
100
AcDbLine
 10
108.0
 20
244.7
 30
0.0
 11
108.0
 21
280.7
 31
0.0
  0
LINE
  5
30E
330
84
100
AcDbEntity
  8
AM_4
370
    18
100
AcDbLine
 10
118.0
 20
279.7
 30
0.0
 11
108.0
 21
279.7
 31
0.0
  0
LINE
  5
30F
330
84
100
AcDbEntity
  8
AM_0
370
    18
100
AcDbLine
 10
251.0
 20
351.2
 30
0.0
 11
118.0
 21
351.2
 31
0.0
  0
LINE
  5
310
330
84
100
AcDbEntity
  8
AM_4
370
    18
100
AcDbLine
 10
239.0
 20
350.7
 30
0.0
 11
118.0
 21
350.7
 31
0.0
  0
LINE
  5
311
330
84
100
AcDbEntity
  8
AM_0
370
    18
100
AcDbLine
 10
118.0
 20
291.7
 30
0.0
 11
75.5
 21
291.7
 31
0.0
  0
LINE
  5
312
330
84
100
AcDbEntity
  8
AM_4
370
    18
100
AcDbLine
 10
118.0
 20
290.7
 30
0.0
 11
75.5
 21
290.7
 31
0.0
  0
LINE
  5
313
330
84
100
AcDbEntity
  8
AM_0
370
    18
100
AcDbLine
 10
251.0
 20
221.2
 30
0.0
 11
118.0
 21
221.2
 31
0.0
  0
LINE
  5
314
330
84
100
AcDbEntity
  8
AM_4
370
    18
100
AcDbLine
 10
239.0
 20
221.7
 30
0.0
 11
118.0
 21
221.7
 31
0.0
  0
LINE
  5
315
330
84
100
AcDbEntity
  8
AM_4
370
    18
100
AcDbLine
 10
118.0
 20
281.7
 30
0.0
 11
75.5
 21
281.7
 31
0.0
  0
LINE
  5
316
330
84
100
AcDbEntity
  8
AM_0
370
    18
100
AcDbLine
 10
75.5
 20
321.157321375607
 30
0.0
 11
75.5
 21
243.2
 31
0.0
  0
LINE
  5
317
330
84
100
AcDbEntity
  8
AM_0
370
    18
100
AcDbLine
 10
118.0
 20
280.7
 30
0.0
 11
75.5
 21
280.7
 31
0.0
  0
LINE
  5
318
330
84
100
AcDbEntity
  8
AM_4
370
    18
100
AcDbLine
 10
239.0
 20
236.5638236766771
 30
0.0
 11
118.0
 21
236.5638236766771
 31
0.0
  0
LINE
  5
319
330
84
100
AcDbEntity
  8
AM_4
370
    18
100
AcDbLine
 10
239.0
 20
335.8361763233229
 30
0.0
 11
118.0
 21
335.8361763233229
 31
0.0
  0
LINE
  5
31A
330
84
100
AcDbEntity
  8
AM_4
370
    18
100
AcDbLine
 10
239.0
 20
236.9398553154902
 30
0.0
 11
118.0
 21
236.9398553154902
 31
0.0
  0
LINE
  5
31B
330
84
100
AcDbEntity
  8
AM_4
370
    18
100
AcDbLine
 10
239.0
 20
335.4601446845099
 30
0.0
 11
118.0
 21
335.4601446845099
 31
0.0
  0
LINE
  5
31C
330
84
100
AcDbEntity
  8
AM_4
370
    18
100
AcDbLine
 10
239.0
 20
243.0295454545455
 30
0.0
 11
118.0
 21
243.0295454545455
 31
0.0
  0
LINE
  5
31D
330
84
100
AcDbEntity
  8
AM_4
370
    18
100
AcDbLine
 10
239.0
 20
328.9684990888271
 30
0.0
 11
118.0
 21
328.9684990888271
 31
0.0
  0
LINE
  5
31E
330
84
100
AcDbEntity
  8
AM_4
370
    18
100
AcDbLine
 10
239.0
 20
324.0530408302294
 30
0.0
 11
118.0
 21
324.0530408302294
 31
0.0
  0
LINE
  5
31F
330
84
100
AcDbEntity
  8
AM_4
370
    18
100
AcDbLine
 10
239.0
 20
321.6886058207201
 30
0.0
 11
118.0
 21
321.6886058207201
 31
0.0
  0
LINE
  5
320
330
84
100
AcDbEntity
  8
AM_4
370
    18
100
AcDbLine
 10
239.0
 20
317.3604189282552
 30
0.0
 11
118.0
 21
317.3604189282552
 31
0.0
  0
LINE
  5
321
330
84
100
AcDbEntity
  8
AM_4
370
    18
100
AcDbLine
 10
239.0
 20
315.0071195348057
 30
0.0
 11
118.0
 21
315.0071195348057
 31
0.0
  0
LINE
  5
322
330
84
100
AcDbEntity
  8
AM_4
370
    18
100
AcDbLine
 10
239.0
 20
257.4781415747143
 30
0.0
 11
118.0
 21
257.4781415747143
 31
0.0
  0
LINE
  5
323
330
84
100
AcDbEntity
  8
AM_4
370
    18
100
AcDbLine
 10
239.0
 20
258.4152586795663
 30
0.0
 11
118.0
 21
258.4152586795663
 31
0.0
  0
LINE
  5
324
330
84
100
AcDbEntity
  8
AM_4
370
    18
100
AcDbLine
 10
239.0
 20
262.2771468247563
 30
0.0
 11
118.0
 21
262.2771468247563
 31
0.0
  0
LINE
  5
325
330
84
100
AcDbEntity
  8
AM_4
370
    18
100
AcDbLine
 10
239.0
 20
311.0914871659548
 30
0.0
 11
118.0
 21
311.0914871659548
 31
0.0
  0
LINE
  5
326
330
84
100
AcDbEntity
  8
AM_4
370
    18
100
AcDbLine
 10
239.0
 20
308.8924297921213
 30
0.0
 11
118.0
 21
308.8924297921213
 31
0.0
  0
LINE
  5
327
330
84
100
AcDbEntity
  8
AM_4
370
    18
100
AcDbLine
 10
239.0
 20
263.5075702078788
 30
0.0
 11
118.0
 21
263.5075702078788
 31
0.0
  0
LINE
  5
328
330
84
100
AcDbEntity
  8
AM_0
370
    18
100
AcDbLine
 10
112.6
 20
246.95
 30
0.0
 11
117.2
 21
246.95
 31
0.0
  0
LINE
  5
329
330
84
100
AcDbEntity
  8
AM_0
370
    18
100
AcDbLine
 10
117.2
 20
255.45
 30
0.0
 11
112.6
 21
255.45
 31
0.0
  0
LINE
  5
32A
330
84
100
AcDbEntity
  8
AM_0
370
    18
100
AcDbLine
 10
112.2
 20
247.35
 30
0.0
 11
112.6
 21
246.95
 31
0.0
  0
LINE
  5
32B
330
84
100
AcDbEntity
  8
AM_0
370
    18
100
AcDbLine
 10
112.6
 20
255.45
 30
0.0
 11
112.2
 21
255.0500000000001
 31
0.0
  0
LINE
  5
32C
330
84
100
AcDbEntity
  8
AM_0
370
    18
100
AcDbLine
 10
112.6
 20
255.45
 30
0.0
 11
112.6
 21
246.95
 31
0.0
  0
LINE
  5
32D
330
84
100
AcDbEntity
  8
AM_0
370
    18
100
AcDbLine
 10
112.2
 20
255.0500000000001
 30
0.0
 11
112.2
 21
247.35
 31
0.0
  0
LINE
  5
32E
330
84
100
AcDbEntity
  8
AM_4
370
    18
100
AcDbLine
 10
239.0
 20
267.1359455539625
 30
0.0
 11
118.0
 21
267.1359455539625
 31
0.0
  0
LINE
  5
32F
330
84
100
AcDbEntity
  8
AM_4
370
    18
100
AcDbLine
 10
239.0
 20
305.2640544460376
 30
0.0
 11
118.0
 21
305.2640544460376
 31
0.0
  0
LINE
  5
330
330
84
100
AcDbEntity
  8
AM_0
370
    18
100
AcDbLine
 10
117.2
 20
246.2
 30
0.0
 11
118.0
 21
246.2
 31
0.0
  0
LINE
  5
331
330
84
100
AcDbEntity
  8
AM_0
370
    18
100
AcDbLine
 10
118.0
 20
256.2
 30
0.0
 11
117.2
 21
256.2
 31
0.0
  0
LINE
  5
332
330
84
100
AcDbEntity
  8
AM_0
370
    18
100
AcDbLine
 10
117.2
 20
256.2
 30
0.0
 11
117.2
 21
246.2
 31
0.0
  0
LINE
  5
333
330
84
100
AcDbEntity
  8
AM_4
370
    18
100
AcDbLine
 10
239.0
 20
303.5674242424243
 30
0.0
 11
118.0
 21
303.5674242424243
 31
0.0
  0
LINE
  5
334
330
84
100
AcDbEntity
  8
AM_4
370
    18
100
AcDbLine
 10
239.0
 20
268.8325757575758
 30
0.0
 11
118.0
 21
268.8325757575758
 31
0.0
  0
LINE
  5
335
330
84
100
AcDbEntity
  8
AM_4
370
    18
100
AcDbLine
 10
239.0
 20
263.833412952188
 30
0.0
 11
118.0
 21
263.833412952188
 31
0.0
  0
LINE
  5
336
330
84
100
AcDbEntity
  8
AM_4
370
    18
100
AcDbLine
 10
239.0
 20
318.0973521208116
 30
0.0
 11
118.0
 21
318.0973521208116
 31
0.0
  0
LINE
  5
337
330
84
100
AcDbEntity
  8
AM_4
370
    18
100
AcDbLine
 10
239.0
 20
305.9086489784244
 30
0.0
 11
118.0
 21
305.9086489784244
 31
0.0
  0
LINE
  5
338
330
84
100
AcDbEntity
  8
AM_0
370
    18
100
AcDbLine
 10
118.0
 20
351.2
 30
0.0
 11
118.0
 21
221.2
 31
0.0
  0
LINE
  5
339
330
84
100
AcDbEntity
  8
AM_4
370
    18
100
AcDbLine
 10
239.0
 20
321.4604438094536
 30
0.0
 11
118.0
 21
321.4604438094536
 31
0.0
  0
LINE
  5
33A
330
84
100
AcDbEntity
  8
AM_4
370
    18
100
AcDbLine
 10
239.0
 20
258.7022288167891
 30
0.0
 11
118.0
 21
258.7022288167891
 31
0.0
  0
LINE
  5
33B
330
84
100
AcDbEntity
  8
AM_4
370
    18
100
AcDbLine
 10
239.0
 20
266.4913510215757
 30
0.0
 11
118.0
 21
266.4913510215757
 31
0.0
  0
LINE
  5
33C
330
84
100
AcDbEntity
  8
AM_4
370
    18
100
AcDbLine
 10
239.0
 20
328.7959087818973
 30
0.0
 11
118.0
 21
328.7959087818973
 31
0.0
  0
LINE
  5
33D
330
84
100
AcDbEntity
  8
AM_4
370
    18
100
AcDbLine
 10
239.0
 20
308.5665870478121
 30
0.0
 11
118.0
 21
308.5665870478121
 31
0.0
  0
LINE
  5
33E
330
84
100
AcDbEntity
  8
AM_4
370
    18
100
AcDbLine
 10
239.0
 20
324.8410627395947
 30
0.0
 11
118.0
 21
324.8410627395947
 31
0.0
  0
LINE
  5
33F
330
84
100
AcDbEntity
  8
AM_4
370
    18
100
AcDbLine
 10
239.0
 20
311.7805659175776
 30
0.0
 11
118.0
 21
311.7805659175776
 31
0.0
  0
LINE
  5
340
330
84
100
AcDbEntity
  8
AM_4
370
    18
100
AcDbLine
 10
239.0
 20
314.7279538114331
 30
0.0
 11
118.0
 21
314.7279538114331
 31
0.0
  0
LINE
  5
341
330
84
100
AcDbEntity
  8
AM_4
370
    18
100
AcDbLine
 10
239.0
 20
261.5954622257343
 30
0.0
 11
118.0
 21
261.5954622257343
 31
0.0
  0
LINE
  5
342
330
84
100
AcDbEntity
  8
AM_4
370
    18
100
AcDbLine
 10
239.0
 20
256.8258780451482
 30
0.0
 11
118.0
 21
256.8258780451482
 31
0.0
  0
LINE
  5
343
330
84
100
AcDbEntity
  8
AM_4
370
    18
100
AcDbLine
 10
239.0
 20
305.9523315019727
 30
0.0
 11
118.0
 21
305.9523315019727
 31
0.0
  0
LINE
  5
344
330
84
100
AcDbEntity
  8
AM_4
370
    18
100
AcDbLine
 10
239.0
 20
308.4476684980274
 30
0.0
 11
118.0
 21
308.4476684980274
 31
0.0
  0
LINE
  5
345
330
84
100
AcDbEntity
  8
AM_4
370
    18
100
AcDbLine
 10
239.0
 20
311.9523315019727
 30
0.0
 11
118.0
 21
311.9523315019727
 31
0.0
  0
LINE
  5
346
330
84
100
AcDbEntity
  8
AM_4
370
    18
100
AcDbLine
 10
239.0
 20
314.4476684980274
 30
0.0
 11
118.0
 21
314.4476684980274
 31
0.0
  0
LINE
  5
347
330
84
100
AcDbEntity
  8
AM_4
370
    18
100
AcDbLine
 10
239.0
 20
325.4523315019727
 30
0.0
 11
118.0
 21
325.4523315019727
 31
0.0
  0
LINE
  5
348
330
84
100
AcDbEntity
  8
AM_4
370
    18
100
AcDbLine
 10
239.0
 20
327.9476684980274
 30
0.0
 11
118.0
 21
327.9476684980274
 31
0.0
  0
LINE
  5
349
330
84
100
AcDbEntity
  8
AM_0
370
    18
100
AcDbLine
 10
239.0
 20
269.2
 30
0.0
 11
118.0
 21
269.2
 31
0.0
  0
LINE
  5
34A
330
84
100
AcDbEntity
  8
AM_4
370
    18
100
AcDbLine
 10
239.0
 20
318.4523315019727
 30
0.0
 11
118.0
 21
318.4523315019727
 31
0.0
  0
LINE
  5
34B
330
84
100
AcDbEntity
  8
AM_4
370
    18
100
AcDbLine
 10
239.0
 20
320.9476684980274
 30
0.0
 11
118.0
 21
320.9476684980274
 31
0.0
  0
LINE
  5
34C
330
84
100
AcDbEntity
  8
AM_4
370
    18
100
AcDbLine
 10
239.0
 20
253.5443375672975
 30
0.0
 11
118.0
 21
253.5443375672975
 31
0.0
  0
LINE
  5
34D
330
84
100
AcDbEntity
  8
AM_4
370
    18
100
AcDbLine
 10
239.0
 20
263.9523315019727
 30
0.0
 11
118.0
 21
263.9523315019727
 31
0.0
  0
LINE
  5
34E
330
84
100
AcDbEntity
  8
AM_4
370
    18
100
AcDbLine
 10
239.0
 20
266.4476684980274
 30
0.0
 11
118.0
 21
266.4476684980274
 31
0.0
  0
LINE
  5
34F
330
84
100
AcDbEntity
  8
AM_4
370
    18
100
AcDbLine
 10
239.0
 20
258.9523315019727
 30
0.0
 11
118.0
 21
258.9523315019727
 31
0.0
  0
LINE
  5
350
330
84
100
AcDbEntity
  8
AM_4
370
    18
100
AcDbLine
 10
239.0
 20
261.4476684980274
 30
0.0
 11
118.0
 21
261.4476684980274
 31
0.0
  0
LINE
  5
351
330
84
100
AcDbEntity
  8
AM_0
370
    18
100
AcDbLine
 10
239.0
 20
303.2
 30
0.0
 11
118.0
 21
303.2
 31
0.0
  0
LINE
  5
352
330
84
100
AcDbEntity
  8
AM_0
370
    18
100
AcDbLine
 10
239.0
 20
221.2
 30
0.0
 11
239.0
 21
243.7
 31
0.0
  0
LINE
  5
353
330
84
100
AcDbEntity
  8
AM_0
370
    18
100
AcDbLine
 10
251.0
 20
351.2
 30
0.0
 11
251.0
 21
221.2
 31
0.0
  0
LINE
  5
354
330
84
100
AcDbEntity
  8
AM_0
370
    18
100
AcDbLine
 10
239.0
 20
235.3939964177461
 30
0.0
 11
251.0
 21
235.3939964177461
 31
0.0
  0
LINE
  5
355
330
84
100
AcDbEntity
  8
AM_0
370
    18
100
AcDbLine
 10
239.0
 20
337.006003582254
 30
0.0
 11
251.0
 21
337.006003582254
 31
0.0
  0
LINE
  5
356
330
84
100
AcDbEntity
  8
AM_0
370
    18
100
AcDbLine
 10
239.0
 20
302.7
 30
0.0
 11
239.0
 21
351.2
 31
0.0
  0
LINE
  5
357
330
84
100
AcDbEntity
  8
AM_4
370
    18
100
AcDbLine
 10
239.0
 20
302.7
 30
0.0
 11
118.0
 21
302.7
 31
0.0
  0
LINE
  5
358
330
84
100
AcDbEntity
  8
AM_4
370
    18
100
AcDbLine
 10
239.0
 20
269.7
 30
0.0
 11
118.0
 21
269.7
 31
0.0
  0
LINE
  5
359
330
84
100
AcDbEntity
  8
AM_0
370
    18
100
AcDbLine
 10
239.0
 20
253.1113248654052
 30
0.0
 11
239.0
 21
269.7
 31
0.0
  0
LINE
  5
35A
330
84
100
AcDbEntity
  8
AM_4
370
    18
100
AcDbLine
 10
239.0
 20
253.1113248654052
 30
0.0
 11
118.0
 21
253.1113248654052
 31
0.0
  0
LINE
  5
35B
330
84
100
AcDbEntity
  8
AM_4
370
    18
100
AcDbLine
 10
239.0
 20
243.7
 30
0.0
 11
118.0
 21
243.7
 31
0.0
  0
LINE
  5
35C
330
84
100
AcDbEntity
  8
AM_7
100
AcDbLine
 10
257.65
 20
337.4652416360248
 30
0.0
 11
111.35
 21
337.4652416360248
 31
0.0
  0
LINE
  5
35D
330
84
100
AcDbEntity
  8
AM_7
100
AcDbLine
 10
257.65
 20
234.9347583639753
 30
0.0
 11
111.35
 21
234.9347583639753
 31
0.0
  0
LINE
  5
35E
330
84
100
AcDbEntity
  8
AM_7
100
AcDbLine
 10
246.7
 20
286.2
 30
0.0
 11
319.3
 21
286.2
 31
0.0
  0
LINE
  5
35F
330
84
100
AcDbEntity
  8
AM_7
370
    18
100
AcDbLine
 10
111.91
 20
251.2
 30
0.0
 11
118.29
 21
251.2
 31
0.0
  0
LINE
  5
360
330
84
100
AcDbEntity
  8
AM_7
370
    18
100
AcDbLine
 10
111.91
 20
344.7
 30
0.0
 11
118.29
 21
344.7
 31
0.0
  0
LINE
  5
361
330
84
100
AcDbEntity
  8
AM_7
370
    18
100
AcDbLine
 10
111.91
 20
227.7
 30
0.0
 11
118.29
 21
227.7
 31
0.0
  0
LINE
  5
362
330
84
100
AcDbEntity
  8
AM_7
370
    18
100
AcDbLine
 10
111.91
 20
321.2
 30
0.0
 11
118.29
 21
321.2
 31
0.0
  0
LINE
  5
363
330
84
100
AcDbEntity
  8
AM_7
370
    18
100
AcDbLine
 10
103.275
 20
310.7
 30
0.0
 11
108.225
 21
310.7
 31
0.0
  0
LINE
  5
364
330
84
100
AcDbEntity
  8
AM_7
370
    18
100
AcDbLine
 10
103.275
 20
261.7
 30
0.0
 11
108.225
 21
261.7
 31
0.0
  0
LINE
  5
365
330
84
100
AcDbEntity
  8
AM_7
370
    18
100
AcDbLine
 10
93.0
 20
371.15
 30
0.0
 11
93.0
 21
350.2500000000001
 31
0.0
  0
LINE
  5
366
330
84
100
AcDbEntity
  8
AM_7
370
    18
100
AcDbLine
 10
78.32
 20
353.3945000000001
 30
0.0
 11
78.32
 21
351.0955
 31
0.0
  0
LINE
  5
367
330
84
100
AcDbEntity
  8
AM_7
370
    18
100
AcDbLine
 10
107.68
 20
353.3945000000001
 30
0.0
 11
107.68
 21
351.0955
 31
0.0
  0
LINE
  5
368
330
84
100
AcDbEntity
  8
AM_7
370
    18
100
AcDbLine
 10
154.0
 20
405.075
 30
0.0
 11
154.0
 21
385.825
 31
0.0
  0
LINE
  5
369
330
84
100
AcDbEntity
  8
AM_7
370
    18
100
AcDbLine
 10
132.4
 20
387.624
 30
0.0
 11
132.4
 21
386.6560000000001
 31
0.0
  0
LINE
  5
36A
330
84
100
AcDbEntity
  8
AM_7
370
    18
100
AcDbLine
 10
178.9
 20
387.624
 30
0.0
 11
178.9
 21
386.6560000000001
 31
0.0
  0
LINE
  5
36B
330
84
100
AcDbEntity
  8
AM_7
370
    18
100
AcDbLine
 10
73.08500000000001
 20
251.95
 30
0.0
 11
75.61500000000001
 21
251.95
 31
0.0
  0
LINE
  5
36C
330
84
100
AcDbEntity
  8
AM_7
370
    18
100
AcDbLine
 10
73.08500000000001
 20
286.2
 30
0.0
 11
75.61500000000001
 21
286.2
 31
0.0
  0
LINE
  5
36D
330
84
100
AcDbEntity
  8
AM_7
370
    18
100
AcDbLine
 10
73.08500000000001
 20
322.046525861438
 30
0.0
 11
75.61500000000001
 21
322.046525861438
 31
0.0
  0
ENDBLK
  5
86
330
84
100
AcDbEntity
  8
0
100
AcDbBlockEnd
  0
BLOCK
  5
370
330
36F
100
AcDbEntity
  8
0
100
AcDbBlockBegin
  2
レイアウト (部分図 （減速機）前)
 70
     0
 10
0.0
 20
0.0
 30
0.0
  3
レイアウト (部分図 （減速機）前)
  1

  0
POINT
  5
372
330
36F
100
AcDbEntity
  8
View_0_PV
100
AcDbPoint
 10
804.4437662964459
 20
286.2
 30
0.0
  0
POINT
  5
373
330
36F
100
AcDbEntity
  8
View_0_PV
100
AcDbPoint
 10
804.4437662964459
 20
376.2
 30
0.0
  0
POINT
  5
374
330
36F
100
AcDbEntity
  8
View_0_PV
100
AcDbPoint
 10
804.443766296446
 20
286.2
 30
0.0
  0
POINT
  5
375
330
36F
100
AcDbEntity
  8
View_0_PV
100
AcDbPoint
 10
745.443766296446
 20
286.2
 30
0.0
  0
POINT
  5
376
330
36F
100
AcDbEntity
  8
View_0_PV
100
AcDbPoint
 10
804.443766296446
 20
286.2
 30
0.0
  0
POINT
  5
377
330
36F
100
AcDbEntity
  8
View_0_PV
100
AcDbPoint
 10
863.443766296446
 20
286.2
 30
0.0
  0
LINE
  5
378
330
36F
100
AcDbEntity
  8
View_0_PV
 62
     7
370
    18
100
AcDbLine
 10
689.4449259644148
 20
166.2
 30
0.0
 11
744.443766296446
 21
166.2
 31
0.0
  0
LINE
  5
379
330
36F
100
AcDbEntity
  8
View_0_PV
 62
     7
370
    18
100
AcDbLine
 10
691.4449259644148
 20
181.2
 30
0.0
 11
804.443766296446
 21
181.2
 31
0.0
  0
LINE
  5
37A
330
36F
100
AcDbEntity
  8
View_0_PV
 62
     7
370
    18
100
AcDbLine
 10
689.4449259644148
 20
179.2
 30
0.0
 11
689.4449259644148
 21
166.2
 31
0.0
  0
LINE
  5
37B
330
36F
100
AcDbEntity
  8
View_0_PV
 62
     7
370
    18
100
AcDbLine
 10
705.30960647196
 20
299.306979062291
 30
0.0
 11
689.4641034689337
 21
179.4615901739994
 31
0.0
  0
LINE
  5
37C
330
36F
100
AcDbEntity
  8
View_0_PV
 62
     7
370
    18
100
AcDbLine
 10
749.443766296446
 20
171.2
 30
0.0
 11
804.443766296446
 21
171.2
 31
0.0
  0
LINE
  5
37D
330
36F
100
AcDbEntity
  8
View_0_PV
 62
     7
370
    18
100
AcDbLine
 10
749.3991366036913
 20
194.3731236485603
 30
0.0
 11
762.6952638917494
 21
234.1024061610186
 31
0.0
  0
LINE
  5
37E
330
36F
100
AcDbEntity
  8
View_0_PV
 62
     7
370
    18
100
AcDbLine
 10
737.8720132007093
 20
191.4389665536255
 30
0.0
 11
757.382924059401
 21
249.738234662811
 31
0.0
  0
LINE
  5
37F
330
36F
100
AcDbEntity
  8
View_0_PV
  6
CENTER2
 62
     4
370
    18
100
AcDbLine
 10
732.9969787464433
 20
244.949989535711
 30
0.0
 11
720.0065973308763
 21
237.4499901571719
 31
0.0
  0
LINE
  5
380
330
36F
100
AcDbEntity
  8
View_0_PV
  6
CENTER2
 62
     4
370
    18
100
AcDbLine
 10
732.9994264598093
 20
327.4484770964534
 30
0.0
 11
720.0090454613314
 21
334.9484771974123
 31
0.0
  0
LINE
  5
381
330
36F
100
AcDbEntity
  8
View_0_PV
  6
CENTER2
 62
     4
370
    18
100
AcDbLine
 10
709.4449259644148
 20
191.5452758789063
 30
0.0
 11
709.4449259644148
 21
155.8265258789064
 31
0.0
  0
LINE
  5
382
330
36F
100
AcDbEntity
  8
View_0_PV
  6
DASHED2
 62
     7
370
    18
100
AcDbLine
 10
716.4443766480085
 20
181.2
 30
0.0
 11
716.4443766480085
 21
166.2
 31
0.0
  0
LINE
  5
383
330
36F
100
AcDbEntity
  8
View_0_PV
  6
DASHED2
 62
     7
370
    18
100
AcDbLine
 10
702.4449259644148
 20
181.2
 30
0.0
 11
702.4449259644148
 21
166.2
 31
0.0
  0
LINE
  5
384
330
36F
100
AcDbEntity
  8
View_0_PV
 62
     7
370
    18
100
AcDbLine
 10
744.443766296446
 20
179.2
 30
0.0
 11
744.443766296446
 21
166.2
 31
0.0
  0
LINE
  5
385
330
36F
100
AcDbEntity
  8
View_0_PV
 62
     7
370
    18
100
AcDbLine
 10
774.443766296446
 20
179.2
 30
0.0
 11
774.443766296446
 21
173.2
 31
0.0
  0
LINE
  5
386
330
36F
100
AcDbEntity
  8
View_0_PV
 62
     7
370
    18
100
AcDbLine
 10
864.443766296446
 20
166.2
 30
0.0
 11
919.443766296446
 21
166.2
 31
0.0
  0
LINE
  5
387
330
36F
100
AcDbEntity
  8
View_0_PV
 62
     7
370
    18
100
AcDbLine
 10
804.443766296446
 20
181.2
 30
0.0
 11
917.443766296446
 21
181.2
 31
0.0
  0
LINE
  5
388
330
36F
100
AcDbEntity
  8
View_0_PV
 62
     7
370
    18
100
AcDbLine
 10
919.443766296446
 20
166.2
 30
0.0
 11
919.443766296446
 21
179.2
 31
0.0
  0
LINE
  5
389
330
36F
100
AcDbEntity
  8
View_0_PV
 62
     7
370
    18
100
AcDbLine
 10
919.4266845975169
 20
179.4619401012939
 30
0.0
 11
903.5811815944905
 21
299.3073289895854
 31
0.0
  0
LINE
  5
38A
330
36F
100
AcDbEntity
  8
View_0_PV
 62
     7
370
    18
100
AcDbLine
 10
804.443766296446
 20
171.2
 30
0.0
 11
859.443766296446
 21
171.2
 31
0.0
  0
LINE
  5
38B
330
36F
100
AcDbEntity
  8
View_0_PV
 62
     7
370
    18
100
AcDbLine
 10
846.1938758107985
 20
234.1029189788039
 30
0.0
 11
859.4900224693893
 21
194.3735785865322
 31
0.0
  0
LINE
  5
38C
330
36F
100
AcDbEntity
  8
View_0_PV
 62
     7
370
    18
100
AcDbLine
 10
851.5062156431468
 20
249.7387474805964
 30
0.0
 11
871.0171458723712
 21
191.4394214915976
 31
0.0
  0
LINE
  5
38D
330
36F
100
AcDbEntity
  8
View_0_PV
  6
CENTER2
 62
     4
370
    18
100
AcDbLine
 10
888.8814158422242
 20
237.4499802202494
 30
0.0
 11
875.8910344266569
 21
244.9499795987884
 31
0.0
  0
LINE
  5
38E
330
36F
100
AcDbEntity
  8
View_0_PV
  6
CENTER2
 62
     4
370
    18
100
AcDbLine
 10
888.8814724706328
 20
334.9499043729413
 30
0.0
 11
875.891091472155
 21
327.4499042719825
 31
0.0
  0
LINE
  5
38F
330
36F
100
AcDbEntity
  8
View_0_PV
  6
CENTER2
 62
     4
370
    13
100
AcDbLine
 10
899.443766296446
 20
155.8265258789064
 30
0.0
 11
899.443766296446
 21
191.5452758789063
 31
0.0
  0
LINE
  5
390
330
36F
100
AcDbEntity
  8
View_0_PV
  6
DASHED2
 62
     7
370
    18
100
AcDbLine
 10
892.443766296446
 20
166.2
 30
0.0
 11
892.443766296446
 21
181.2
 31
0.0
  0
LINE
  5
391
330
36F
100
AcDbEntity
  8
View_0_PV
  6
DASHED2
 62
     7
370
    18
100
AcDbLine
 10
906.443766296446
 20
166.2
 30
0.0
 11
906.443766296446
 21
181.2
 31
0.0
  0
LINE
  5
392
330
36F
100
AcDbEntity
  8
View_0_PV
 62
     7
370
    18
100
AcDbLine
 10
864.443766296446
 20
166.2
 30
0.0
 11
864.443766296446
 21
179.2
 31
0.0
  0
LINE
  5
393
330
36F
100
AcDbEntity
  8
View_0_PV
 62
     7
370
    18
100
AcDbLine
 10
834.443766296446
 20
173.2
 30
0.0
 11
834.443766296446
 21
179.2
 31
0.0
  0
LINE
  5
394
330
36F
100
AcDbEntity
  8
View_0_PV
  6
CENTER2
 62
     4
370
    13
100
AcDbLine
 10
684.4449259644148
 20
286.2
 30
0.0
 11
924.443766296446
 21
286.2
 31
0.0
  0
LINE
  5
395
330
36F
100
AcDbEntity
  8
View_0_PV
  6
CENTER2
 62
     4
370
    13
100
AcDbLine
 10
804.443766296446
 20
428.3605834960938
 30
0.0
 11
804.443766296446
 21
155.8265258789064
 31
0.0
  0
ARC
  5
396
330
36F
100
AcDbEntity
  8
View_0_PV
  6
CENTER2
 62
     4
370
    13
100
AcDbCircle
 10
804.443766296446
 20
286.2
 30
0.0
 40
90.0
100
AcDbArc
 50
89.9999820139077
 51
269.9999460417296
  0
ARC
  5
397
330
36F
100
AcDbEntity
  8
View_0_PV
 62
     7
370
    18
100
AcDbCircle
 10
691.4449259644148
 20
179.2
 30
0.0
 40
2.0
100
AcDbArc
 50
89.9999820139077
 51
179.9999640278203
  0
ARC
  5
398
330
36F
100
AcDbEntity
  8
View_0_PV
 62
     7
370
    18
100
AcDbCircle
 10
804.443766296446
 20
286.2
 30
0.0
 40
59.0
100
AcDbArc
 50
240.587748099154
 51
269.9999633445788
  0
ARC
  5
399
330
36F
100
AcDbEntity
  8
View_0_PV
 62
     7
370
    18
100
AcDbCircle
 10
804.443766296446
 20
286.2
 30
0.0
 40
76.0
100
AcDbArc
 50
242.7630813875313
 51
269.9999633445788
  0
ARC
  5
39A
330
36F
100
AcDbEntity
  8
View_0_PV
 62
     7
370
    18
100
AcDbCircle
 10
743.1570231323835
 20
254.49931640625
 30
0.0
 40
15.0
100
AcDbArc
 50
341.4962901232884
 51
27.35034505953292
  0
ARC
  5
39B
330
36F
100
AcDbEntity
  8
View_0_PV
 62
     7
370
    18
100
AcDbCircle
 10
723.6460978394148
 20
196.2
 30
0.0
 40
15.0
100
AcDbArc
 50
270.0000179860923
 51
341.4962525572487
  0
ARC
  5
39C
330
36F
100
AcDbEntity
  8
View_0_PV
 62
     7
370
    18
100
AcDbCircle
 10
734.3459879761335
 20
228.1715576171875
 30
0.0
 40
15.0
100
AcDbArc
 50
341.4962593874377
 51
39.6186283938756
  0
ARC
  5
39D
330
36F
100
AcDbEntity
  8
View_0_PV
 62
     7
370
    18
100
AcDbCircle
 10
772.176920593321
 20
230.9293090820313
 30
0.0
 40
10.0
100
AcDbArc
 50
59.72372051772182
 51
161.4961619435583
  0
ARC
  5
39E
330
36F
100
AcDbEntity
  8
View_0_PV
 62
     7
370
    18
100
AcDbCircle
 10
765.0840861206648
 20
209.7355224609375
 30
0.0
 40
10.0
100
AcDbArc
 50
62.76299077383928
 51
161.4961619435583
  0
ARC
  5
39F
330
36F
100
AcDbEntity
  8
View_0_PV
 62
     7
370
    18
100
AcDbCircle
 10
758.880778015196
 20
191.2
 30
0.0
 40
10.0
100
AcDbArc
 50
161.49621658507
 51
270.0001099662697
  0
ARC
  5
3A0
330
36F
100
AcDbEntity
  8
View_0_PV
 62
     7
370
    18
100
AcDbCircle
 10
770.5585734253523
 20
226.0934936523438
 30
0.0
 40
10.0
100
AcDbArc
 50
60.58765748545827
 51
161.4961619435583
  0
ARC
  5
3A1
330
36F
100
AcDbEntity
  8
View_0_PV
 62
     7
370
    18
100
AcDbCircle
 10
741.0119425659774
 20
248.0896484375
 30
0.0
 40
15.0
100
AcDbArc
 50
341.4962628025305
 51
30.99775145368693
  0
ARC
  5
3A2
330
36F
100
AcDbEntity
  8
View_0_PV
 62
     7
370
    18
100
AcDbCircle
 10
742.443766296446
 20
179.2
 30
0.0
 40
2.0
100
AcDbArc
 50
0.0
 51
89.9999820139077
  0
ARC
  5
3A3
330
36F
100
AcDbEntity
  8
View_0_PV
 62
     7
370
    18
100
AcDbCircle
 10
749.443766296446
 20
166.2
 30
0.0
 40
5.0
100
AcDbArc
 50
89.9999820139077
 51
179.9999640278213
  0
ARC
  5
3A4
330
36F
100
AcDbEntity
  8
View_0_PV
  6
CENTER2
 62
     4
370
    18
100
AcDbCircle
 10
804.443766296446
 20
286.2
 30
0.0
 40
90.0
100
AcDbArc
 50
270.0000726276057
 51
89.9999820139077
  0
ARC
  5
3A5
330
36F
100
AcDbEntity
  8
View_0_PV
 62
     7
370
    18
100
AcDbCircle
 10
917.443766296446
 20
179.2
 30
0.0
 40
2.0
100
AcDbArc
 50
0.0000359721780749
 51
89.9999820139077
  0
ARC
  5
3A6
330
36F
100
AcDbEntity
  8
View_0_PV
 62
     7
370
    18
100
AcDbCircle
 10
804.443766296446
 20
286.2
 30
0.0
 40
59.0
100
AcDbArc
 50
270.0000726276057
 51
299.412287873027
  0
ARC
  5
3A7
330
36F
100
AcDbEntity
  8
View_0_PV
 62
     7
370
    18
100
AcDbCircle
 10
804.443766296446
 20
286.2
 30
0.0
 40
76.0
100
AcDbArc
 50
270.0000726276057
 51
297.2369545846457
  0
ARC
  5
3A8
330
36F
100
AcDbEntity
  8
View_0_PV
 62
     7
370
    18
100
AcDbCircle
 10
865.7305704956648
 20
254.49931640625
 30
0.0
 40
15.0
100
AcDbArc
 50
152.6496462890448
 51
198.503656829061
  0
ARC
  5
3A9
330
36F
100
AcDbEntity
  8
View_0_PV
 62
     7
370
    18
100
AcDbCircle
 10
885.2414957886335
 20
196.2
 30
0.0
 40
15.0
100
AcDbArc
 50
198.5037834149301
 51
270.0000179860923
  0
ARC
  5
3AA
330
36F
100
AcDbEntity
  8
View_0_PV
 62
     7
370
    18
100
AcDbCircle
 10
874.5416056519148
 20
228.1715576171875
 30
0.0
 40
15.0
100
AcDbArc
 50
140.381369784891
 51
198.5037114705712
  0
ARC
  5
3AB
330
36F
100
AcDbEntity
  8
View_0_PV
 62
     7
370
    18
100
AcDbCircle
 10
836.7106730347273
 20
230.9293090820313
 30
0.0
 40
10.0
100
AcDbArc
 50
18.50383623521001
 51
120.276243510093
  0
ARC
  5
3AC
330
36F
100
AcDbEntity
  8
View_0_PV
 62
     7
370
    18
100
AcDbCircle
 10
843.8035075073835
 20
209.7355224609375
 30
0.0
 40
10.0
100
AcDbArc
 50
18.50383623521001
 51
117.2369732539803
  0
ARC
  5
3AD
330
36F
100
AcDbEntity
  8
View_0_PV
 62
     7
370
    18
100
AcDbCircle
 10
850.006754577696
 20
191.2
 30
0.0
 40
10.0
100
AcDbArc
 50
269.9999087030656
 51
18.50378159369751
  0
ARC
  5
3AE
330
36F
100
AcDbEntity
  8
View_0_PV
 62
     7
370
    18
100
AcDbCircle
 10
838.329020202696
 20
226.0934936523438
 30
0.0
 40
10.0
100
AcDbArc
 50
18.50383623521001
 51
119.412306542356
  0
ARC
  5
3AF
330
36F
100
AcDbEntity
  8
View_0_PV
 62
     7
370
    18
100
AcDbCircle
 10
867.875651062071
 20
248.0896484375
 30
0.0
 40
15.0
100
AcDbArc
 50
149.0022159892278
 51
198.5037114705712
  0
ARC
  5
3B0
330
36F
100
AcDbEntity
  8
View_0_PV
 62
     7
370
    18
100
AcDbCircle
 10
866.443766296446
 20
179.2
 30
0.0
 40
2.0
100
AcDbArc
 50
89.9999820139077
 51
179.9999640278203
  0
ARC
  5
3B1
330
36F
100
AcDbEntity
  8
View_0_PV
 62
     7
370
    18
100
AcDbCircle
 10
859.443766296446
 20
166.2
 30
0.0
 40
5.0
100
AcDbArc
 50
0.0000359721780749
 51
89.9999820139077
  0
POINT
  5
3B2
330
36F
100
AcDbEntity
  8
View_0_PV
100
AcDbPoint
 10
804.443766296446
 20
376.2
 30
0.0
  0
LINE
  5
3B3
330
36F
100
AcDbEntity
  8
View_0_PV
  6
CENTER2
 62
     4
370
    18
100
AcDbLine
 10
779.1430460816023
 20
403.2
 30
0.0
 11
828.4944254761335
 21
403.2
 31
0.0
  0
LINE
  5
3B4
330
36F
100
AcDbEntity
  8
View_0_PV
 62
     7
370
    18
100
AcDbLine
 10
822.443766296446
 20
386.2
 30
0.0
 11
822.443766296446
 21
381.2
 31
0.0
  0
LINE
  5
3B5
330
36F
100
AcDbEntity
  8
View_0_PV
 62
     7
370
    18
100
AcDbLine
 10
786.443766296446
 20
386.2
 30
0.0
 11
786.443766296446
 21
381.2
 31
0.0
  0
LINE
  5
3B6
330
36F
100
AcDbEntity
  8
View_0_PV
 62
     7
370
    18
100
AcDbLine
 10
783.243815124571
 20
386.2
 30
0.0
 11
786.443766296446
 21
386.2
 31
0.0
  0
LINE
  5
3B7
330
36F
100
AcDbEntity
  8
View_0_PV
 62
     7
370
    18
100
AcDbLine
 10
783.243815124571
 20
405.2
 30
0.0
 11
786.443766296446
 21
405.2
 31
0.0
  0
LINE
  5
3B8
330
36F
100
AcDbEntity
  8
View_0_PV
 62
     7
370
    18
100
AcDbLine
 10
825.6437785034773
 20
405.2
 30
0.0
 11
825.6437785034773
 21
386.2
 31
0.0
  0
LINE
  5
3B9
330
36F
100
AcDbEntity
  8
View_0_PV
 62
     7
370
    18
100
AcDbLine
 10
783.243815124571
 20
405.2
 30
0.0
 11
783.243815124571
 21
386.2
 31
0.0
  0
LINE
  5
3BA
330
36F
100
AcDbEntity
  8
View_0_PV
 62
     7
370
    18
100
AcDbLine
 10
822.443766296446
 20
405.2
 30
0.0
 11
825.6437785034773
 21
405.2
 31
0.0
  0
LINE
  5
3BB
330
36F
100
AcDbEntity
  8
View_0_PV
 62
     7
370
    18
100
AcDbLine
 10
822.443766296446
 20
386.2
 30
0.0
 11
825.6437785034773
 21
386.2
 31
0.0
  0
CIRCLE
  5
3BC
330
36F
100
AcDbEntity
  8
View_0_PV
 62
     7
370
    18
100
AcDbCircle
 10
804.443766296446
 20
403.2
 30
0.0
 40
10.0
  0
ARC
  5
3BD
330
36F
100
AcDbEntity
  8
View_0_PV
 62
     7
370
    18
100
AcDbCircle
 10
804.443766296446
 20
381.2
 30
0.0
 40
18.0
100
AcDbArc
 50
180.0000359721788
 51
359.9999826971572
  0
ARC
  5
3BE
330
36F
100
AcDbEntity
  8
View_0_PV
 62
     7
370
    18
100
AcDbCircle
 10
804.443766296446
 20
405.2
 30
0.0
 40
18.0
100
AcDbArc
 50
0.0
 51
179.9999640278212
  0
POINT
  5
3BF
330
36F
100
AcDbEntity
  8
View_0_PV
100
AcDbPoint
 10
804.443766296446
 20
286.2
 30
0.0
  0
LINE
  5
3C0
330
36F
100
AcDbEntity
  8
View_0_PV
 62
     7
370
    18
100
AcDbLine
 10
799.443766296446
 20
300.2
 30
0.0
 11
809.443766296446
 21
300.2
 31
0.0
  0
ARC
  5
3C1
330
36F
100
AcDbEntity
  8
View_0_PV
 62
     7
370
    18
100
AcDbCircle
 10
804.443766296446
 20
286.2
 30
0.0
 40
19.0
100
AcDbArc
 50
105.2574771479387
 51
74.74246957703859
  0
CIRCLE
  5
3C2
330
36F
100
AcDbEntity
  8
View_0_PV
 62
     7
370
    18
100
AcDbCircle
 10
804.443766296446
 20
286.2
 30
0.0
 40
3.323499917984008
  0
CIRCLE
  5
3C3
330
36F
100
AcDbEntity
  8
View_0_PV
 62
     3
370
    18
100
AcDbCircle
 10
804.443766296446
 20
286.2
 30
0.0
 40
4.0
  0
CIRCLE
  5
3C4
330
36F
100
AcDbEntity
  8
View_0_PV
 62
     7
370
    18
100
AcDbCircle
 10
804.443766296446
 20
286.2
 30
0.0
 40
5.5
  0
LINE
  5
3C5
330
36F
100
AcDbEntity
  8
View_0_PV
 62
     7
370
    18
100
AcDbLine
 10
799.443766296446
 20
304.5303027798234
 30
0.0
 11
799.443766296446
 21
300.2
 31
0.0
  0
LINE
  5
3C6
330
36F
100
AcDbEntity
  8
View_0_PV
 62
     7
370
    18
100
AcDbLine
 10
809.443766296446
 20
304.5304609326563
 30
0.0
 11
809.443766296446
 21
300.2
 31
0.0
  0
ARC
  5
3C7
330
36F
100
AcDbEntity
  8
View_0_PV
 62
     7
370
    18
100
AcDbCircle
 10
804.443766296446
 20
286.2
 30
0.0
 40
45.0
100
AcDbArc
 50
89.9999820139077
 51
137.1600329925267
  0
ARC
  5
3C8
330
36F
100
AcDbEntity
  8
View_0_PV
 62
     7
370
    18
100
AcDbCircle
 10
804.443766296446
 20
286.2
 30
0.0
 40
45.0
100
AcDbArc
 50
162.8392098069048
 51
269.9999460417296
  0
ARC
  5
3C9
330
36F
100
AcDbEntity
  8
View_0_PV
 62
     7
370
    18
100
AcDbCircle
 10
804.443766296446
 20
286.2
 30
0.0
 40
54.0
100
AcDbArc
 50
89.9999820139077
 51
139.3277576883896
  0
ARC
  5
3CA
330
36F
100
AcDbEntity
  8
View_0_PV
 62
     7
370
    18
100
AcDbCircle
 10
804.443766296446
 20
286.2
 30
0.0
 40
54.0
100
AcDbArc
 50
160.6716162602363
 51
269.9999460417296
  0
ARC
  5
3CB
330
36F
100
AcDbEntity
  8
View_0_PV
 62
     7
370
    18
100
AcDbCircle
 10
804.443766296446
 20
286.2
 30
0.0
 40
45.0
100
AcDbArc
 50
270.0000726276056
 51
17.16003299252648
  0
ARC
  5
3CC
330
36F
100
AcDbEntity
  8
View_0_PV
 62
     7
370
    18
100
AcDbCircle
 10
804.443766296446
 20
286.2
 30
0.0
 40
45.0
100
AcDbArc
 50
42.83920980690493
 51
89.9999820139077
  0
ARC
  5
3CD
330
36F
100
AcDbEntity
  8
View_0_PV
 62
     7
370
    18
100
AcDbCircle
 10
804.443766296446
 20
286.2
 30
0.0
 40
54.0
100
AcDbArc
 50
270.0000726276056
 51
19.32775768838959
  0
ARC
  5
3CE
330
36F
100
AcDbEntity
  8
View_0_PV
 62
     7
370
    18
100
AcDbCircle
 10
804.443766296446
 20
286.2
 30
0.0
 40
54.0
100
AcDbArc
 50
40.67161626023616
 51
89.9999820139077
  0
ARC
  5
3CF
330
36F
100
AcDbEntity
  8
View_0_PV
 62
     7
370
    18
100
AcDbCircle
 10
804.443766296446
 20
286.2
 30
0.0
 40
76.0
100
AcDbArc
 50
42.24976484511235
 51
89.9999820139077
  0
ARC
  5
3D0
330
36F
100
AcDbEntity
  8
View_0_PV
 62
     7
370
    18
100
AcDbCircle
 10
804.443766296446
 20
286.2
 30
0.0
 40
59.0
100
AcDbArc
 50
89.9999820139077
 51
148.5428890361609
  0
ARC
  5
3D1
330
36F
100
AcDbEntity
  8
View_0_PV
 62
     7
370
    18
100
AcDbCircle
 10
804.443766296446
 20
286.2
 30
0.0
 40
59.0
100
AcDbArc
 50
151.4565476963453
 51
210.9977120664136
  0
ARC
  5
3D2
330
36F
100
AcDbEntity
  8
View_0_PV
 62
     7
370
    18
100
AcDbCircle
 10
804.443766296446
 20
286.2
 30
0.0
 40
100.0
100
AcDbArc
 50
159.2098532092938
 51
172.4682324677783
  0
ARC
  5
3D3
330
36F
100
AcDbEntity
  8
View_0_PV
 62
     7
370
    18
100
AcDbCircle
 10
804.443766296446
 20
286.2
 30
0.0
 40
102.0
100
AcDbArc
 50
159.0277429006336
 51
183.8331208315455
  0
ARC
  5
3D4
330
36F
100
AcDbEntity
  8
View_0_PV
 62
     7
370
    18
100
AcDbCircle
 10
804.443766296446
 20
286.2
 30
0.0
 40
100.0
100
AcDbArc
 50
100.3697391363644
 51
140.879958263807
  0
ARC
  5
3D5
330
36F
100
AcDbEntity
  8
View_0_PV
 62
     7
370
    18
100
AcDbCircle
 10
804.443766296446
 20
286.2
 30
0.0
 40
102.0
100
AcDbArc
 50
101.364870377681
 51
141.0602630975323
  0
ARC
  5
3D6
330
36F
100
AcDbEntity
  8
View_0_PV
 62
     7
370
    18
100
AcDbCircle
 10
804.443766296446
 20
286.2
 30
0.0
 40
100.0
100
AcDbArc
 50
144.3017602390022
 51
146.4639128942663
  0
ARC
  5
3D7
330
36F
100
AcDbEntity
  8
View_0_PV
 62
     7
370
    18
100
AcDbCircle
 10
804.443766296446
 20
286.2
 30
0.0
 40
100.0
100
AcDbArc
 50
153.5417794036147
 51
155.7042648359392
  0
ARC
  5
3D8
330
36F
100
AcDbEntity
  8
View_0_PV
 62
     7
370
    18
100
AcDbCircle
 10
804.443766296446
 20
286.2
 30
0.0
 40
100.0
100
AcDbArc
 50
33.54065629361615
 51
35.69971227523833
  0
ARC
  5
3D9
330
36F
100
AcDbEntity
  8
View_0_PV
 62
     7
370
    18
100
AcDbCircle
 10
804.443766296446
 20
286.2
 30
0.0
 40
100.0
100
AcDbArc
 50
24.29971297378655
 51
26.45880124837085
  0
ARC
  5
3DA
330
36F
100
AcDbEntity
  8
View_0_PV
 62
     7
370
    18
100
AcDbCircle
 10
804.443766296446
 20
286.2
 30
0.0
 40
102.0
100
AcDbArc
 50
39.02456913756903
 51
78.63509365014055
  0
ARC
  5
3DB
330
36F
100
AcDbEntity
  8
View_0_PV
 62
     7
370
    18
100
AcDbCircle
 10
804.443766296446
 20
286.2
 30
0.0
 40
100.0
100
AcDbArc
 50
39.20661429644566
 51
79.63022489145928
  0
ARC
  5
3DC
330
36F
100
AcDbEntity
  8
View_0_PV
 62
     7
370
    18
100
AcDbCircle
 10
804.443766296446
 20
286.2
 30
0.0
 40
102.0
100
AcDbArc
 50
356.1668807623162
 51
21.04635593612151
  0
ARC
  5
3DD
330
36F
100
AcDbEntity
  8
View_0_PV
 62
     7
370
    18
100
AcDbCircle
 10
804.443766296446
 20
286.2
 30
0.0
 40
100.0
100
AcDbArc
 50
7.531765710988866
 51
20.86576585201099
  0
ARC
  5
3DE
330
36F
100
AcDbEntity
  8
View_0_PV
 62
     7
370
    18
100
AcDbCircle
 10
804.443766296446
 20
286.2
 30
0.0
 40
76.0
100
AcDbArc
 50
320.3813886815967
 51
17.94333486971733
  0
ARC
  5
3DF
330
36F
100
AcDbEntity
  8
View_0_PV
 62
     7
370
    18
100
AcDbCircle
 10
804.443766296446
 20
286.2
 30
0.0
 40
76.0
100
AcDbArc
 50
89.9999820139077
 51
137.9621878788842
  0
ARC
  5
3E0
330
36F
100
AcDbEntity
  8
View_0_PV
 62
     7
370
    18
100
AcDbCircle
 10
804.443766296446
 20
286.2
 30
0.0
 40
76.0
100
AcDbArc
 50
162.2686328800651
 51
219.6186129122645
  0
ARC
  5
3E1
330
36F
100
AcDbEntity
  8
View_0_PV
 62
     7
370
    18
100
AcDbCircle
 10
804.443766296446
 20
286.2
 30
0.0
 40
59.0
100
AcDbArc
 50
34.86112283666792
 51
89.9999820139077
  0
ARC
  5
3E2
330
36F
100
AcDbEntity
  8
View_0_PV
 62
     7
370
    18
100
AcDbCircle
 10
804.443766296446
 20
286.2
 30
0.0
 40
59.0
100
AcDbArc
 50
329.0022895274499
 51
25.13831204495383
  0
ENDBLK
  5
371
330
36F
100
AcDbEntity
  8
0
100
AcDbBlockEnd
  0
BLOCK
  5
3E5
330
3E4
100
AcDbEntity
  8
0
100
AcDbBlockBegin
  2
レイアウト (部分図 （センサー）)
 70
     0
 10
0.0
 20
0.0
 30
0.0
  3
レイアウト (部分図 （センサー）)
  1

  0
POINT
  5
3E7
330
3E4
100
AcDbEntity
  8
View_0_PV
100
AcDbPoint
 10
551.1032240803751
 20
286.1949340820313
 30
0.0
  0
POINT
  5
3E8
330
3E4
100
AcDbEntity
  8
View_0_PV
100
AcDbPoint
 10
551.1032240803751
 20
286.1949340820313
 30
0.0
  0
LINE
  5
3E9
330
3E4
100
AcDbEntity
  8
View_0_PV
 62
     7
370
    18
100
AcDbLine
 10
502.1032240803751
 20
324.715398401521
 30
0.0
 11
502.0823211589259
 21
313.8528508107369
 31
0.0
  0
POINT
  5
3EA
330
3E4
100
AcDbEntity
  8
View_0_PV
100
AcDbPoint
 10
804.4443461304302
 20
286.2
 30
0.0
  0
POINT
  5
3EB
330
3E4
100
AcDbEntity
  8
View_0_PV
100
AcDbPoint
 10
804.4443461304304
 20
286.2
 30
0.0
  0
POINT
  5
3EC
330
3E4
100
AcDbEntity
  8
View_0_PV
100
AcDbPoint
 10
804.4443461304304
 20
286.2
 30
0.0
  0
LINE
  5
3ED
330
3E4
100
AcDbEntity
  8
View_0_PV
  6
CENTER2
 62
     4
370
    13
100
AcDbLine
 10
732.9999994624836
 20
327.4484785438426
 30
0.0
 11
720.0096184640056
 21
334.9484786448013
 31
0.0
  0
LINE
  5
3EE
330
3E4
100
AcDbEntity
  8
View_0_PV
  6
CENTER2
 62
     4
370
    13
100
AcDbLine
 10
888.8820461012025
 20
334.9499025913821
 30
0.0
 11
875.8916651027245
 21
327.4499024904233
 31
0.0
  0
POINT
  5
3EF
330
3E4
100
AcDbEntity
  8
View_0_PV
100
AcDbPoint
 10
804.4443461304304
 20
286.2
 30
0.0
  0
LINE
  5
3F0
330
3E4
100
AcDbEntity
  8
View_0_PV
 62
     7
370
    18
100
AcDbLine
 10
799.4443461304304
 20
300.1999999999999
 30
0.0
 11
809.4443461304304
 21
300.1999999999999
 31
0.0
  0
ARC
  5
3F1
330
3E4
100
AcDbEntity
  8
View_0_PV
 62
     7
370
    18
100
AcDbCircle
 10
804.4443461304304
 20
286.2
 30
0.0
 40
19.0
100
AcDbArc
 50
105.2574771479387
 51
74.74246957703896
  0
CIRCLE
  5
3F2
330
3E4
100
AcDbEntity
  8
View_0_PV
 62
     7
370
    18
100
AcDbCircle
 10
804.4443461304304
 20
286.2
 30
0.0
 40
3.323499917984008
  0
CIRCLE
  5
3F3
330
3E4
100
AcDbEntity
  8
View_0_PV
 62
     3
370
    18
100
AcDbCircle
 10
804.4443461304304
 20
286.2
 30
0.0
 40
4.0
  0
CIRCLE
  5
3F4
330
3E4
100
AcDbEntity
  8
View_0_PV
 62
     7
370
    18
100
AcDbCircle
 10
804.4443461304304
 20
286.2
 30
0.0
 40
5.5
  0
LINE
  5
3F5
330
3E4
100
AcDbEntity
  8
View_0_PV
 62
     7
370
    18
100
AcDbLine
 10
809.4443461304304
 20
304.5303027798234
 30
0.0
 11
809.4443461304304
 21
300.1999999999999
 31
0.0
  0
LINE
  5
3F6
330
3E4
100
AcDbEntity
  8
View_0_PV
 62
     7
370
    18
100
AcDbLine
 10
799.4443461304304
 20
304.5303027798234
 30
0.0
 11
799.4443461304304
 21
300.1999999999999
 31
0.0
  0
ARC
  5
3F7
330
3E4
100
AcDbEntity
  8
View_0_PV
 62
     7
370
    18
100
AcDbCircle
 10
804.4443461304304
 20
286.2
 30
0.0
 40
100.0
100
AcDbArc
 50
144.3018534904885
 51
146.4641996927555
  0
ARC
  5
3F8
330
3E4
100
AcDbEntity
  8
View_0_PV
 62
     7
370
    18
100
AcDbCircle
 10
804.4443461304304
 20
286.2
 30
0.0
 40
100.0
100
AcDbArc
 50
153.5418166682169
 51
155.7045142817508
  0
ARC
  5
3F9
330
3E4
100
AcDbEntity
  8
View_0_PV
 62
     7
370
    18
100
AcDbCircle
 10
804.4443461304304
 20
286.2
 30
0.0
 40
100.0
100
AcDbArc
 50
33.53585075770732
 51
35.69816368187602
  0
ARC
  5
3FA
330
3E4
100
AcDbEntity
  8
View_0_PV
 62
     7
370
    18
100
AcDbCircle
 10
804.4443461304304
 20
286.2
 30
0.0
 40
100.0
100
AcDbArc
 50
24.29552974305473
 51
26.45819087580059
  0
ARC
  5
3FB
330
3E4
100
AcDbEntity
  8
View_0_PV
 62
     7
370
    18
100
AcDbCircle
 10
804.4443461304304
 20
286.2
 30
0.0
 40
76.0
100
AcDbArc
 50
36.38292888851418
 51
38.18958618539386
  0
ARC
  5
3FC
330
3E4
100
AcDbEntity
  8
View_0_PV
 62
     7
370
    18
100
AcDbCircle
 10
804.4443461304304
 20
286.2
 30
0.0
 40
76.0
100
AcDbArc
 50
21.9271044662686
 51
23.83789556948587
  0
LINE
  5
3FD
330
3E4
100
AcDbEntity
  8
新しいレイヤ 2
370
    18
100
AcDbLine
 10
518.1032545979532
 20
313.8523864912472
 30
0.0
 11
518.2032240803755
 21
313.8523864912472
 31
0.0
  0
LINE
  5
3FE
330
3E4
100
AcDbEntity
  8
新しいレイヤ 2
370
    18
100
AcDbLine
 10
502.0823211589259
 20
313.8528508107369
 30
0.0
 11
507.9832545979532
 21
313.8528508107369
 31
0.0
  0
LINE
  5
3FF
330
3E4
100
AcDbEntity
  8
新しいレイヤ 2
370
    18
100
AcDbLine
 10
508.1032545979532
 20
313.8517364439616
 30
0.0
 11
508.0781494543511
 21
327.8358843894552
 31
0.0
  0
LINE
  5
400
330
3E4
100
AcDbEntity
  8
新しいレイヤ 2
370
    18
100
AcDbLine
 10
414.1032240803751
 20
313.8523864912472
 30
0.0
 11
420.1032240803751
 21
313.8523864912472
 31
0.0
  0
LINE
  5
401
330
3E4
100
AcDbEntity
  8
新しいレイヤ 2
370
    18
100
AcDbLine
 10
420.1032240803751
 20
313.8523864912472
 30
0.0
 11
420.1032240803751
 21
324.7149340820313
 31
0.0
  0
LINE
  5
402
330
3E4
100
AcDbEntity
  8
新しいレイヤ 2
370
    18
100
AcDbLine
 10
414.1032240803751
 20
327.8322938806529
 30
0.0
 11
414.1032240803751
 21
313.7811414782645
 31
0.0
  0
LWPOLYLINE
  5
403
330
3E4
100
AcDbEntity
  8
新しいレイヤ 2
  6
Continuous
370
    18
100
AcDbPolyline
 90
        5
 70
     1
 43
0.0
 10
515.8032545979534
 20
294.5485092420415
 10
518.1032545979532
 20
294.5485092420415
 10
518.1032545979532
 20
323.3903703863537
 10
515.8032545979534
 20
323.3903703863537
 10
515.8032545979534
 20
294.5485092420415
  0
LINE
  5
404
330
3E4
100
AcDbEntity
  8
新しいレイヤ 2
  6
Continuous
370
    18
100
AcDbLine
 10
422.1032240803751
 20
326.7149340820313
 30
0.0
 11
500.146317726847
 21
326.7149340820313
 31
0.0
  0
LWPOLYLINE
  5
405
330
3E4
100
AcDbEntity
  8
新しいレイヤ 1
100
AcDbPolyline
 90
        6
 70
     0
 43
0.0
 10
859.9261803346093
 20
322.100635657408
 10
859.1011530292269
 20
323.5296248679617
 10
850.4408989913825
 20
318.5296248679617
 10
849.3158989913825
 20
320.4781820264766
 10
845.7758354819214
 20
321.6097518868839
 10
828.4908514760095
 20
311.6302617181323
  0
LWPOLYLINE
  5
406
330
3E4
100
AcDbEntity
  8
新しいレイヤ 1
100
AcDbPolyline
 90
        6
 70
     0
 43
0.0
 10
838.4908514760093
 20
294.3097536424439
 10
855.7758354819214
 20
304.2892438111952
 10
856.5658989913823
 20
307.9208136716028
 10
855.4408989913823
 20
309.8693708301178
 10
864.1011530292268
 20
314.8693708301178
 10
863.1261755346092
 20
316.5580813870317
  0
CIRCLE
  5
407
330
3E4
100
AcDbEntity
  8
新しいレイヤ 2
100
AcDbCircle
 10
722.7078596611691
 20
342.6219694894482
 30
0.0
 40
2.0
  0
CIRCLE
  5
408
330
3E4
100
AcDbEntity
  8
新しいレイヤ 2
100
AcDbCircle
 10
714.7078596611691
 20
328.7655630288973
 30
0.0
 40
2.0
  0
CIRCLE
  5
409
330
3E4
100
AcDbEntity
  8
新しいレイヤ 2
100
AcDbCircle
 10
886.1704583172158
 20
342.621971098575
 30
0.0
 40
2.0
  0
CIRCLE
  5
40A
330
3E4
100
AcDbEntity
  8
新しいレイヤ 2
100
AcDbCircle
 10
894.1704585900036
 20
328.7655647955181
 30
0.0
 40
2.0
  0
ARC
  5
40B
330
3E4
100
AcDbEntity
  8
新しいレイヤ 1
  6
ACAD_ISO02W100
370
    13
100
AcDbCircle
 10
726.502088295229
 20
331.1937662591729
 30
0.0
 40
5.5
100
AcDbArc
 50
326.9299602273584
 51
330.0566846613756
  0
ARC
  5
40C
330
3E4
100
AcDbEntity
  8
新しいレイヤ 1
  6
ACAD_ISO02W100
370
    13
100
AcDbCircle
 10
726.502088295229
 20
331.1937662591729
 30
0.0
 40
5.5
100
AcDbArc
 50
351.9450022467707
 51
0.0652948580663447
  0
ARC
  5
40D
330
3E4
100
AcDbEntity
  8
新しいレイヤ 1
  6
ACAD_ISO02W100
370
    13
100
AcDbCircle
 10
882.3762299081402
 20
331.1937677936035
 30
0.0
 40
5.5
100
AcDbArc
 50
176.6246150578047
 51
184.9852322164912
  0
ARC
  5
40E
330
3E4
100
AcDbEntity
  8
新しいレイヤ 1
  6
ACAD_ISO02W100
370
    13
100
AcDbCircle
 10
882.3762299081402
 20
331.1937677936035
 30
0.0
 40
5.5
100
AcDbArc
 50
207.1268591426503
 51
210.2533195382707
  0
LINE
  5
40F
330
3E4
100
AcDbEntity
  8
新しいレイヤ 2
370
    18
100
AcDbLine
 10
416.1032240803751
 20
329.8322938806529
 30
0.0
 11
506.0781526772921
 21
329.8322938806529
 31
0.0
  0
LINE
  5
410
330
3E4
100
AcDbEntity
  8
新しいレイヤ 2
370
    18
100
AcDbLine
 10
508.09
 20
313.85
 30
0.0
 11
508.0909831453966
 21
355.5451068017549
 31
0.0
  0
LINE
  5
411
330
3E4
100
AcDbEntity
  8
新しいレイヤ 2
370
    18
100
AcDbLine
 10
506.1032240803717
 20
357.5451068017549
 30
0.0
 11
416.1032240803751
 21
357.5451068017549
 31
0.0
  0
LINE
  5
412
330
3E4
100
AcDbEntity
  8
新しいレイヤ 2
370
    18
100
AcDbLine
 10
414.1032240803751
 20
355.5451068017549
 30
0.0
 11
414.1032240803751
 21
327.8322938806529
 31
0.0
  0
ARC
  5
413
330
3E4
100
AcDbEntity
  8
新しいレイヤ 2
370
    18
100
AcDbCircle
 10
506.1032240803717
 20
355.5451068017549
 30
0.0
 40
2.0
100
AcDbArc
 50
0.0
 51
90.0
  0
ARC
  5
414
330
3E4
100
AcDbEntity
  8
新しいレイヤ 2
370
    18
100
AcDbCircle
 10
506.0781526772921
 20
327.8322938806529
 30
0.0
 40
2.0
100
AcDbArc
 50
359.5698588415644
 51
90.0
  0
ARC
  5
415
330
3E4
100
AcDbEntity
  8
新しいレイヤ 2
370
    18
100
AcDbCircle
 10
416.1032240803751
 20
355.5451068017549
 30
0.0
 40
2.0
100
AcDbArc
 50
90.0
 51
180.0
  0
ARC
  5
416
330
3E4
100
AcDbEntity
  8
新しいレイヤ 2
370
    18
100
AcDbCircle
 10
422.1032240803751
 20
324.7149340820313
 30
0.0
 40
2.0
100
AcDbArc
 50
90.0
 51
180.0
  0
ARC
  5
417
330
3E4
100
AcDbEntity
  8
新しいレイヤ 2
370
    18
100
AcDbCircle
 10
500.1032240803751
 20
324.715398401521
 30
0.0
 40
2.0
100
AcDbArc
 50
0.0
 51
90.0
  0
ARC
  5
418
330
3E4
100
AcDbEntity
  8
新しいレイヤ 2
370
    18
100
AcDbCircle
 10
416.1032240803751
 20
327.8322938806529
 30
0.0
 40
2.0
100
AcDbArc
 50
90.0
 51
180.0
  0
LWPOLYLINE
  5
419
330
3E4
100
AcDbEntity
  8
新しいレイヤ 2
100
AcDbPolyline
 90
        2
 70
     0
 43
0.0
 10
508.1032240803751
 20
310.9549340820301
 10
508.1032545979532
 20
310.9549340820301
  0
LWPOLYLINE
  5
41A
330
3E4
100
AcDbEntity
  8
新しいレイヤ 1
100
AcDbPolyline
 90
        3
 70
     0
 43
0.0
 10
740.6171789971386
 20
341.3526991802878
 10
740.56426612172
 20
341.5501727197238
 10
712.8514532006179
 20
357.5501727197236
  0
LWPOLYLINE
  5
41B
330
3E4
100
AcDbEntity
  8
新しいレイヤ 1
100
AcDbPolyline
 90
        3
 70
     0
 43
0.0
 10
712.8514532006179
 20
357.5501727197236
 10
696.8514532006179
 20
329.8373597986215
 10
719.7417794278226
 20
316.6216237895069
  0
LWPOLYLINE
  5
41C
330
3E4
100
AcDbEntity
  8
新しいレイヤ 1
100
AcDbPolyline
 90
        2
 70
     0
 43
0.0
 10
873.1451918681687
 20
344.3394340780806
 10
896.0268644838787
 20
357.5501745228912
  0
LWPOLYLINE
  5
41D
330
3E4
100
AcDbEntity
  8
新しいレイヤ 1
100
AcDbPolyline
 90
        4
 70
     0
 43
0.0
 10
896.0268644838787
 20
357.5501745228912
 10
912.0268650294545
 20
329.8373619167774
 10
884.3140524233407
 20
313.837361371202
 10
884.142364490134
 20
313.8833650106321
  0
LWPOLYLINE
  5
41E
330
3E4
100
AcDbEntity
  8
新しいレイヤ 1
100
AcDbPolyline
 90
        2
 70
     0
 43
0.0
 10
872.053138738991
 20
329.0738860587919
 10
868.9031411315809
 20
334.5298417104934
  0
LWPOLYLINE
  5
41F
330
3E4
100
AcDbEntity
  8
新しいレイヤ 1
100
AcDbPolyline
 90
        2
 70
     0
 43
0.0
 10
878.4031337555163
 20
318.0753725624045
 10
875.2531340481061
 20
323.5313318514129
  0
CIRCLE
  5
420
330
3E4
100
AcDbEntity
  8
新しいレイヤ 1
370
    18
100
AcDbCircle
 10
732.4238431399533
 20
316.0812420081755
 30
0.0
 40
1.5
  0
CIRCLE
  5
421
330
3E4
100
AcDbEntity
  8
新しいレイヤ 1
370
    18
100
AcDbCircle
 10
742.4238431399533
 20
333.4017500838643
 30
0.0
 40
1.5
  0
ARC
  5
422
330
3E4
100
AcDbEntity
  8
新しいレイヤ 1
100
AcDbCircle
 10
725.8139352180082
 20
340.6617516540144
 30
0.0
 40
2.5
100
AcDbArc
 50
240.0000000000001
 51
60.00000000000011
  0
LWPOLYLINE
  5
423
330
3E4
100
AcDbEntity
  8
新しいレイヤ 1
100
AcDbPolyline
 90
        2
 70
     0
 43
0.0
 10
727.0639352180082
 20
342.8268151634755
 10
719.2697065839482
 20
347.3268151634755
  0
ARC
  5
424
330
3E4
100
AcDbEntity
  8
新しいレイヤ 1
100
AcDbCircle
 10
718.0197065839482
 20
345.1617516540144
 30
0.0
 40
2.5
100
AcDbArc
 50
60.00000000000011
 51
240.0000000000001
  0
LWPOLYLINE
  5
425
330
3E4
100
AcDbEntity
  8
新しいレイヤ 1
100
AcDbPolyline
 90
        2
 70
     0
 43
0.0
 10
716.7697065839482
 20
342.9966881445533
 10
724.5639352180082
 20
338.4966881445533
  0
LWPOLYLINE
  5
426
330
3E4
100
AcDbEntity
  8
新しいレイヤ 1
100
AcDbPolyline
 90
        2
 70
     0
 43
0.0
 10
711.2697065839482
 20
333.4704087029245
 10
719.0639352180082
 20
328.9704087029245
  0
ARC
  5
427
330
3E4
100
AcDbEntity
  8
新しいレイヤ 1
100
AcDbCircle
 10
710.0197065839482
 20
331.3053451934634
 30
0.0
 40
2.5
100
AcDbArc
 50
60.00000000000011
 51
240.0000000000001
  0
LWPOLYLINE
  5
428
330
3E4
100
AcDbEntity
  8
新しいレイヤ 1
100
AcDbPolyline
 90
        2
 70
     0
 43
0.0
 10
716.5639352180082
 20
324.6402816840023
 10
708.7697065839482
 20
329.1402816840023
  0
ARC
  5
429
330
3E4
100
AcDbEntity
  8
新しいレイヤ 1
100
AcDbCircle
 10
717.8139352180082
 20
326.8053451934634
 30
0.0
 40
2.5
100
AcDbArc
 50
240.0000000000001
 51
60.00000000000011
  0
LINE
  5
42A
330
3E4
100
AcDbEntity
  8
0
  6
Center
 62
     2
100
AcDbLine
 10
753.0620760135823
 20
315.6924259237389
 30
0.0
 11
725.7236961040096
 21
331.4762469237389
 31
0.0
  0
LINE
  5
42B
330
3E4
100
AcDbEntity
  8
0
  6
Continuous
 62
     7
370
    18
100
AcDbLine
 10
752.7721801479704
 20
319.5548275555951
 30
0.0
 11
749.5721849479703
 21
314.0122732852185
 31
0.0
  0
LINE
  5
42C
330
3E4
100
AcDbEntity
  8
0
  6
Continuous
 62
     7
370
    18
100
AcDbLine
 10
751.8953905947526
 20
317.6361815018764
 30
0.0
 11
750.7953920947526
 21
315.7309282116269
 31
0.0
  0
LINE
  5
42D
330
3E4
100
AcDbEntity
  8
0
  6
Continuous
 62
     7
370
    18
100
AcDbLine
 10
746.0870559436312
 20
333.5758447787712
 30
0.0
 11
741.6870584436311
 21
325.9548255555951
 31
0.0
  0
LINE
  5
42E
330
3E4
100
AcDbEntity
  8
0
  6
Continuous
 62
     7
370
    18
100
AcDbLine
 10
740.7177010382438
 20
336.6758432787711
 30
0.0
 11
736.3177035382439
 21
329.0548240555952
 31
0.0
  0
LINE
  5
42F
330
3E4
100
AcDbEntity
  8
0
  6
Continuous
 62
     7
370
    18
100
AcDbLine
 10
752.7721801479704
 20
319.5548275555951
 30
0.0
 11
750.3473124814756
 21
320.9548255555951
 31
0.0
  0
LINE
  5
430
330
3E4
100
AcDbEntity
  8
0
  6
Continuous
 62
     7
370
    18
100
AcDbLine
 10
749.5721849479703
 20
314.0122732852185
 30
0.0
 11
747.1473172814756
 21
315.4122712852186
 31
0.0
  0
LINE
  5
431
330
3E4
100
AcDbEntity
  8
0
  6
Continuous
 62
     7
370
    18
100
AcDbLine
 10
751.8953905947526
 20
317.6361815018764
 30
0.0
 11
751.7221846479704
 21
317.7361820018764
 31
0.0
  0
LINE
  5
432
330
3E4
100
AcDbEntity
  8
0
  6
Continuous
 62
     7
370
    18
100
AcDbLine
 10
750.7953920947526
 20
315.7309282116269
 30
0.0
 11
750.6221861479703
 21
315.8309287116269
 31
0.0
  0
LINE
  5
433
330
3E4
100
AcDbEntity
  8
0
  6
Center
 62
     2
370
    18
100
AcDbLine
 10
745.7257045290387
 20
330.89771976931
 30
0.0
 11
738.5109586073876
 21
335.0631552693101
 31
0.0
  0
LINE
  5
434
330
3E4
100
AcDbEntity
  8
0
  6
Center
 62
     2
370
    18
100
AcDbLine
 10
736.4242866579739
 20
314.3286034341969
 30
0.0
 11
729.0771574950243
 21
318.570470434197
 31
0.0
  0
LINE
  5
435
330
3E4
100
AcDbEntity
  8
0
  6
Continuous
 62
     7
370
    18
100
AcDbLine
 10
745.7210305398468
 20
334.9418701825557
 30
0.0
 11
742.0837264420284
 21
337.0418686825556
 31
0.0
  0
LINE
  5
436
330
3E4
100
AcDbEntity
  8
0
  6
Continuous
 62
     7
370
    18
100
AcDbLine
 10
732.7210382398467
 20
312.4252230209514
 30
0.0
 11
729.0837341420283
 21
314.5252215209514
 31
0.0
  0
LINE
  5
437
330
3E4
100
AcDbEntity
  8
0
  6
Continuous
 62
     7
370
    18
100
AcDbLine
 10
738.4870632436312
 20
320.4122712852186
 30
0.0
 11
734.0870636286311
 21
312.791248398755
 31
0.0
  0
LINE
  5
438
330
3E4
100
AcDbEntity
  8
0
  6
Continuous
 62
     7
370
    18
100
AcDbLine
 10
733.1177083382438
 20
323.5122697852185
 30
0.0
 11
728.7177087232438
 21
315.8912468987551
 31
0.0
  0
LINE
  5
439
330
3E4
100
AcDbEntity
  8
0
  6
Continuous
 62
     7
370
    18
100
AcDbLine
 10
736.3177035382439
 20
329.0548240555952
 30
0.0
 11
733.5464248442099
 21
330.654822555595
 31
0.0
  0
LINE
  5
43A
330
3E4
100
AcDbEntity
  8
0
  6
Continuous
 62
     7
370
    18
100
AcDbLine
 10
733.1177083382438
 20
323.5122697852185
 30
0.0
 11
730.3464296442098
 21
325.1122682852186
 31
0.0
  0
LINE
  5
43B
330
3E4
100
AcDbEntity
  8
0
  6
Continuous
 62
     7
370
    18
100
AcDbLine
 10
734.1380239879545
 20
315.879514330275
 30
0.0
 11
733.5880285879546
 21
314.926894353546
 31
0.0
  0
LINE
  5
43C
330
3E4
100
AcDbEntity
  8
0
  6
Continuous
 62
     7
370
    18
100
AcDbLine
 10
731.3667452939205
 20
317.4795128302751
 30
0.0
 11
730.8167498939206
 21
316.5268928535459
 31
0.0
  0
LINE
  5
43D
330
3E4
100
AcDbEntity
  8
0
  6
Continuous
 62
     7
370
    18
100
AcDbLine
 10
743.4380193379545
 20
331.9875787866295
 30
0.0
 11
743.9880223379545
 21
332.9402119269448
 31
0.0
  0
LINE
  5
43E
330
3E4
100
AcDbEntity
  8
0
  6
Continuous
 62
     7
370
    18
100
AcDbLine
 10
740.6667406439205
 20
333.5875772866293
 30
0.0
 11
741.2167436439204
 21
334.5402104269447
 31
0.0
  0
LINE
  5
43F
330
3E4
100
AcDbEntity
  8
0
  6
Continuous
 62
     7
370
    18
100
AcDbLine
 10
733.0464303442099
 20
329.7888066780902
 30
0.0
 11
730.0153414309643
 21
331.5388066780902
 31
0.0
  0
LINE
  5
440
330
3E4
100
AcDbEntity
  8
0
  6
Continuous
 62
     7
370
    18
100
AcDbLine
 10
732.9634106423176
 20
330.6450123363835
 30
0.0
 11
730.1055242117529
 21
332.2950138363836
 31
0.0
  0
LINE
  5
441
330
3E4
100
AcDbEntity
  8
0
  6
Continuous
 62
     7
370
    18
100
AcDbLine
 10
733.5464248442099
 20
330.654822555595
 30
0.0
 11
730.3464296442098
 21
325.1122682852186
 31
0.0
  0
LINE
  5
442
330
3E4
100
AcDbEntity
  8
0
  6
Continuous
 62
     7
370
    18
100
AcDbLine
 10
730.1055242117529
 20
332.2950138363836
 30
0.0
 11
729.9055307117528
 21
331.9486149332
 31
0.0
  0
LINE
  5
443
330
3E4
100
AcDbEntity
  8
0
  6
Continuous
 62
     7
370
    18
100
AcDbLine
 10
733.5464482890736
 20
330.6547951632901
 30
0.0
 11
732.9634306230798
 21
330.6449869440787
 31
0.0
  0
LINE
  5
444
330
3E4
100
AcDbEntity
  8
0
  6
Continuous
 62
     7
370
    18
100
AcDbLine
 10
730.0153638854471
 20
331.538807570395
 30
0.0
 11
729.9055589604641
 21
331.9486078614032
 31
0.0
  0
LINE
  5
445
330
3E4
100
AcDbEntity
  8
0
  6
Continuous
 62
     7
370
    18
100
AcDbLine
 10
726.6520897952291
 20
331.1134459663574
 30
0.0
 11
726.502088295229
 21
330.8536357471457
 31
0.0
  0
LINE
  5
446
330
3E4
100
AcDbEntity
  8
0
  6
Continuous
 62
     7
370
    18
100
AcDbLine
 10
732.0214308442098
 20
328.0134554663574
 30
0.0
 11
726.6520897952291
 21
331.1134459663574
 31
0.0
  0
LINE
  5
447
330
3E4
100
AcDbEntity
  8
0
  6
Continuous
 62
     7
370
    18
100
AcDbLine
 10
731.8714293442099
 20
327.7536452471459
 30
0.0
 11
726.502088295229
 21
330.8536357471457
 31
0.0
  0
LINE
  5
448
330
3E4
100
AcDbEntity
  8
0
  6
Continuous
 62
     7
370
    18
100
AcDbLine
 10
732.1516825344595
 20
323.8390640116413
 30
0.0
 11
731.0258469114635
 21
324.4890655116413
 31
0.0
  0
LINE
  5
449
330
3E4
100
AcDbEntity
  8
0
  6
Continuous
 62
     7
370
    18
100
AcDbLine
 10
734.8588537133556
 20
330.1280280382757
 30
0.0
 11
733.9928283095712
 21
330.6280280382757
 31
0.0
  0
LINE
  5
44A
330
3E4
100
AcDbEntity
  8
0
  6
Continuous
 62
     7
370
    18
100
AcDbLine
 10
732.2516829344595
 20
324.0122697852185
 30
0.0
 11
732.1516825344595
 21
323.8390640116413
 31
0.0
  0
LINE
  5
44B
330
3E4
100
AcDbEntity
  8
0
  6
Continuous
 62
     7
370
    18
100
AcDbLine
 10
731.1258473114635
 20
324.6622712852186
 30
0.0
 11
731.0258469114635
 21
324.4890655116413
 31
0.0
  0
LINE
  5
44C
330
3E4
100
AcDbEntity
  8
0
  6
Continuous
 62
     7
370
    18
100
AcDbLine
 10
750.3473188116026
 20
320.9548265196968
 30
0.0
 11
750.3107150032749
 21
321.0914228639228
 31
0.0
  0
LINE
  5
44D
330
3E4
100
AcDbEntity
  8
0
  6
Continuous
 62
     7
370
    18
100
AcDbLine
 10
750.3107164051987
 20
321.0914312921259
 30
0.0
 11
750.1741160968711
 21
321.054828617773
 31
0.0
  0
LINE
  5
44E
330
3E4
100
AcDbEntity
  8
0
  6
Continuous
 62
     7
370
    18
100
AcDbLine
 10
750.1741099987948
 20
321.0548240555952
 30
0.0
 11
736.3177035382439
 21
329.0548240555952
 31
0.0
  0
LINE
  5
44F
330
3E4
100
AcDbEntity
  8
0
  6
Continuous
 62
     7
370
    18
100
AcDbLine
 10
747.0107331975036
 20
315.3756687122739
 30
0.0
 11
746.974131589176
 21
315.5122688670117
 31
0.0
  0
LINE
  5
450
330
3E4
100
AcDbEntity
  8
0
  6
Continuous
 62
     7
370
    18
100
AcDbLine
 10
747.1473358039075
 20
315.4122693670116
 30
0.0
 11
747.0107349295544
 21
315.3756677122738
 31
0.0
  0
LINE
  5
451
330
3E4
100
AcDbEntity
  8
0
  6
Continuous
 62
     7
370
    18
100
AcDbLine
 10
746.9741147987949
 20
315.5122697852185
 30
0.0
 11
733.1177083382438
 21
323.5122697852185
 31
0.0
  0
LINE
  5
452
330
3E4
100
AcDbEntity
  8
0
  6
Continuous
 62
     7
370
    18
100
AcDbLine
 10
733.9928283095712
 20
330.6280280382757
 30
0.0
 11
733.8928298095713
 21
330.4548255555951
 31
0.0
  0
LINE
  5
453
330
3E4
100
AcDbEntity
  8
0
  6
Continuous
 62
     7
370
    18
100
AcDbLine
 10
734.8588537133556
 20
330.1280280382757
 30
0.0
 11
734.7588552133557
 21
329.9548255555951
 31
0.0
  0
LINE
  5
454
330
3E4
100
AcDbEntity
  8
0
  6
Center
 62
     2
370
    18
100
AcDbLine
 10
746.1378843353257
 20
313.8638641356531
 30
0.0
 11
750.8992462353258
 21
322.1107848596758
 31
0.0
  0
ARC
  5
455
330
3E4
100
AcDbEntity
  8
0
  6
Continuous
 62
     7
370
    18
100
AcDbCircle
 10
733.2210382248468
 20
313.291248398755
 30
0.0
 40
1.0
100
AcDbArc
 50
240.0000399999997
 51
330.0000180000011
  0
ARC
  5
456
330
3E4
100
AcDbEntity
  8
0
  6
Continuous
 62
     7
370
    18
100
AcDbCircle
 10
729.5837341270284
 20
315.3912468987551
 30
0.0
 40
1.0
100
AcDbArc
 50
149.9999700000014
 51
240.000020000004
  0
ARC
  5
457
330
3E4
100
AcDbEntity
  8
0
  6
Continuous
 62
     7
370
    18
100
AcDbCircle
 10
745.2210305398468
 20
334.0758447787712
 30
0.0
 40
1.0
100
AcDbArc
 50
330.0000180000011
 51
59.99999999999946
  0
ARC
  5
458
330
3E4
100
AcDbEntity
  8
0
  6
Continuous
 62
     7
370
    18
100
AcDbCircle
 10
741.5837264420284
 20
336.1758432787711
 30
0.0
 40
1.0
100
AcDbArc
 50
59.99999999999946
 51
149.9999800000017
  0
ARC
  5
459
330
3E4
100
AcDbEntity
  8
0
  6
Continuous
 62
     7
370
    18
100
AcDbCircle
 10
732.752391136128
 20
316.6795098302752
 30
0.0
 40
1.600000399999999
100
AcDbArc
 50
330.0000180000022
 51
149.9999799999994
  0
ARC
  5
45A
330
3E4
100
AcDbEntity
  8
0
  6
Continuous
 62
     7
370
    18
100
AcDbCircle
 10
732.202395736128
 20
315.7268898535459
 30
0.0
 40
1.600000399999999
100
AcDbArc
 50
149.9999999999978
 51
330.0000180000022
  0
ARC
  5
45B
330
3E4
100
AcDbEntity
  8
0
  6
Continuous
 62
     7
370
    18
100
AcDbCircle
 10
742.602389486128
 20
333.7402074269446
 30
0.0
 40
1.600000399999999
100
AcDbArc
 50
330.0000180000022
 51
150.0000399999995
  0
ARC
  5
45C
330
3E4
100
AcDbEntity
  8
0
  6
Continuous
 62
     7
370
    18
100
AcDbCircle
 10
742.0523864861281
 20
332.7875742866293
 30
0.0
 40
1.600000399999999
100
AcDbArc
 50
150.00005
 51
330.0000180000022
  0
LWPOLYLINE
  5
45D
330
3E4
100
AcDbEntity
  8
新しいレイヤ 1
100
AcDbPolyline
 90
        5
 70
     0
 43
0.0
 10
743.7655324069424
 20
324.7548300622593
 10
748.6655322069424
 20
333.2418786729367
 10
748.4334813993735
 20
336.8399548842899
 10
717.2565668631337
 20
354.8399548842899
 10
714.5245160555648
 20
354.1079040767211
  0
LWPOLYLINE
  5
45E
330
3E4
100
AcDbEntity
  8
新しいレイヤ 1
100
AcDbPolyline
 90
        6
 70
     0
 43
0.0
 10
714.5245160555648
 20
354.1079040767211
 10
700.5245160555648
 20
329.8591927707569
 10
701.2565668631337
 20
327.1271419631879
 10
732.4334813993735
 20
309.1271419631879
 10
735.1655322069424
 20
309.8591927707569
 10
740.5655372069425
 20
319.2122757918828
  0
LINE
  5
45F
330
3E4
100
AcDbEntity
  8
0
  6
Continuous
 62
     7
370
    18
100
AcDbLine
 10
864.8536631727455
 20
331.9609378773082
 30
0.0
 11
864.3036601727456
 21
332.9135710176236
 31
0.0
  0
LINE
  5
460
330
3E4
100
AcDbEntity
  8
0
  6
Continuous
 62
     7
370
    18
100
AcDbLine
 10
876.4202531664902
 20
327.7270043378247
 30
0.0
 11
881.7895942154711
 21
330.8269948378247
 31
0.0
  0
LWPOLYLINE
  5
461
330
3E4
100
AcDbEntity
  8
新しいレイヤ 1
100
AcDbPolyline
 90
        6
 70
     0
 43
0.0
 10
893.7671664551351
 20
354.0812631673999
 10
907.7671664551351
 20
329.8325518614356
 10
907.0351156475663
 20
327.1005010538668
 10
875.8582011113265
 20
309.1005010538668
 10
873.1261503037576
 20
309.8325518614356
 10
867.7261453037577
 20
319.1856348825615
  0
LINE
  5
462
330
3E4
100
AcDbEntity
  8
0
  6
Continuous
 62
     7
370
    18
100
AcDbLine
 10
861.2809493131965
 20
315.3490278029527
 30
0.0
 11
861.3175509215241
 21
315.4856279576906
 31
0.0
  0
LINE
  5
463
330
3E4
100
AcDbEntity
  8
0
  6
Continuous
 62
     7
370
    18
100
AcDbLine
 10
867.5739814724562
 20
336.64920236945
 30
0.0
 11
871.9739789724562
 21
329.028183146274
 31
0.0
  0
LINE
  5
464
330
3E4
100
AcDbEntity
  8
0
  6
Center
 62
     2
370
    18
100
AcDbLine
 10
871.8673958527261
 20
314.3019625248758
 30
0.0
 11
879.2145250156759
 21
318.5438295248757
 31
0.0
  0
LINE
  5
465
330
3E4
100
AcDbEntity
  8
0
  6
Continuous
 62
     7
370
    18
100
AcDbLine
 10
876.9249372167795
 20
317.452871920954
 30
0.0
 11
877.4749326167796
 21
316.5002519442247
 31
0.0
  0
LINE
  5
466
330
3E4
100
AcDbEntity
  8
0
  6
Continuous
 62
     7
370
    18
100
AcDbLine
 10
876.2702516664901
 20
327.9868145570363
 30
0.0
 11
881.639592715471
 21
331.0868050570361
 31
0.0
  0
LWPOLYLINE
  5
467
330
3E4
100
AcDbEntity
  8
新しいレイヤ 1
100
AcDbPolyline
 90
        5
 70
     0
 43
0.0
 10
864.5261501037577
 20
324.7281891529381
 10
859.6261503037576
 20
333.2152377636155
 10
859.8582011113265
 20
336.8133139749689
 10
891.0351156475663
 20
354.8133139749689
 10
893.7671664551351
 20
354.0812631673999
  0
CIRCLE
  5
468
330
3E4
100
AcDbEntity
  8
新しいレイヤ 1
370
    18
100
AcDbCircle
 10
865.8678393707468
 20
333.3751091745431
 30
0.0
 40
1.5
  0
LINE
  5
469
330
3E4
100
AcDbEntity
  8
0
  6
Continuous
 62
     7
370
    18
100
AcDbLine
 10
858.1175725119051
 20
321.028183146274
 30
0.0
 11
871.9739789724562
 21
329.028183146274
 31
0.0
  0
LINE
  5
46A
330
3E4
100
AcDbEntity
  8
0
  6
Continuous
 62
     7
370
    18
100
AcDbLine
 10
862.2046265670689
 20
333.54920386945
 30
0.0
 11
866.6046240670688
 21
325.9281846462738
 31
0.0
  0
LINE
  5
46B
330
3E4
100
AcDbEntity
  8
0
  6
Center
 62
     2
370
    18
100
AcDbLine
 10
862.5659779816615
 20
330.871078859989
 30
0.0
 11
869.7807239033125
 21
335.0365143599889
 31
0.0
  0
LINE
  5
46C
330
3E4
100
AcDbEntity
  8
0
  6
Continuous
 62
     7
370
    18
100
AcDbLine
 10
874.1536585227456
 20
315.852873420954
 30
0.0
 11
874.7036539227456
 21
314.9002534442247
 31
0.0
  0
LINE
  5
46D
330
3E4
100
AcDbEntity
  8
0
  6
Continuous
 62
     7
370
    18
100
AcDbLine
 10
881.639592715471
 20
331.0868050570361
 30
0.0
 11
881.7895942154711
 21
330.8269948378247
 31
0.0
  0
ARC
  5
46E
330
3E4
100
AcDbEntity
  8
0
  6
Continuous
 62
     7
370
    18
100
AcDbCircle
 10
878.7079483836717
 20
315.3646059894339
 30
0.0
 40
1.0
100
AcDbArc
 50
299.9999800000016
 51
30.00002999999858
  0
ARC
  5
46F
330
3E4
100
AcDbEntity
  8
0
  6
Continuous
 62
     7
370
    18
100
AcDbCircle
 10
866.239296024572
 20
332.7609333773082
 30
0.0
 40
1.600000399999999
100
AcDbArc
 50
209.999982
 51
29.99994999999792
  0
CIRCLE
  5
470
330
3E4
100
AcDbEntity
  8
新しいレイヤ 1
370
    18
100
AcDbCircle
 10
875.8678393707468
 20
316.0546010988544
 30
0.0
 40
1.5
  0
LINE
  5
471
330
3E4
100
AcDbEntity
  8
0
  6
Continuous
 62
     7
370
    18
100
AcDbLine
 10
857.9809661055014
 20
321.0647903828049
 30
0.0
 11
858.117566413829
 21
321.0281877084518
 31
0.0
  0
LINE
  5
472
330
3E4
100
AcDbEntity
  8
0
  6
Continuous
 62
     7
370
    18
100
AcDbLine
 10
856.3962919159475
 20
317.6095405925553
 30
0.0
 11
857.4962904159474
 21
315.7042873023057
 31
0.0
  0
LINE
  5
473
330
3E4
100
AcDbEntity
  8
0
  6
Continuous
 62
     7
370
    18
100
AcDbLine
 10
857.4962904159474
 20
315.7042873023057
 30
0.0
 11
857.6694963627298
 21
315.8042878023057
 31
0.0
  0
LINE
  5
474
330
3E4
100
AcDbEntity
  8
0
  6
Continuous
 62
     7
370
    18
100
AcDbLine
 10
875.1739741724563
 20
323.4856288758974
 30
0.0
 11
877.9452528664901
 21
325.0856273758975
 31
0.0
  0
LINE
  5
475
330
3E4
100
AcDbEntity
  8
0
  6
Continuous
 62
     7
370
    18
100
AcDbLine
 10
878.276318625253
 20
331.5121666610738
 30
0.0
 11
878.386123550236
 21
331.9219669520821
 31
0.0
  0
ARC
  5
476
330
3E4
100
AcDbEntity
  8
0
  6
Continuous
 62
     7
370
    18
100
AcDbCircle
 10
875.0706442858534
 20
313.264607489434
 30
0.0
 40
1.0
100
AcDbArc
 50
209.999981999999
 51
299.9999599999946
  0
ARC
  5
477
330
3E4
100
AcDbEntity
  8
0
  6
Continuous
 62
     7
370
    18
100
AcDbCircle
 10
865.6892930245721
 20
333.7135665176236
 30
0.0
 40
1.600000399999999
100
AcDbArc
 50
29.9999599999985
 51
209.999982
  0
LINE
  5
478
330
3E4
100
AcDbEntity
  8
0
  6
Continuous
 62
     7
370
    18
100
AcDbLine
 10
855.5195023627298
 20
319.528186646274
 30
0.0
 11
858.7194975627298
 21
313.9856323758975
 31
0.0
  0
LINE
  5
479
330
3E4
100
AcDbEntity
  8
0
  6
Continuous
 62
     7
370
    18
100
AcDbLine
 10
856.3962919159475
 20
317.6095405925553
 30
0.0
 11
856.5694978627297
 21
317.7095410925554
 31
0.0
  0
LINE
  5
47A
330
3E4
100
AcDbEntity
  8
0
  6
Continuous
 62
     7
370
    18
100
AcDbLine
 10
878.1861582989472
 20
332.2683729270625
 30
0.0
 11
878.3861517989473
 21
331.9219740238789
 31
0.0
  0
LINE
  5
47B
330
3E4
100
AcDbEntity
  8
0
  6
Continuous
 62
     7
370
    18
100
AcDbLine
 10
857.9443636990975
 20
320.9281856103756
 30
0.0
 11
857.9809675074251
 21
321.0647819546016
 31
0.0
  0
LINE
  5
47C
330
3E4
100
AcDbEntity
  8
0
  6
Continuous
 62
     7
370
    18
100
AcDbLine
 10
871.9739789724562
 20
329.028183146274
 30
0.0
 11
874.7452576664903
 21
330.6281816462739
 31
0.0
  0
LINE
  5
47D
330
3E4
100
AcDbEntity
  8
0
  6
Continuous
 62
     7
370
    18
100
AcDbLine
 10
874.7452342216264
 20
330.6281542539691
 30
0.0
 11
875.3282518876202
 21
330.6183460347575
 31
0.0
  0
LINE
  5
47E
330
3E4
100
AcDbEntity
  8
0
  6
Center
 62
     2
370
    18
100
AcDbLine
 10
862.1537981753744
 20
313.8372232263321
 30
0.0
 11
857.3924362753744
 21
322.0841439503547
 31
0.0
  0
ARC
  5
47F
330
3E4
100
AcDbEntity
  8
0
  6
Continuous
 62
     7
370
    18
100
AcDbCircle
 10
876.0892867745721
 20
315.7002489442248
 30
0.0
 40
1.600000399999999
100
AcDbArc
 50
209.9999819999979
 51
30.00000000000011
  0
LINE
  5
480
330
3E4
100
AcDbEntity
  8
0
  6
Center
 62
     2
100
AcDbLine
 10
855.2296064971179
 20
315.6657850144179
 30
0.0
 11
882.5679864066905
 21
331.4496060144179
 31
0.0
  0
LINE
  5
481
330
3E4
100
AcDbEntity
  8
0
  6
Continuous
 62
     7
370
    18
100
AcDbLine
 10
858.7194975627298
 20
313.9856323758975
 30
0.0
 11
861.1443652292246
 21
315.3856303758974
 31
0.0
  0
LINE
  5
482
330
3E4
100
AcDbEntity
  8
0
  6
Continuous
 62
     7
370
    18
100
AcDbLine
 10
874.7452576664903
 20
330.6281816462739
 30
0.0
 11
877.9452528664901
 21
325.0856273758975
 31
0.0
  0
LINE
  5
483
330
3E4
100
AcDbEntity
  8
0
  6
Continuous
 62
     7
370
    18
100
AcDbLine
 10
877.1658351992367
 20
324.6356303758974
 30
0.0
 11
877.2658355992367
 21
324.4624246023202
 31
0.0
  0
ARC
  5
484
330
3E4
100
AcDbEntity
  8
新しいレイヤ 1
100
AcDbCircle
 10
882.4777472926919
 20
340.6351107446933
 30
0.0
 40
2.5
100
AcDbArc
 50
119.9999999999999
 51
299.9999999999998
  0
LWPOLYLINE
  5
485
330
3E4
100
AcDbEntity
  8
新しいレイヤ 1
100
AcDbPolyline
 90
        2
 70
     0
 43
0.0
 10
881.2277472926919
 20
342.8001742541544
 10
889.0219759267518
 20
347.3001742541544
  0
ARC
  5
486
330
3E4
100
AcDbEntity
  8
新しいレイヤ 1
100
AcDbCircle
 10
890.2719759267518
 20
345.1351107446933
 30
0.0
 40
2.5
100
AcDbArc
 50
299.9999999999998
 51
119.9999999999999
  0
LWPOLYLINE
  5
487
330
3E4
100
AcDbEntity
  8
新しいレイヤ 1
100
AcDbPolyline
 90
        2
 70
     0
 43
0.0
 10
891.5219759267518
 20
342.9700472352322
 10
883.7277472926919
 20
338.4700472352322
  0
LINE
  5
488
330
3E4
100
AcDbEntity
  8
0
  6
Continuous
 62
     7
370
    18
100
AcDbLine
 10
873.4328287973444
 20
330.1013871289547
 30
0.0
 11
873.5328272973443
 21
329.9281846462738
 31
0.0
  0
ARC
  5
489
330
3E4
100
AcDbEntity
  8
0
  6
Continuous
 62
     7
370
    18
100
AcDbCircle
 10
875.539291374572
 20
316.652868920954
 30
0.0
 40
1.600000399999999
100
AcDbArc
 50
30.00001999999857
 51
209.999982
  0
LINE
  5
48A
330
3E4
100
AcDbEntity
  8
0
  6
Continuous
 62
     7
370
    18
100
AcDbLine
 10
875.1739741724563
 20
323.4856288758974
 30
0.0
 11
879.5739737874561
 21
315.8646059894339
 31
0.0
  0
LWPOLYLINE
  5
48B
330
3E4
100
AcDbEntity
  8
新しいレイヤ 1
100
AcDbPolyline
 90
        2
 70
     0
 43
0.0
 10
897.0219759267518
 20
333.4437677936035
 10
889.2277472926919
 20
328.9437677936035
  0
ARC
  5
48C
330
3E4
100
AcDbEntity
  8
新しいレイヤ 1
100
AcDbCircle
 10
898.2719759267518
 20
331.2787042841423
 30
0.0
 40
2.5
100
AcDbArc
 50
299.9999999999998
 51
119.9999999999999
  0
LWPOLYLINE
  5
48D
330
3E4
100
AcDbEntity
  8
新しいレイヤ 1
100
AcDbPolyline
 90
        2
 70
     0
 43
0.0
 10
891.7277472926919
 20
324.6136407746812
 10
899.5219759267518
 20
329.1136407746812
  0
ARC
  5
48E
330
3E4
100
AcDbEntity
  8
新しいレイヤ 1
100
AcDbCircle
 10
890.4777472926919
 20
326.7787042841423
 30
0.0
 40
2.5
100
AcDbArc
 50
119.9999999999999
 51
299.9999999999998
  0
LINE
  5
48F
330
3E4
100
AcDbEntity
  8
0
  6
Continuous
 62
     7
370
    18
100
AcDbLine
 10
855.5195023627298
 20
319.528186646274
 30
0.0
 11
857.9443700292245
 21
320.9281846462738
 31
0.0
  0
LINE
  5
490
330
3E4
100
AcDbEntity
  8
0
  6
Continuous
 62
     7
370
    18
100
AcDbLine
 10
875.3282718683824
 20
330.6183714270624
 30
0.0
 11
878.1861582989472
 21
332.2683729270625
 31
0.0
  0
LINE
  5
491
330
3E4
100
AcDbEntity
  8
0
  6
Continuous
 62
     7
370
    18
100
AcDbLine
 10
876.0399995762407
 20
323.9856288758974
 30
0.0
 11
876.1399999762407
 21
323.8124231023203
 31
0.0
  0
LINE
  5
492
330
3E4
100
AcDbEntity
  8
0
  6
Continuous
 62
     7
370
    18
100
AcDbLine
 10
874.2988542011288
 20
330.6013871289547
 30
0.0
 11
874.3988527011288
 21
330.4281846462738
 31
0.0
  0
ARC
  5
493
330
3E4
100
AcDbEntity
  8
0
  6
Continuous
 62
     7
370
    18
100
AcDbCircle
 10
866.7079560686718
 20
336.14920236945
 30
0.0
 40
1.0
100
AcDbArc
 50
30.00002000000155
 51
120.0000000000006
  0
LINE
  5
494
330
3E4
100
AcDbEntity
  8
0
  6
Continuous
 62
     7
370
    18
100
AcDbLine
 10
869.8046192670689
 20
320.3856303758974
 30
0.0
 11
874.2046188820689
 21
312.764607489434
 31
0.0
  0
LINE
  5
495
330
3E4
100
AcDbEntity
  8
0
  6
Continuous
 62
     7
370
    18
100
AcDbLine
 10
875.2452521664902
 20
329.7621657687689
 30
0.0
 11
878.2763410797357
 21
331.5121657687689
 31
0.0
  0
LINE
  5
496
330
3E4
100
AcDbEntity
  8
0
  6
Continuous
 62
     7
370
    18
100
AcDbLine
 10
873.4328287973444
 20
330.1013871289547
 30
0.0
 11
874.2988542011288
 21
330.6013871289547
 31
0.0
  0
LINE
  5
497
330
3E4
100
AcDbEntity
  8
0
  6
Continuous
 62
     7
370
    18
100
AcDbLine
 10
861.3175677119052
 20
315.4856288758974
 30
0.0
 11
875.1739741724563
 21
323.4856288758974
 31
0.0
  0
ARC
  5
498
330
3E4
100
AcDbEntity
  8
0
  6
Continuous
 62
     7
370
    18
100
AcDbCircle
 10
863.0706519708533
 20
334.04920386945
 30
0.0
 40
1.0
100
AcDbArc
 50
120.0000000000006
 51
209.9999820000022
  0
LINE
  5
499
330
3E4
100
AcDbEntity
  8
0
  6
Continuous
 62
     7
370
    18
100
AcDbLine
 10
875.5706442708533
 20
312.3985821116303
 30
0.0
 11
879.2079483686717
 21
314.4985806116302
 31
0.0
  0
LINE
  5
49A
330
3E4
100
AcDbEntity
  8
0
  6
Continuous
 62
     7
370
    18
100
AcDbLine
 10
867.6249418667795
 20
333.5609363773083
 30
0.0
 11
867.0749388667796
 21
334.5135695176235
 31
0.0
  0
LINE
  5
49B
330
3E4
100
AcDbEntity
  8
0
  6
Continuous
 62
     7
370
    18
100
AcDbLine
 10
876.1399999762407
 20
323.8124231023203
 30
0.0
 11
877.2658355992367
 21
324.4624246023202
 31
0.0
  0
LINE
  5
49C
330
3E4
100
AcDbEntity
  8
0
  6
Continuous
 62
     7
370
    18
100
AcDbLine
 10
861.1443467067927
 20
315.3856284576905
 30
0.0
 11
861.2809475811457
 21
315.3490268029527
 31
0.0
  0
LINE
  5
49D
330
3E4
100
AcDbEntity
  8
0
  6
Continuous
 62
     7
370
    18
100
AcDbLine
 10
862.5706519708533
 20
334.9152292732344
 30
0.0
 11
866.2079560686718
 21
337.0152277732344
 31
0.0
  0
LINE
  5
49E
330
3E4
100
AcDbEntity
  8
新しいレイヤ 1
100
AcDbLine
 10
558.8316486141366
 20
286.2
 30
0.0
 11
459.2316486141366
 21
286.2
 31
0.0
  0
LWPOLYLINE
  5
49F
330
3E4
100
AcDbEntity
  8
新しいレイヤ 2
  6
Continuous
370
    18
100
AcDbPolyline
 90
        3
 70
     0
 43
0.0
 10
508.1032545979532
 20
251.22153662241
 10
518.1032545979532
 20
251.22153662241
 10
518.1032545979532
 20
321.22153662241
  0
LWPOLYLINE
  5
4A0
330
3E4
100
AcDbEntity
  8
新しいレイヤ 2
  6
Continuous
370
    18
100
AcDbPolyline
 90
        3
 70
     0
 43
0.0
 10
508.1032545979532
 20
251.22153662241
 10
518.1032545979532
 20
251.22153662241
 10
518.1032545979532
 20
321.22153662241
  0
LWPOLYLINE
  5
4A1
330
3E4
100
AcDbEntity
  8
新しいレイヤ 2
  6
Continuous
370
    18
100
AcDbPolyline
 90
        3
 70
     0
 43
0.0
 10
502.0965008031961
 20
321.22153662241
 10
497.9832545979532
 20
321.22153662241
 10
497.9832545979532
 20
251.22153662241
  0
LWPOLYLINE
  5
4A2
330
3E4
100
AcDbEntity
  8
新しいレイヤ 2
  6
Continuous
370
    18
100
AcDbPolyline
 90
        3
 70
     0
 43
0.0
 10
498.1032545979532
 20
251.2249340820313
 10
507.9832545979532
 20
251.22153662241
 10
507.9832545979532
 20
313.8528508107369
  0
LWPOLYLINE
  5
4A3
330
3E4
100
AcDbEntity
  8
新しいレイヤ 2
  6
Continuous
370
    18
100
AcDbPolyline
 90
        2
 70
     0
 43
0.0
 10
508.1032545979532
 20
313.8517364439712
 10
508.1032545979532
 20
251.22153662241
  0
LWPOLYLINE
  5
4A4
330
3E4
100
AcDbEntity
  8
新しいレイヤ 2
  6
Continuous
370
    18
100
AcDbPolyline
 90
        2
 70
     0
 43
0.0
 10
508.1032545979532
 20
313.8517364439712
 10
508.1032545979532
 20
251.22153662241
  0
LWPOLYLINE
  5
4A5
330
3E4
100
AcDbEntity
  8
新しいレイヤ 2
100
AcDbPolyline
 90
        2
 70
     0
 43
0.0
 10
510.62
 20
313.8523864912472
 10
515.8032545979534
 20
313.8523864912472
  0
LWPOLYLINE
  5
4A6
330
3E4
100
AcDbEntity
  8
新しいレイヤ 2
100
AcDbPolyline
 90
        5
 70
     0
 43
0.0
 10
518.1032545979532
 20
313.8523864912472
 10
520.9454914161009
 20
313.8523864912472
 10
520.9454914161009
 20
330.5949340820312
 10
510.62
 20
330.5949340820312
 10
510.62
 20
313.8523864912472
  0
CIRCLE
  5
4A7
102
{ACAD_REACTORS
330
4A8
102
}
330
3E4
100
AcDbEntity
  8
新しいレイヤ 1
100
AcDbCircle
 10
804.4443461304304
 20
286.2
 30
0.0
 40
19.0
  0
CIRCLE
  5
4A9
102
{ACAD_REACTORS
330
4A8
102
}
330
3E4
100
AcDbEntity
  8
新しいレイヤ 2
100
AcDbCircle
 10
776.8296094206818
 20
296.3698729810778
 30
0.0
 40
1.5
  0
CIRCLE
  5
4AA
102
{ACAD_REACTORS
330
4A8
102
}
330
3E4
100
AcDbEntity
  8
新しいレイヤ 2
100
AcDbCircle
 10
781.8296094206818
 20
305.0301270189223
 30
0.0
 40
1.5
  0
ARC
  5
4AB
102
{ACAD_REACTORS
330
4A8
102
}
330
3E4
100
AcDbEntity
  8
新しいレイヤ 1
100
AcDbCircle
 10
804.4443461304304
 20
286.2
 30
0.0
 40
35.0
100
AcDbArc
 50
166.6015495990197
 51
133.3984504009798
  0
ARC
  5
4AC
330
3E4
100
AcDbEntity
  8
新しいレイヤ 1
100
AcDbCircle
 10
804.4443461304304
 20
286.2
 30
0.0
 40
35.0
100
AcDbArc
 50
166.6015495990197
 51
133.3984504009799
  0
LWPOLYLINE
  5
4AD
102
{ACAD_REACTORS
330
4A8
102
}
330
3E4
100
AcDbEntity
  8
新しいレイヤ 1
100
AcDbPolyline
 90
        6
 70
     0
 43
0.0
 10
783.0532609181486
 20
287.0031434217771
 10
793.0532609181482
 20
304.3236514974652
 10
763.1753844875855
 20
321.5736514974659
 10
759.6353209781241
 20
320.4420816370583
 10
756.7603209781244
 20
315.4624355652981
 10
751.9971576425883
 20
318.212449199264
  0
LWPOLYLINE
  5
4AE
102
{ACAD_REACTORS
330
4A8
102
}
330
3E4
100
AcDbEntity
  8
新しいレイヤ 1
100
AcDbPolyline
 90
        5
 70
     0
 43
0.0
 10
750.4971576425883
 20
315.6143729879108
 10
755.2603209781244
 20
312.8643593539449
 10
752.3853209781244
 20
307.8847132821842
 10
753.1753844875855
 20
304.2531434217771
 10
783.0532609181486
 20
287.0031434217771
  0
ENDBLK
  5
3E6
330
3E4
100
AcDbEntity
  8
0
100
AcDbBlockEnd
  0
BLOCK
  5
4B1
330
4B0
100
AcDbEntity
  8
0
100
AcDbBlockBegin
  2
用紙 1
 70
     0
 10
0.0
 20
0.0
 30
0.0
  3
用紙 1
  1

  0
LWPOLYLINE
  5
4B3
330
4B0
100
AcDbEntity
  8
View_0_PV
100
AcDbPolyline
 90
        5
 70
     1
 43
0.0
 10
508.090977934691
 20
307.5
 10
510.62
 20
307.5
 10
510.62
 20
355.3241212487459
 10
508.090977934691
 20
355.3241212487459
 10
508.090977934691
 20
307.5
  0
ENDBLK
  5
4B2
330
4B0
100
AcDbEntity
  8
0
100
AcDbBlockEnd
  0
ENDSEC
  0
SECTION
  2
ENTITIES
  0
INSERT
  5
36E
330
1F
100
AcDbEntity
  8
0
100
AcDbBlockReference
  2
レイアウト (部分図 （モータ）左)
 10
0.0
 20
0.0
 30
0.0
  0
INSERT
  5
3E3
330
1F
100
AcDbEntity
  8
0
100
AcDbBlockReference
  2
レイアウト (部分図 （減速機）前)
 10
0.0
 20
0.0
 30
0.0
  0
INSERT
  5
4AF
330
1F
100
AcDbEntity
  8
0
100
AcDbBlockReference
  2
レイアウト (部分図 （センサー）)
 10
0.0
 20
0.0
 30
0.0
  0
INSERT
  5
4B4
330
1F
100
AcDbEntity
  8
0
100
AcDbBlockReference
  2
用紙 1
 10
0.0
 20
0.0
 30
0.0
  0
ENDSEC
  0
SECTION
  2
OBJECTS
  0
DICTIONARY
  5
C
330
0
100
AcDbDictionary
281
     1
  3
ACAD_GROUP
350
D
  3
ACAD_IMAGE_VARS
350
6F
  3
ACAD_LAYOUT
350
1A
  3
ACAD_MATERIAL
350
43
  3
ACAD_MLEADERSTYLE
350
6B
  3
ACAD_MLINESTYLE
350
17
  3
ACAD_PLOTSETTINGS
350
19
  3
ACAD_PLOTSTYLENAME
350
E
  3
ACAD_SCALELIST
350
47
  3
ACAD_TABLESTYLE
350
69
  3
ACAD_VISUALSTYLE
350
2A
  3
AcDbVariableDictionary
350
4B5
  0
DICTIONARY
  5
4BC
330
8
100
AcDbDictionary
280
     1
281
     1
  3
ACAD_XREC_ROUNDTRIP
360
4BD
  0
DICTIONARY
  5
D
102
{ACAD_REACTORS
330
C
102
}
330
C
100
AcDbDictionary
281
     1
  3
*A2
350
4A8
  0
RASTERVARIABLES
  5
6F
102
{ACAD_REACTORS
330
C
102
}
330
C
100
AcDbRasterVariables
 90
        0
 70
     0
 71
     1
 72
     0
  0
DICTIONARY
  5
1A
102
{ACAD_REACTORS
330
C
102
}
330
C
100
AcDbDictionary
281
     1
  3
Layout1
350
1E
  3
Layout2
350
26
  3
Model
350
22
  0
DICTIONARY
  5
43
102
{ACAD_REACTORS
330
C
102
}
330
C
100
AcDbDictionary
281
     1
  3
ByBlock
350
45
  3
ByLayer
350
44
  3
Global
350
46
  0
DICTIONARY
  5
6B
102
{ACAD_REACTORS
330
C
102
}
330
C
100
AcDbDictionary
281
     1
  3
Standard
350
6C
  0
DICTIONARY
  5
17
102
{ACAD_REACTORS
330
C
102
}
330
C
100
AcDbDictionary
281
     1
  3
Standard
350
18
  0
DICTIONARY
  5
19
102
{ACAD_REACTORS
330
C
102
}
330
C
100
AcDbDictionary
281
     1
  0
ACDBDICTIONARYWDFLT
  5
E
102
{ACAD_REACTORS
330
C
102
}
330
C
100
AcDbDictionary
281
     1
  3
Normal
350
F
100
AcDbDictionaryWithDefault
340
F
  0
DICTIONARY
  5
47
102
{ACAD_REACTORS
330
C
102
}
330
C
100
AcDbDictionary
281
     1
  3
A0
350
48
  3
A1
350
49
  3
A2
350
4A
  3
A3
350
4B
  3
A4
350
4C
  3
A5
350
4D
  3
A6
350
4E
  3
A7
350
4F
  3
A8
350
50
  3
A9
350
51
  3
B0
350
52
  3
B1
350
53
  3
B2
350
54
  3
B3
350
55
  3
B4
350
56
  3
B5
350
57
  3
B6
350
58
  3
B7
350
59
  3
B8
350
5A
  3
B9
350
5B
  3
C0
350
5C
  3
C1
350
5D
  3
C2
350
5E
  3
C3
350
5F
  3
C4
350
60
  3
C5
350
61
  3
C6
350
62
  3
C7
350
63
  3
C8
350
64
  3
C9
350
65
  3
D0
350
66
  3
D1
350
67
  3
D2
350
68
  0
DICTIONARY
  5
69
102
{ACAD_REACTORS
330
C
102
}
330
C
100
AcDbDictionary
281
     1
  3
Standard
350
6A
  0
DICTIONARY
  5
2A
102
{ACAD_REACTORS
330
C
102
}
330
C
100
AcDbDictionary
281
     1
  3
2dWireframe
350
2F
  3
Basic
350
32
  3
Brighten
350
36
  3
ColorChange
350
3A
  3
Conceptual
350
34
  3
Dim
350
35
  3
EdgeColorOff
350
3D
  3
Facepattern
350
39
  3
Flat
350
2B
  3
FlatWithEdges
350
2C
  3
Gouraud
350
2D
  3
GouraudWithEdges
350
2E
  3
Hidden
350
31
  3
JitterOff
350
3B
  3
Linepattern
350
38
  3
OverhangOff
350
3C
  3
Realistic
350
33
  3
Shaded
350
42
  3
Shaded with edges
350
41
  3
Shades of Gray
350
3E
  3
Sketchy
350
3F
  3
Thicken
350
37
  3
Wireframe
350
30
  3
X-Ray
350
40
  0
DICTIONARY
  5
4B5
102
{ACAD_REACTORS
330
C
102
}
330
C
100
AcDbDictionary
281
     1
  3
CANNOSCALE
350
4BE
  3
CMLEADERSTYLE
350
4B7
  3
CTABLESTYLE
350
4B6
  3
DIMASSOC
350
4BA
  3
HIDETEXT
350
4BB
  3
MSLTSCALE
350
4BF
  0
XRECORD
  5
4BD
102
{ACAD_REACTORS
330
4BC
102
}
330
4BC
100
AcDbXrecord
280
     1
102
VTR_0.000_0.000_1.000_1.000_VISUALSTYLE
340
2F
102
VTR_0.000_0.000_1.000_1.000_GRIDDISPLAY
 70
     3
102
VTR_0.000_0.000_1.000_1.000_GRIDMAJOR
 70
     5
102
VTR_0.000_0.000_1.000_1.000_DEFAULTLIGHTING
280
     1
102
VTR_0.000_0.000_1.000_1.000_DEFAULTLIGHTINGTYPE
 70
     1
102
VTR_0.000_0.000_1.000_1.000_BRIGHTNESS
141
0.0
102
VTR_0.000_0.000_1.000_1.000_CONTRAST
142
0.0
  0
GROUP
  5
4A8
102
{ACAD_REACTORS
330
D
102
}
330
D
100
AcDbGroup
300

 70
     1
 71
     1
340
4A7
340
4A9
340
4AA
340
4AB
340
4AD
340
4AE
  0
LAYOUT
  5
1E
102
{ACAD_REACTORS
330
1A
102
}
330
1A
100
AcDbPlotSettings
  1

  2
none_device
  4

  6

 40
0.0
 41
0.0
 42
0.0
 43
0.0
 44
0.0
 45
0.0
 46
0.0
 47
0.0
 48
0.0
 49
0.0
140
0.0
141
0.0
142
1.0
143
1.0
 70
   688
 72
     0
 73
     0
 74
     5
  7

 75
    16
147
1.0
148
0.0
149
0.0
100
AcDbLayout
  1
Layout1
 70
     0
 71
     1
 10
0.0
 20
0.0
 11
12.0
 21
9.0
 12
0.0
 22
0.0
 32
0.0
 14
1.000000000000000E+20
 24
1.000000000000000E+20
 34
1.000000000000000E+20
 15
-1.000000000000000E+20
 25
-1.000000000000000E+20
 35
-1.000000000000000E+20
146
0.0
 13
0.0
 23
0.0
 33
0.0
 16
1.0
 26
0.0
 36
0.0
 17
0.0
 27
1.0
 37
0.0
 76
     0
330
1B
  0
LAYOUT
  5
26
102
{ACAD_REACTORS
330
1A
102
}
330
1A
100
AcDbPlotSettings
  1

  2
none_device
  4

  6

 40
0.0
 41
0.0
 42
0.0
 43
0.0
 44
0.0
 45
0.0
 46
0.0
 47
0.0
 48
0.0
 49
0.0
140
0.0
141
0.0
142
1.0
143
1.0
 70
   688
 72
     0
 73
     0
 74
     5
  7

 75
    16
147
1.0
148
0.0
149
0.0
100
AcDbLayout
  1
Layout2
 70
     1
 71
     2
 10
0.0
 20
0.0
 11
0.0
 21
0.0
 12
0.0
 22
0.0
 32
0.0
 14
0.0
 24
0.0
 34
0.0
 15
0.0
 25
0.0
 35
0.0
146
0.0
 13
0.0
 23
0.0
 33
0.0
 16
1.0
 26
0.0
 36
0.0
 17
0.0
 27
1.0
 37
0.0
 76
     0
330
23
  0
LAYOUT
  5
22
102
{ACAD_REACTORS
330
1A
102
}
330
1A
100
AcDbPlotSettings
  1

  2
none_device
  4
Letter_(8.50_x_11.00_Inches)
  6

 40
6.35
 41
6.35
 42
6.35000508
 43
6.35000508
 44
215.9
 45
279.4
 46
0.0
 47
0.0
 48
0.0
 49
0.0
140
0.0
141
0.0
142
1.0
143
1.0
 70
  1712
 72
     0
 73
     0
 74
     0
  7

 75
     0
147
1.0
148
0.0
149
0.0
100
AcDbLayout
  1
Model
 70
     1
 71
     0
 10
-1.5625
 20
-1.5625
 11
1155.554707870558
 21
787.1275
 12
0.0
 22
0.0
 32
0.0
 14
-1.5625
 24
-1.5625
 34
0.0
 15
1155.554707870558
 25
787.1275
 35
0.0
146
0.0
 13
0.0
 23
0.0
 33
0.0
 16
1.0
 26
0.0
 36
0.0
 17
0.0
 27
1.0
 37
0.0
 76
     0
330
1F
331
29
  0
MATERIAL
  5
45
102
{ACAD_REACTORS
330
43
102
}
102
{ACAD_XDICTIONARY
360
4F2
102
}
330
43
100
AcDbMaterial
  1
ByBlock
  0
MATERIAL
  5
44
102
{ACAD_REACTORS
330
43
102
}
102
{ACAD_XDICTIONARY
360
4F0
102
}
330
43
100
AcDbMaterial
  1
ByLayer
  0
MATERIAL
  5
46
102
{ACAD_REACTORS
330
43
102
}
102
{ACAD_XDICTIONARY
360
4F4
102
}
330
43
100
AcDbMaterial
  1
Global
  0
MLEADERSTYLE
  5
6C
102
{ACAD_REACTORS
330
6B
102
}
102
{ACAD_XDICTIONARY
360
4F7
102
}
330
6B
100
AcDbMLeaderStyle
170
     2
171
     1
172
     0
 90
        2
 40
0.0
 41
0.0
173
     1
 91
-1056964608
340
14
 92
       -2
290
     1
 42
0.09
291
     1
 43
0.36
  3
Standard
341
0
 44
0.18
300

342
11
174
     1
178
     6
175
     1
176
     0
 93
-1056964608
 45
0.18
292
     0
297
     0
 46
0.18
343
0
 94
-1056964608
 47
1.0
 49
1.0
140
1.0
293
     1
141
0.0
294
     1
177
     0
142
1.0
295
     0
296
     0
143
0.125
1001
ACAD_MLEADERVER
1070
     2
  0
MLINESTYLE
  5
18
102
{ACAD_REACTORS
330
17
102
}
330
17
100
AcDbMlineStyle
  2
Standard
 70
     0
  3

 62
   256
 51
90.0
 52
90.0
 71
     2
 49
0.5
 62
   256
  6
BYLAYER
 49
-0.5
 62
   256
  6
BYLAYER
  0
ACDBPLACEHOLDER
  5
F
102
{ACAD_REACTORS
330
E
102
}
330
E
  0
SCALE
  5
48
102
{ACAD_REACTORS
330
47
102
}
330
47
100
AcDbScale
 70
     0
300
1:1
140
1.0
141
1.0
290
     1
  0
SCALE
  5
49
102
{ACAD_REACTORS
330
47
102
}
330
47
100
AcDbScale
 70
     0
300
1:2
140
1.0
141
2.0
290
     0
  0
SCALE
  5
4A
102
{ACAD_REACTORS
330
47
102
}
330
47
100
AcDbScale
 70
     0
300
1:4
140
1.0
141
4.0
290
     0
  0
SCALE
  5
4B
102
{ACAD_REACTORS
330
47
102
}
330
47
100
AcDbScale
 70
     0
300
1:5
140
1.0
141
5.0
290
     0
  0
SCALE
  5
4C
102
{ACAD_REACTORS
330
47
102
}
330
47
100
AcDbScale
 70
     0
300
1:8
140
1.0
141
8.0
290
     0
  0
SCALE
  5
4D
102
{ACAD_REACTORS
330
47
102
}
330
47
100
AcDbScale
 70
     0
300
1:10
140
1.0
141
10.0
290
     0
  0
SCALE
  5
4E
102
{ACAD_REACTORS
330
47
102
}
330
47
100
AcDbScale
 70
     0
300
1:16
140
1.0
141
16.0
290
     0
  0
SCALE
  5
4F
102
{ACAD_REACTORS
330
47
102
}
330
47
100
AcDbScale
 70
     0
300
1:20
140
1.0
141
20.0
290
     0
  0
SCALE
  5
50
102
{ACAD_REACTORS
330
47
102
}
330
47
100
AcDbScale
 70
     0
300
1:30
140
1.0
141
30.0
290
     0
  0
SCALE
  5
51
102
{ACAD_REACTORS
330
47
102
}
330
47
100
AcDbScale
 70
     0
300
1:40
140
1.0
141
40.0
290
     0
  0
SCALE
  5
52
102
{ACAD_REACTORS
330
47
102
}
330
47
100
AcDbScale
 70
     0
300
1:50
140
1.0
141
50.0
290
     0
  0
SCALE
  5
53
102
{ACAD_REACTORS
330
47
102
}
330
47
100
AcDbScale
 70
     0
300
1:100
140
1.0
141
100.0
290
     0
  0
SCALE
  5
54
102
{ACAD_REACTORS
330
47
102
}
330
47
100
AcDbScale
 70
     0
300
2:1
140
2.0
141
1.0
290
     0
  0
SCALE
  5
55
102
{ACAD_REACTORS
330
47
102
}
330
47
100
AcDbScale
 70
     0
300
4:1
140
4.0
141
1.0
290
     0
  0
SCALE
  5
56
102
{ACAD_REACTORS
330
47
102
}
330
47
100
AcDbScale
 70
     0
300
8:1
140
8.0
141
1.0
290
     0
  0
SCALE
  5
57
102
{ACAD_REACTORS
330
47
102
}
330
47
100
AcDbScale
 70
     0
300
10:1
140
10.0
141
1.0
290
     0
  0
SCALE
  5
58
102
{ACAD_REACTORS
330
47
102
}
330
47
100
AcDbScale
 70
     0
300
100:1
140
100.0
141
1.0
290
     0
  0
SCALE
  5
59
102
{ACAD_REACTORS
330
47
102
}
330
47
100
AcDbScale
 70
     0
300
1/128" = 1'-0"
140
0.0078125
141
12.0
290
     0
  0
SCALE
  5
5A
102
{ACAD_REACTORS
330
47
102
}
330
47
100
AcDbScale
 70
     0
300
1/64" = 1'-0"
140
0.015625
141
12.0
290
     0
  0
SCALE
  5
5B
102
{ACAD_REACTORS
330
47
102
}
330
47
100
AcDbScale
 70
     0
300
1/32" = 1'-0"
140
0.03125
141
12.0
290
     0
  0
SCALE
  5
5C
102
{ACAD_REACTORS
330
47
102
}
330
47
100
AcDbScale
 70
     0
300
1/16" = 1'-0"
140
0.0625
141
12.0
290
     0
  0
SCALE
  5
5D
102
{ACAD_REACTORS
330
47
102
}
330
47
100
AcDbScale
 70
     0
300
3/32" = 1'-0"
140
0.09375
141
12.0
290
     0
  0
SCALE
  5
5E
102
{ACAD_REACTORS
330
47
102
}
330
47
100
AcDbScale
 70
     0
300
1/8" = 1'-0"
140
0.125
141
12.0
290
     0
  0
SCALE
  5
5F
102
{ACAD_REACTORS
330
47
102
}
330
47
100
AcDbScale
 70
     0
300
3/16" = 1'-0"
140
0.1875
141
12.0
290
     0
  0
SCALE
  5
60
102
{ACAD_REACTORS
330
47
102
}
330
47
100
AcDbScale
 70
     0
300
1/4" = 1'-0"
140
0.25
141
12.0
290
     0
  0
SCALE
  5
61
102
{ACAD_REACTORS
330
47
102
}
330
47
100
AcDbScale
 70
     0
300
3/8" = 1'-0"
140
0.375
141
12.0
290
     0
  0
SCALE
  5
62
102
{ACAD_REACTORS
330
47
102
}
330
47
100
AcDbScale
 70
     0
300
1/2" = 1'-0"
140
0.5
141
12.0
290
     0
  0
SCALE
  5
63
102
{ACAD_REACTORS
330
47
102
}
330
47
100
AcDbScale
 70
     0
300
3/4" = 1'-0"
140
0.75
141
12.0
290
     0
  0
SCALE
  5
64
102
{ACAD_REACTORS
330
47
102
}
330
47
100
AcDbScale
 70
     0
300
1" = 1'-0"
140
1.0
141
12.0
290
     0
  0
SCALE
  5
65
102
{ACAD_REACTORS
330
47
102
}
330
47
100
AcDbScale
 70
     0
300
1-1/2" = 1'-0"
140
1.5
141
12.0
290
     0
  0
SCALE
  5
66
102
{ACAD_REACTORS
330
47
102
}
330
47
100
AcDbScale
 70
     0
300
3" = 1'-0"
140
3.0
141
12.0
290
     0
  0
SCALE
  5
67
102
{ACAD_REACTORS
330
47
102
}
330
47
100
AcDbScale
 70
     0
300
6" = 1'-0"
140
6.0
141
12.0
290
     0
  0
SCALE
  5
68
102
{ACAD_REACTORS
330
47
102
}
330
47
100
AcDbScale
 70
     0
300
1'-0" = 1'-0"
140
12.0
141
12.0
290
     0
  0
TABLESTYLE
  5
6A
102
{ACAD_REACTORS
330
69
102
}
330
69
100
AcDbTableStyle
  3
Standard
 70
     0
 71
     0
 40
0.06
 41
0.06
280
     0
281
     0
  7
Standard
140
0.18
170
     2
 62
     0
 63
   257
283
     0
274
    -2
284
     1
 64
     0
275
    -2
285
     1
 65
     0
276
    -2
286
     1
 66
     0
277
    -2
287
     1
 67
     0
278
    -2
288
     1
 68
     0
279
    -2
289
     1
 69
     0
  7
Standard
140
0.25
170
     5
 62
     0
 63
   257
283
     0
274
    -2
284
     1
 64
     0
275
    -2
285
     1
 65
     0
276
    -2
286
     1
 66
     0
277
    -2
287
     1
 67
     0
278
    -2
288
     1
 68
     0
279
    -2
289
     1
 69
     0
  7
Standard
140
0.18
170
     5
 62
     0
 63
   257
283
     0
274
    -2
284
     1
 64
     0
275
    -2
285
     1
 65
     0
276
    -2
286
     1
 66
     0
277
    -2
287
     1
 67
     0
278
    -2
288
     1
 68
     0
279
    -2
289
     1
 69
     0
  0
VISUALSTYLE
  5
2F
102
{ACAD_REACTORS
330
2A
102
}
102
{ACAD_XDICTIONARY
360
4C8
102
}
330
2A
100
AcDbVisualStyle
  2
2dWireframe
 70
     4
 71
     0
 72
     2
 73
     0
 90
        0
 40
0.6
 41
30.0
 62
     5
 63
     7
 74
     1
 91
        4
 64
     7
 65
   257
 75
     1
175
     1
 42
1.0
 92
        0
 66
   257
 43
1.0
 76
     1
 77
     6
 78
     2
 67
     7
 79
     5
170
     0
171
     0
290
     0
174
     0
 93
        1
 44
0.0
173
     0
291
     0
 45
0.0
1001
ACAD
1000
AcDbSavedByObjectVersion
1070
     0
  0
VISUALSTYLE
  5
32
102
{ACAD_REACTORS
330
2A
102
}
102
{ACAD_XDICTIONARY
360
4CE
102
}
330
2A
100
AcDbVisualStyle
  2
Basic
 70
     7
 71
     1
 72
     0
 73
     1
 90
        0
 40
0.6
 41
30.0
 62
     5
 63
     7
 74
     0
 91
        4
 64
     7
 65
   257
 75
     1
175
     1
 42
1.0
 92
        8
 66
     7
 43
1.0
 76
     1
 77
     6
 78
     2
 67
     7
 79
     5
170
     0
171
     0
290
     0
174
     0
 93
        1
 44
0.0
173
     0
291
     1
 45
0.0
1001
ACAD
1000
AcDbSavedByObjectVersion
1070
     0
  0
VISUALSTYLE
  5
36
102
{ACAD_REACTORS
330
2A
102
}
102
{ACAD_XDICTIONARY
360
4D6
102
}
330
2A
100
AcDbVisualStyle
  2
Brighten
 70
    12
 71
     2
 72
     2
 73
     0
 90
        0
 40
0.6
 41
30.0
 62
     5
 63
     7
 74
     1
 91
        4
 64
     7
 65
   257
 75
     1
175
     1
 42
1.0
 92
        8
 66
     7
 43
1.0
 76
     1
 77
     6
 78
     2
 67
     7
 79
     5
170
     0
171
     0
290
     0
174
     0
 93
        1
 44
50.0
173
     0
291
     1
 45
0.0
1001
ACAD
1000
AcDbSavedByObjectVersion
1070
     0
  0
VISUALSTYLE
  5
3A
102
{ACAD_REACTORS
330
2A
102
}
102
{ACAD_XDICTIONARY
360
4DE
102
}
330
2A
100
AcDbVisualStyle
  2
ColorChange
 70
    16
 71
     2
 72
     2
 73
     3
 90
        0
 40
0.6
 41
30.0
 62
     5
 63
     8
 74
     1
 91
        4
 64
     7
 65
   257
 75
     1
175
     1
 42
1.0
 92
        8
 66
     8
 43
1.0
 76
     1
 77
     6
 78
     2
 67
     7
 79
     5
170
     0
171
     0
290
     0
174
     0
 93
        1
 44
0.0
173
     0
291
     1
 45
0.0
1001
ACAD
1000
AcDbSavedByObjectVersion
1070
     0
  0
VISUALSTYLE
  5
34
102
{ACAD_REACTORS
330
2A
102
}
102
{ACAD_XDICTIONARY
360
4D2
102
}
330
2A
100
AcDbVisualStyle
  2
Conceptual
 70
     9
 71
     3
 72
     2
 73
     0
 90
        0
 40
0.6
 41
30.0
 62
     5
 63
     7
 74
     2
 91
        2
 64
     7
 65
   257
 75
     1
175
     1
 42
179.0
 92
        8
 66
     7
 43
1.0
 76
     1
 77
     6
 78
     2
 67
     7
 79
     3
170
     0
171
     0
290
     0
174
     0
 93
        1
 44
0.0
173
     0
291
     0
 45
0.0
1001
ACAD
1000
AcDbSavedByObjectVersion
1070
     0
  0
VISUALSTYLE
  5
35
102
{ACAD_REACTORS
330
2A
102
}
102
{ACAD_XDICTIONARY
360
4D4
102
}
330
2A
100
AcDbVisualStyle
  2
Dim
 70
    11
 71
     2
 72
     2
 73
     0
 90
        0
 40
0.6
 41
30.0
 62
     5
 63
     7
 74
     1
 91
        4
 64
     7
 65
   257
 75
     1
175
     1
 42
1.0
 92
        8
 66
     7
 43
1.0
 76
     1
 77
     6
 78
     2
 67
     7
 79
     5
170
     0
171
     0
290
     0
174
     0
 93
        1
 44
-50.0
173
     0
291
     1
 45
0.0
1001
ACAD
1000
AcDbSavedByObjectVersion
1070
     0
  0
VISUALSTYLE
  5
3D
102
{ACAD_REACTORS
330
2A
102
}
102
{ACAD_XDICTIONARY
360
4E4
102
}
330
2A
100
AcDbVisualStyle
  2
EdgeColorOff
 70
    22
 71
     2
 72
     2
 73
     0
 90
        0
 40
0.6
 41
30.0
 62
     5
 63
     7
 74
     1
 91
        4
 64
     7
 65
   257
 75
     1
175
     1
 42
1.0
 92
        8
 66
     7
 43
1.0
 76
     1
 77
     6
 78
     2
 67
     7
 79
     5
170
     0
171
     0
290
     0
174
     0
 93
        1
 44
0.0
173
     0
291
     1
 45
0.0
1001
ACAD
1000
AcDbSavedByObjectVersion
1070
     0
  0
VISUALSTYLE
  5
39
102
{ACAD_REACTORS
330
2A
102
}
102
{ACAD_XDICTIONARY
360
4DC
102
}
330
2A
100
AcDbVisualStyle
  2
Facepattern
 70
    15
 71
     2
 72
     2
 73
     0
 90
        0
 40
0.6
 41
30.0
 62
     5
 63
     7
 74
     1
 91
        4
 64
     7
 65
   257
 75
     1
175
     1
 42
1.0
 92
        8
 66
     7
 43
1.0
 76
     1
 77
     6
 78
     2
 67
     7
 79
     5
170
     0
171
     0
290
     0
174
     0
 93
        1
 44
0.0
173
     0
291
     1
 45
0.0
1001
ACAD
1000
AcDbSavedByObjectVersion
1070
     0
  0
VISUALSTYLE
  5
2B
102
{ACAD_REACTORS
330
2A
102
}
102
{ACAD_XDICTIONARY
360
4C0
102
}
330
2A
100
AcDbVisualStyle
  2
Flat
 70
     0
 71
     2
 72
     1
 73
     1
 90
        2
 40
0.6
 41
30.0
 62
     5
 63
     7
 74
     0
 91
        0
 64
     7
 65
   257
 75
     1
175
     1
 42
1.0
 92
        8
 66
     7
 43
1.0
 76
     1
 77
     6
 78
     2
 67
     7
 79
     5
170
     0
171
     0
290
     0
174
     0
 93
       13
 44
0.0
173
     0
291
     1
 45
0.0
1001
ACAD
1000
AcDbSavedByObjectVersion
1070
     0
  0
VISUALSTYLE
  5
2C
102
{ACAD_REACTORS
330
2A
102
}
102
{ACAD_XDICTIONARY
360
4C2
102
}
330
2A
100
AcDbVisualStyle
  2
FlatWithEdges
 70
     1
 71
     2
 72
     1
 73
     1
 90
        2
 40
0.6
 41
30.0
 62
     5
 63
     7
 74
     1
 91
        0
 64
     7
 65
   257
 75
     1
175
     1
 42
1.0
 92
        0
 66
   257
 43
1.0
 76
     1
 77
     6
 78
     2
 67
     7
 79
     5
170
     0
171
     0
290
     0
174
     0
 93
       13
 44
0.0
173
     0
291
     1
 45
0.0
1001
ACAD
1000
AcDbSavedByObjectVersion
1070
     0
  0
VISUALSTYLE
  5
2D
102
{ACAD_REACTORS
330
2A
102
}
102
{ACAD_XDICTIONARY
360
4C4
102
}
330
2A
100
AcDbVisualStyle
  2
Gouraud
 70
     2
 71
     2
 72
     2
 73
     1
 90
        2
 40
0.6
 41
30.0
 62
     5
 63
     7
 74
     0
 91
        0
 64
     7
 65
   257
 75
     1
175
     1
 42
1.0
 92
        0
 66
     7
 43
1.0
 76
     1
 77
     6
 78
     2
 67
     7
 79
     5
170
     0
171
     0
290
     0
174
     0
 93
       13
 44
0.0
173
     0
291
     1
 45
0.0
1001
ACAD
1000
AcDbSavedByObjectVersion
1070
     0
  0
VISUALSTYLE
  5
2E
102
{ACAD_REACTORS
330
2A
102
}
102
{ACAD_XDICTIONARY
360
4C6
102
}
330
2A
100
AcDbVisualStyle
  2
GouraudWithEdges
 70
     3
 71
     2
 72
     2
 73
     1
 90
        2
 40
0.6
 41
30.0
 62
     5
 63
     7
 74
     1
 91
        0
 64
     7
 65
   257
 75
     1
175
     1
 42
1.0
 92
        0
 66
   257
 43
1.0
 76
     1
 77
     6
 78
     2
 67
     7
 79
     5
170
     0
171
     0
290
     0
174
     0
 93
       13
 44
0.0
173
     0
291
     1
 45
0.0
1001
ACAD
1000
AcDbSavedByObjectVersion
1070
     0
  0
VISUALSTYLE
  5
31
102
{ACAD_REACTORS
330
2A
102
}
102
{ACAD_XDICTIONARY
360
4CC
102
}
330
2A
100
AcDbVisualStyle
  2
Hidden
 70
     6
 71
     1
 72
     2
 73
     2
 90
        0
 40
0.6
 41
30.0
 62
     5
 63
     7
 74
     2
 91
        2
 64
     7
 65
   257
 75
     2
175
     1
 42
40.0
 92
        0
 66
   257
 43
1.0
 76
     1
 77
     6
 78
     2
 67
     7
 79
     3
170
     0
171
     0
290
     0
174
     0
 93
        1
 44
0.0
173
     0
291
     0
 45
0.0
1001
ACAD
1000
AcDbSavedByObjectVersion
1070
     0
  0
VISUALSTYLE
  5
3B
102
{ACAD_REACTORS
330
2A
102
}
102
{ACAD_XDICTIONARY
360
4E0
102
}
330
2A
100
AcDbVisualStyle
  2
JitterOff
 70
    20
 71
     2
 72
     2
 73
     0
 90
        0
 40
0.6
 41
30.0
 62
     5
 63
     7
 74
     1
 91
        4
 64
     7
 65
   257
 75
     1
175
     1
 42
1.0
 92
       10
 66
     7
 43
1.0
 76
     1
 77
     6
 78
     2
 67
     7
 79
     5
170
     0
171
     0
290
     0
174
     0
 93
        1
 44
0.0
173
     0
291
     1
 45
0.0
1001
ACAD
1000
AcDbSavedByObjectVersion
1070
     0
  0
VISUALSTYLE
  5
38
102
{ACAD_REACTORS
330
2A
102
}
102
{ACAD_XDICTIONARY
360
4DA
102
}
330
2A
100
AcDbVisualStyle
  2
Linepattern
 70
    14
 71
     2
 72
     2
 73
     0
 90
        0
 40
0.6
 41
30.0
 62
     5
 63
     7
 74
     1
 91
        4
 64
     7
 65
   257
 75
     7
175
     7
 42
1.0
 92
        8
 66
     7
 43
1.0
 76
     1
 77
     6
 78
     2
 67
     7
 79
     5
170
     0
171
     0
290
     0
174
     0
 93
        1
 44
0.0
173
     0
291
     1
 45
0.0
1001
ACAD
1000
AcDbSavedByObjectVersion
1070
     0
  0
VISUALSTYLE
  5
3C
102
{ACAD_REACTORS
330
2A
102
}
102
{ACAD_XDICTIONARY
360
4E2
102
}
330
2A
100
AcDbVisualStyle
  2
OverhangOff
 70
    21
 71
     2
 72
     2
 73
     0
 90
        0
 40
0.6
 41
30.0
 62
     5
 63
     7
 74
     1
 91
        4
 64
     7
 65
   257
 75
     1
175
     1
 42
1.0
 92
        9
 66
     7
 43
1.0
 76
     1
 77
     6
 78
     2
 67
     7
 79
     5
170
     0
171
     0
290
     0
174
     0
 93
        1
 44
0.0
173
     0
291
     1
 45
0.0
1001
ACAD
1000
AcDbSavedByObjectVersion
1070
     0
  0
VISUALSTYLE
  5
33
102
{ACAD_REACTORS
330
2A
102
}
102
{ACAD_XDICTIONARY
360
4D0
102
}
330
2A
100
AcDbVisualStyle
  2
Realistic
 70
     8
 71
     2
 72
     3
 73
     0
 90
        2
 40
0.6
 41
30.0
 62
     5
 63
     7
 74
     0
 91
        0
 64
     7
 65
   257
 75
     1
175
     1
 42
1.0
 92
        8
 66
   257
 43
1.0
 76
     1
 77
     6
 78
     2
 67
     7
 79
     3
170
     0
171
     0
290
     0
174
     0
 93
       13
 44
0.0
173
     0
291
     0
 45
0.0
1001
ACAD
1000
AcDbSavedByObjectVersion
1070
     0
  0
VISUALSTYLE
  5
42
102
{ACAD_REACTORS
330
2A
102
}
102
{ACAD_XDICTIONARY
360
4EE
102
}
330
2A
100
AcDbVisualStyle
  2
Shaded
 70
    27
 71
     2
 72
     2
 73
     1
 90
        2
 40
0.6
 41
30.0
 62
     5
 63
     7
 74
     0
 91
        4
 64
     7
 65
   257
 75
     1
175
     1
 42
1.0
 92
        8
 66
   257
 43
1.0
 76
     1
 77
     6
 78
     2
 67
     8
 79
     3
170
     0
171
     0
290
     0
174
     0
 93
        5
 44
0.0
173
     0
291
     0
 45
0.0
1001
ACAD
1000
AcDbSavedByObjectVersion
1070
     0
  0
VISUALSTYLE
  5
41
102
{ACAD_REACTORS
330
2A
102
}
102
{ACAD_XDICTIONARY
360
4EC
102
}
330
2A
100
AcDbVisualStyle
  2
Shaded with edges
 70
    26
 71
     2
 72
     2
 73
     1
 90
        2
 40
0.6
 41
30.0
 62
     5
 63
     7
 74
     1
 91
       10
 64
     7
 65
   257
 75
     2
175
     1
 42
1.0
 92
        8
 66
   257
 43
1.0
 76
     1
 77
     6
 78
     2
 67
     7
 79
     3
170
     0
171
     0
290
     0
174
     0
 93
        5
 44
0.0
173
     0
291
     0
 45
0.0
1001
ACAD
1000
AcDbSavedByObjectVersion
1070
     0
  0
VISUALSTYLE
  5
3E
102
{ACAD_REACTORS
330
2A
102
}
102
{ACAD_XDICTIONARY
360
4E6
102
}
330
2A
100
AcDbVisualStyle
  2
Shades of Gray
 70
    23
 71
     2
 72
     2
 73
     3
 90
        0
 40
0.6
 41
30.0
 62
     5
 63
     7
 74
     2
 91
        2
 64
     7
 65
     7
 75
     1
175
     1
 42
40.0
 92
        8
 66
     7
 43
1.0
 76
     1
 77
     6
 78
     2
 67
     7
 79
     3
170
     0
171
     0
290
     0
174
     0
 93
        1
 44
0.0
173
     0
291
     0
 45
0.0
1001
ACAD
1000
AcDbSavedByObjectVersion
1070
     0
  0
VISUALSTYLE
  5
3F
102
{ACAD_REACTORS
330
2A
102
}
102
{ACAD_XDICTIONARY
360
4E8
102
}
330
2A
100
AcDbVisualStyle
  2
Sketchy
 70
    24
 71
     1
 72
     2
 73
     2
 90
        0
 40
0.6
 41
30.0
 62
     5
 63
     7
 74
     2
 91
        2
 64
     7
 65
     7
 75
     1
175
     1
 42
40.0
 92
       11
 66
     7
 43
1.0
 76
     1
 77
     6
 78
     2
 67
     7
 79
     6
170
     0
171
     0
290
     0
174
     0
 93
        1
 44
0.0
173
     0
291
     0
 45
0.0
1001
ACAD
1000
AcDbSavedByObjectVersion
1070
     0
  0
VISUALSTYLE
  5
37
102
{ACAD_REACTORS
330
2A
102
}
102
{ACAD_XDICTIONARY
360
4D8
102
}
330
2A
100
AcDbVisualStyle
  2
Thicken
 70
    13
 71
     2
 72
     2
 73
     0
 90
        0
 40
0.6
 41
30.0
 62
     5
 63
     7
 74
     1
 91
        4
 64
     7
 65
   257
 75
     1
175
     1
 42
1.0
 92
       12
 66
     7
 43
1.0
 76
     1
 77
     6
 78
     2
 67
     7
 79
     5
170
     0
171
     0
290
     0
174
     0
 93
        1
 44
0.0
173
     0
291
     1
 45
0.0
1001
ACAD
1000
AcDbSavedByObjectVersion
1070
     0
  0
VISUALSTYLE
  5
30
102
{ACAD_REACTORS
330
2A
102
}
102
{ACAD_XDICTIONARY
360
4CA
102
}
330
2A
100
AcDbVisualStyle
  2
Wireframe
 70
     5
 71
     0
 72
     2
 73
     0
 90
        0
 40
0.6
 41
30.0
 62
     5
 63
     7
 74
     1
 91
        4
 64
     7
 65
   257
 75
     1
175
     1
 42
1.0
 92
        0
 66
   257
 43
1.0
 76
     1
 77
     6
 78
     2
 67
     7
 79
     3
170
     0
171
     0
290
     0
174
     0
 93
        1
 44
0.0
173
     0
291
     0
 45
0.0
1001
ACAD
1000
AcDbSavedByObjectVersion
1070
     0
  0
VISUALSTYLE
  5
40
102
{ACAD_REACTORS
330
2A
102
}
102
{ACAD_XDICTIONARY
360
4EA
102
}
330
2A
100
AcDbVisualStyle
  2
X-Ray
 70
    25
 71
     2
 72
     2
 73
     1
 90
        1
 40
0.5
 41
30.0
 62
     5
 63
     7
 74
     1
 91
        0
 64
     7
 65
   257
 75
     1
175
     1
 42
1.0
 92
        8
 66
     7
 43
1.0
 76
     1
 77
     6
 78
     2
 67
     7
 79
     3
170
     0
171
     0
290
     0
174
     0
 93
       13
 44
0.0
173
     0
291
     0
 45
0.0
1001
ACAD
1000
AcDbSavedByObjectVersion
1070
     0
  0
DICTIONARYVAR
  5
4BE
102
{ACAD_REACTORS
330
4B5
102
}
330
4B5
100
DictionaryVariables
280
     0
  1
1:1
  0
DICTIONARYVAR
  5
4B7
102
{ACAD_REACTORS
330
4B5
102
}
330
4B5
100
DictionaryVariables
280
     0
  1
Standard
  0
DICTIONARYVAR
  5
4B6
102
{ACAD_REACTORS
330
4B5
102
}
330
4B5
100
DictionaryVariables
280
     0
  1
Standard
  0
DICTIONARYVAR
  5
4BA
102
{ACAD_REACTORS
330
4B5
102
}
330
4B5
100
DictionaryVariables
280
     0
  1
2
  0
DICTIONARYVAR
  5
4BB
102
{ACAD_REACTORS
330
4B5
102
}
330
4B5
100
DictionaryVariables
280
     0
  1
1
  0
DICTIONARYVAR
  5
4BF
102
{ACAD_REACTORS
330
4B5
102
}
330
4B5
100
DictionaryVariables
280
     0
  1
1
  0
DICTIONARY
  5
4F2
330
45
100
AcDbDictionary
280
     1
281
     1
  3
ACAD_XREC_ROUNDTRIP
360
4F3
  0
DICTIONARY
  5
4F0
330
44
100
AcDbDictionary
280
     1
281
     1
  3
ACAD_XREC_ROUNDTRIP
360
4F1
  0
DICTIONARY
  5
4F4
330
46
100
AcDbDictionary
280
     1
281
     1
  3
ACAD_XREC_ROUNDTRIP
360
4F5
  0
DICTIONARY
  5
4F7
330
6C
100
AcDbDictionary
280
     1
281
     1
  3
ACAD_XREC_ROUNDTRIP
360
4F8
  0
DICTIONARY
  5
4C8
330
2F
100
AcDbDictionary
280
     1
281
     1
  3
ACAD_XREC_ROUNDTRIP
360
4C9
  0
DICTIONARY
  5
4CE
330
32
100
AcDbDictionary
280
     1
281
     1
  3
ACAD_XREC_ROUNDTRIP
360
4CF
  0
DICTIONARY
  5
4D6
330
36
100
AcDbDictionary
280
     1
281
     1
  3
ACAD_XREC_ROUNDTRIP
360
4D7
  0
DICTIONARY
  5
4DE
330
3A
100
AcDbDictionary
280
     1
281
     1
  3
ACAD_XREC_ROUNDTRIP
360
4DF
  0
DICTIONARY
  5
4D2
330
34
100
AcDbDictionary
280
     1
281
     1
  3
ACAD_XREC_ROUNDTRIP
360
4D3
  0
DICTIONARY
  5
4D4
330
35
100
AcDbDictionary
280
     1
281
     1
  3
ACAD_XREC_ROUNDTRIP
360
4D5
  0
DICTIONARY
  5
4E4
330
3D
100
AcDbDictionary
280
     1
281
     1
  3
ACAD_XREC_ROUNDTRIP
360
4E5
  0
DICTIONARY
  5
4DC
330
39
100
AcDbDictionary
280
     1
281
     1
  3
ACAD_XREC_ROUNDTRIP
360
4DD
  0
DICTIONARY
  5
4C0
330
2B
100
AcDbDictionary
280
     1
281
     1
  3
ACAD_XREC_ROUNDTRIP
360
4C1
  0
DICTIONARY
  5
4C2
330
2C
100
AcDbDictionary
280
     1
281
     1
  3
ACAD_XREC_ROUNDTRIP
360
4C3
  0
DICTIONARY
  5
4C4
330
2D
100
AcDbDictionary
280
     1
281
     1
  3
ACAD_XREC_ROUNDTRIP
360
4C5
  0
DICTIONARY
  5
4C6
330
2E
100
AcDbDictionary
280
     1
281
     1
  3
ACAD_XREC_ROUNDTRIP
360
4C7
  0
DICTIONARY
  5
4CC
330
31
100
AcDbDictionary
280
     1
281
     1
  3
ACAD_XREC_ROUNDTRIP
360
4CD
  0
DICTIONARY
  5
4E0
330
3B
100
AcDbDictionary
280
     1
281
     1
  3
ACAD_XREC_ROUNDTRIP
360
4E1
  0
DICTIONARY
  5
4DA
330
38
100
AcDbDictionary
280
     1
281
     1
  3
ACAD_XREC_ROUNDTRIP
360
4DB
  0
DICTIONARY
  5
4E2
330
3C
100
AcDbDictionary
280
     1
281
     1
  3
ACAD_XREC_ROUNDTRIP
360
4E3
  0
DICTIONARY
  5
4D0
330
33
100
AcDbDictionary
280
     1
281
     1
  3
ACAD_XREC_ROUNDTRIP
360
4D1
  0
DICTIONARY
  5
4EE
330
42
100
AcDbDictionary
280
     1
281
     1
  3
ACAD_XREC_ROUNDTRIP
360
4EF
  0
DICTIONARY
  5
4EC
330
41
100
AcDbDictionary
280
     1
281
     1
  3
ACAD_XREC_ROUNDTRIP
360
4ED
  0
DICTIONARY
  5
4E6
330
3E
100
AcDbDictionary
280
     1
281
     1
  3
ACAD_XREC_ROUNDTRIP
360
4E7
  0
DICTIONARY
  5
4E8
330
3F
100
AcDbDictionary
280
     1
281
     1
  3
ACAD_XREC_ROUNDTRIP
360
4E9
  0
DICTIONARY
  5
4D8
330
37
100
AcDbDictionary
280
     1
281
     1
  3
ACAD_XREC_ROUNDTRIP
360
4D9
  0
DICTIONARY
  5
4CA
330
30
100
AcDbDictionary
280
     1
281
     1
  3
ACAD_XREC_ROUNDTRIP
360
4CB
  0
DICTIONARY
  5
4EA
330
40
100
AcDbDictionary
280
     1
281
     1
  3
ACAD_XREC_ROUNDTRIP
360
4EB
  0
XRECORD
  5
4F3
102
{ACAD_REACTORS
330
4F2
102
}
330
4F2
100
AcDbXrecord
280
     1
102
MATERIAL
148
0.0
149
0.0
149
0.0
 93
        0
 94
      127
282
     0
 72
     1
 77
     1
171
     1
175
     1
179
     1
273
     0
  0
XRECORD
  5
4F1
102
{ACAD_REACTORS
330
4F0
102
}
330
4F0
100
AcDbXrecord
280
     1
102
MATERIAL
148
0.0
149
0.0
149
0.0
 93
        0
 94
      127
282
     0
 72
     1
 77
     1
171
     1
175
     1
179
     1
273
     0
  0
XRECORD
  5
4F5
102
{ACAD_REACTORS
330
4F4
102
}
330
4F4
100
AcDbXrecord
280
     1
102
MATERIAL
148
0.0
149
0.0
149
0.0
 93
        0
 94
      127
282
     0
 72
     1
 77
     1
171
     1
175
     1
179
     1
273
     0
  0
XRECORD
  5
4F8
102
{ACAD_REACTORS
330
4F7
102
}
330
4F7
100
AcDbXrecord
280
     1
102
ACAD_ROUNDTRIP_2010_MLEADER_STYLE
  0
XRECORD
  5
4C9
102
{ACAD_REACTORS
330
4C8
102
}
330
4C8
100
AcDbXrecord
280
     1
102
RTVSPropertyOp0
 70
     1
102
RTVSPropertyOp1
 70
     1
102
RTVSPropertyOp2
 70
     1
102
RTVSPropertyOp3
 70
     1
102
RTVSPropertyOp4
 70
     1
102
RTVSPropertyOp5
 70
     1
102
RTVSPropertyOp6
 70
     1
102
RTVSPropertyOp7
 70
     1
102
RTVSPropertyOp8
 70
     1
102
RTVSPropertyOp9
 70
     1
102
RTVSPropertyOp10
 70
     1
102
RTVSPropertyOp11
 70
     1
102
RTVSPropertyOp12
 70
     1
102
RTVSPropertyOp13
 70
     1
102
RTVSPropertyOp14
 70
     1
102
RTVSPropertyOp15
 70
     1
102
RTVSPropertyOp16
 70
     1
102
RTVSPropertyOp17
 70
     1
102
RTVSPropertyOp18
 70
     1
102
RTVSPropertyOp19
 70
     1
102
RTVSPropertyOp20
 70
     1
102
RTVSPropertyOp21
 70
     1
102
RTVSPropertyOp22
 70
     1
102
RTVSPropertyOp23
 70
     1
102
RTVSPropertyOp24
 70
     1
102
RTVSPropertyOp25
 70
     1
102
RTVSPropertyOp26
 70
     1
102
RTVSPropertyOp27
 70
     1
102
RTVSPropertyOp28
 70
     1
102
RTVSPropertyOp29
 70
     1
102
RTVSPropertyOp30
 70
     1
102
RTVSPropertyOp31
 70
     1
102
RTVSPropertyOp32
 70
     1
102
RTVSPropertyOp33
 70
     1
102
RTVSPropertyOp34
 70
     1
102
RTVSPropertyOp35
 70
     1
102
RTVSPropertyOp36
 70
     1
102
RTVSPropertyOp37
 70
     1
102
RTVSPropertyOp38
 70
     1
102
RTVSPropertyOp39
 70
     1
102
RTVSPropertyOp40
 70
     1
102
RTVSPropertyOp41
 70
     1
102
RTVSPropertyOp42
 70
     1
102
RTVSPropertyOp43
 70
     1
102
RTVSPropertyOp44
 70
     1
102
RTVSPropertyOp45
 70
     1
102
RTVSPropertyOp46
 70
     1
102
RTVSPropertyOp47
 70
     1
102
RTVSPropertyOp48
 70
     1
102
RTVSPropertyOp49
 70
     1
102
RTVSPropertyOp50
 70
     1
102
RTVSPropertyOp51
 70
     0
102
RTVSPropertyOp52
 70
     0
102
RTVSPropertyOp53
 70
     1
102
RTVSPropertyOp54
 70
     1
102
RTVSPropertyOp55
 70
     1
102
RTVSPropertyOp56
 70
     1
102
RTVSPropertyOp57
 70
     1
102
RTVSPost2010Prop28
280
     1
102
RTVSPost2010PropOp28
 70
     1
102
RTVSPost2010Prop29
280
     1
102
RTVSPost2010PropOp29
 70
     1
102
RTVSPost2010Prop30
280
     0
102
RTVSPost2010PropOp30
 70
     1
102
RTVSPost2010Prop31
280
     0
102
RTVSPost2010PropOp31
 70
     1
102
RTVSPost2010Prop32
280
     0
102
RTVSPost2010PropOp32
 70
     1
102
RTVSPost2010Prop33
280
     0
102
RTVSPost2010PropOp33
 70
     1
102
RTVSPost2010Prop34
280
     0
102
RTVSPost2010PropOp34
 70
     1
102
RTVSPost2010Prop35
280
     0
102
RTVSPost2010PropOp35
 70
     1
102
RTVSPost2010Prop36
280
     0
102
RTVSPost2010PropOp36
 70
     1
102
RTVSPost2010Prop37
 90
       50
102
RTVSPost2010PropOp37
 70
     1
102
RTVSPost2010Prop38
140
0.0
102
RTVSPost2010PropOp38
 70
     1
102
RTVSPost2010Prop39
140
1.0
102
RTVSPost2010PropOp39
 70
     1
102
RTVSPost2010Prop40
 90
        0
102
RTVSPost2010PropOp40
 70
     1
102
RTVSPost2010Prop41ColorIndex
 90
       18
102
RTVSPost2010Prop41ColorRGB
 90
        0
102
RTVSPost2010PropOp41
 70
     1
102
RTVSPost2010Prop42
 90
       50
102
RTVSPost2010PropOp42
 70
     1
102
RTVSPost2010Prop43
 90
        3
102
RTVSPost2010PropOp43
 70
     1
102
RTVSPost2010Prop44ColorIndex
 90
        5
102
RTVSPost2010Prop44ColorRGB
 90
      255
102
RTVSPost2010PropOp44
 70
     1
102
RTVSPost2010Prop45
280
     0
102
RTVSPost2010PropOp45
 70
     1
102
RTVSPost2010Prop46
 90
       50
102
RTVSPost2010PropOp46
 70
     1
102
RTVSPost2010Prop47
 90
       50
102
RTVSPost2010PropOp47
 70
     1
102
RTVSPost2010Prop48
 90
       50
102
RTVSPost2010PropOp48
 70
     1
102
RTVSPost2010Prop49
280
     0
102
RTVSPost2010PropOp49
 70
     1
102
RTVSPost2010Prop50
 90
       50
102
RTVSPost2010PropOp50
 70
     1
102
RTVSPost2010Prop51ColorIndex
 90
      256
102
RTVSPost2010Prop51ColorRGB
 90
-16777216
102
RTVSPost2010PropOp51
 70
     0
102
RTVSPost2010Prop52
140
1.0
102
RTVSPost2010PropOp52
 70
     0
102
RTVSPost2010Prop53
 90
        2
102
RTVSPost2010PropOp53
 70
     1
102
RTVSPost2010Prop54
  1
strokes_ogs.tif
102
RTVSPost2010PropOp54
 70
     1
102
RTVSPost2010Prop55
280
     0
102
RTVSPost2010PropOp55
 70
     1
102
RTVSPost2010Prop56
140
1.0
102
RTVSPost2010PropOp56
 70
     1
102
RTVSPost2010Prop57
140
1.0
102
RTVSPost2010PropOp57
 70
     1
  0
XRECORD
  5
4CF
102
{ACAD_REACTORS
330
4CE
102
}
330
4CE
100
AcDbXrecord
280
     1
102
RTVSPropertyOp0
 70
     1
102
RTVSPropertyOp1
 70
     1
102
RTVSPropertyOp2
 70
     1
102
RTVSPropertyOp3
 70
     1
102
RTVSPropertyOp4
 70
     1
102
RTVSPropertyOp5
 70
     1
102
RTVSPropertyOp6
 70
     1
102
RTVSPropertyOp7
 70
     1
102
RTVSPropertyOp8
 70
     1
102
RTVSPropertyOp9
 70
     1
102
RTVSPropertyOp10
 70
     1
102
RTVSPropertyOp11
 70
     1
102
RTVSPropertyOp12
 70
     1
102
RTVSPropertyOp13
 70
     1
102
RTVSPropertyOp14
 70
     1
102
RTVSPropertyOp15
 70
     1
102
RTVSPropertyOp16
 70
     1
102
RTVSPropertyOp17
 70
     1
102
RTVSPropertyOp18
 70
     1
102
RTVSPropertyOp19
 70
     1
102
RTVSPropertyOp20
 70
     1
102
RTVSPropertyOp21
 70
     1
102
RTVSPropertyOp22
 70
     1
102
RTVSPropertyOp23
 70
     1
102
RTVSPropertyOp24
 70
     1
102
RTVSPropertyOp25
 70
     1
102
RTVSPropertyOp26
 70
     1
102
RTVSPropertyOp27
 70
     1
102
RTVSPropertyOp28
 70
     1
102
RTVSPropertyOp29
 70
     1
102
RTVSPropertyOp30
 70
     1
102
RTVSPropertyOp31
 70
     1
102
RTVSPropertyOp32
 70
     1
102
RTVSPropertyOp33
 70
     1
102
RTVSPropertyOp34
 70
     1
102
RTVSPropertyOp35
 70
     1
102
RTVSPropertyOp36
 70
     1
102
RTVSPropertyOp37
 70
     1
102
RTVSPropertyOp38
 70
     1
102
RTVSPropertyOp39
 70
     1
102
RTVSPropertyOp40
 70
     1
102
RTVSPropertyOp41
 70
     1
102
RTVSPropertyOp42
 70
     1
102
RTVSPropertyOp43
 70
     1
102
RTVSPropertyOp44
 70
     1
102
RTVSPropertyOp45
 70
     1
102
RTVSPropertyOp46
 70
     1
102
RTVSPropertyOp47
 70
     1
102
RTVSPropertyOp48
 70
     1
102
RTVSPropertyOp49
 70
     1
102
RTVSPropertyOp50
 70
     1
102
RTVSPropertyOp51
 70
     0
102
RTVSPropertyOp52
 70
     0
102
RTVSPropertyOp53
 70
     1
102
RTVSPropertyOp54
 70
     1
102
RTVSPropertyOp55
 70
     1
102
RTVSPropertyOp56
 70
     1
102
RTVSPropertyOp57
 70
     1
102
RTVSPost2010Prop28
280
     0
102
RTVSPost2010PropOp28
 70
     1
102
RTVSPost2010Prop29
280
     1
102
RTVSPost2010PropOp29
 70
     1
102
RTVSPost2010Prop30
280
     1
102
RTVSPost2010PropOp30
 70
     1
102
RTVSPost2010Prop31
280
     0
102
RTVSPost2010PropOp31
 70
     1
102
RTVSPost2010Prop32
280
     0
102
RTVSPost2010PropOp32
 70
     1
102
RTVSPost2010Prop33
280
     0
102
RTVSPost2010PropOp33
 70
     1
102
RTVSPost2010Prop34
280
     0
102
RTVSPost2010PropOp34
 70
     1
102
RTVSPost2010Prop35
280
     0
102
RTVSPost2010PropOp35
 70
     1
102
RTVSPost2010Prop36
280
     0
102
RTVSPost2010PropOp36
 70
     1
102
RTVSPost2010Prop37
 90
       50
102
RTVSPost2010PropOp37
 70
     1
102
RTVSPost2010Prop38
140
0.0
102
RTVSPost2010PropOp38
 70
     1
102
RTVSPost2010Prop39
140
1.0
102
RTVSPost2010PropOp39
 70
     1
102
RTVSPost2010Prop40
 90
        0
102
RTVSPost2010PropOp40
 70
     1
102
RTVSPost2010Prop41ColorIndex
 90
       18
102
RTVSPost2010Prop41ColorRGB
 90
        0
102
RTVSPost2010PropOp41
 70
     1
102
RTVSPost2010Prop42
 90
       50
102
RTVSPost2010PropOp42
 70
     1
102
RTVSPost2010Prop43
 90
        3
102
RTVSPost2010PropOp43
 70
     1
102
RTVSPost2010Prop44ColorIndex
 90
        5
102
RTVSPost2010Prop44ColorRGB
 90
      255
102
RTVSPost2010PropOp44
 70
     1
102
RTVSPost2010Prop45
280
     0
102
RTVSPost2010PropOp45
 70
     1
102
RTVSPost2010Prop46
 90
       50
102
RTVSPost2010PropOp46
 70
     1
102
RTVSPost2010Prop47
 90
       50
102
RTVSPost2010PropOp47
 70
     1
102
RTVSPost2010Prop48
 90
       50
102
RTVSPost2010PropOp48
 70
     1
102
RTVSPost2010Prop49
280
     0
102
RTVSPost2010PropOp49
 70
     1
102
RTVSPost2010Prop50
 90
       50
102
RTVSPost2010PropOp50
 70
     1
102
RTVSPost2010Prop51ColorIndex
 90
      256
102
RTVSPost2010Prop51ColorRGB
 90
-16777216
102
RTVSPost2010PropOp51
 70
     0
102
RTVSPost2010Prop52
140
1.0
102
RTVSPost2010PropOp52
 70
     0
102
RTVSPost2010Prop53
 90
        2
102
RTVSPost2010PropOp53
 70
     1
102
RTVSPost2010Prop54
  1
strokes_ogs.tif
102
RTVSPost2010PropOp54
 70
     1
102
RTVSPost2010Prop55
280
     0
102
RTVSPost2010PropOp55
 70
     1
102
RTVSPost2010Prop56
140
1.0
102
RTVSPost2010PropOp56
 70
     1
102
RTVSPost2010Prop57
140
1.0
102
RTVSPost2010PropOp57
 70
     1
  0
XRECORD
  5
4D7
102
{ACAD_REACTORS
330
4D6
102
}
330
4D6
100
AcDbXrecord
280
     1
102
RTVSPropertyOp0
 70
     1
102
RTVSPropertyOp1
 70
     1
102
RTVSPropertyOp2
 70
     1
102
RTVSPropertyOp3
 70
     1
102
RTVSPropertyOp4
 70
     1
102
RTVSPropertyOp5
 70
     1
102
RTVSPropertyOp6
 70
     1
102
RTVSPropertyOp7
 70
     1
102
RTVSPropertyOp8
 70
     1
102
RTVSPropertyOp9
 70
     1
102
RTVSPropertyOp10
 70
     1
102
RTVSPropertyOp11
 70
     1
102
RTVSPropertyOp12
 70
     1
102
RTVSPropertyOp13
 70
     1
102
RTVSPropertyOp14
 70
     1
102
RTVSPropertyOp15
 70
     1
102
RTVSPropertyOp16
 70
     1
102
RTVSPropertyOp17
 70
     1
102
RTVSPropertyOp18
 70
     1
102
RTVSPropertyOp19
 70
     1
102
RTVSPropertyOp20
 70
     1
102
RTVSPropertyOp21
 70
     1
102
RTVSPropertyOp22
 70
     1
102
RTVSPropertyOp23
 70
     1
102
RTVSPropertyOp24
 70
     1
102
RTVSPropertyOp25
 70
     1
102
RTVSPropertyOp26
 70
     1
102
RTVSPropertyOp27
 70
     1
102
RTVSPropertyOp28
 70
     1
102
RTVSPropertyOp29
 70
     1
102
RTVSPropertyOp30
 70
     1
102
RTVSPropertyOp31
 70
     1
102
RTVSPropertyOp32
 70
     1
102
RTVSPropertyOp33
 70
     1
102
RTVSPropertyOp34
 70
     1
102
RTVSPropertyOp35
 70
     1
102
RTVSPropertyOp36
 70
     1
102
RTVSPropertyOp37
 70
     1
102
RTVSPropertyOp38
 70
     1
102
RTVSPropertyOp39
 70
     1
102
RTVSPropertyOp40
 70
     1
102
RTVSPropertyOp41
 70
     1
102
RTVSPropertyOp42
 70
     1
102
RTVSPropertyOp43
 70
     1
102
RTVSPropertyOp44
 70
     1
102
RTVSPropertyOp45
 70
     1
102
RTVSPropertyOp46
 70
     1
102
RTVSPropertyOp47
 70
     1
102
RTVSPropertyOp48
 70
     1
102
RTVSPropertyOp49
 70
     1
102
RTVSPropertyOp50
 70
     1
102
RTVSPropertyOp51
 70
     0
102
RTVSPropertyOp52
 70
     0
102
RTVSPropertyOp53
 70
     1
102
RTVSPropertyOp54
 70
     1
102
RTVSPropertyOp55
 70
     1
102
RTVSPropertyOp56
 70
     1
102
RTVSPropertyOp57
 70
     1
102
RTVSPost2010Prop28
280
     0
102
RTVSPost2010PropOp28
 70
     1
102
RTVSPost2010Prop29
280
     1
102
RTVSPost2010PropOp29
 70
     1
102
RTVSPost2010Prop30
280
     1
102
RTVSPost2010PropOp30
 70
     1
102
RTVSPost2010Prop31
280
     0
102
RTVSPost2010PropOp31
 70
     1
102
RTVSPost2010Prop32
280
     0
102
RTVSPost2010PropOp32
 70
     1
102
RTVSPost2010Prop33
280
     0
102
RTVSPost2010PropOp33
 70
     1
102
RTVSPost2010Prop34
280
     0
102
RTVSPost2010PropOp34
 70
     1
102
RTVSPost2010Prop35
280
     0
102
RTVSPost2010PropOp35
 70
     1
102
RTVSPost2010Prop36
280
     0
102
RTVSPost2010PropOp36
 70
     1
102
RTVSPost2010Prop37
 90
       50
102
RTVSPost2010PropOp37
 70
     1
102
RTVSPost2010Prop38
140
0.0
102
RTVSPost2010PropOp38
 70
     1
102
RTVSPost2010Prop39
140
1.0
102
RTVSPost2010PropOp39
 70
     1
102
RTVSPost2010Prop40
 90
        0
102
RTVSPost2010PropOp40
 70
     1
102
RTVSPost2010Prop41ColorIndex
 90
       18
102
RTVSPost2010Prop41ColorRGB
 90
        0
102
RTVSPost2010PropOp41
 70
     1
102
RTVSPost2010Prop42
 90
       50
102
RTVSPost2010PropOp42
 70
     1
102
RTVSPost2010Prop43
 90
        3
102
RTVSPost2010PropOp43
 70
     1
102
RTVSPost2010Prop44ColorIndex
 90
        5
102
RTVSPost2010Prop44ColorRGB
 90
      255
102
RTVSPost2010PropOp44
 70
     1
102
RTVSPost2010Prop45
280
     0
102
RTVSPost2010PropOp45
 70
     1
102
RTVSPost2010Prop46
 90
       50
102
RTVSPost2010PropOp46
 70
     1
102
RTVSPost2010Prop47
 90
       50
102
RTVSPost2010PropOp47
 70
     1
102
RTVSPost2010Prop48
 90
       50
102
RTVSPost2010PropOp48
 70
     1
102
RTVSPost2010Prop49
280
     0
102
RTVSPost2010PropOp49
 70
     1
102
RTVSPost2010Prop50
 90
       50
102
RTVSPost2010PropOp50
 70
     1
102
RTVSPost2010Prop51ColorIndex
 90
      256
102
RTVSPost2010Prop51ColorRGB
 90
-16777216
102
RTVSPost2010PropOp51
 70
     0
102
RTVSPost2010Prop52
140
1.0
102
RTVSPost2010PropOp52
 70
     0
102
RTVSPost2010Prop53
 90
        2
102
RTVSPost2010PropOp53
 70
     1
102
RTVSPost2010Prop54
  1
strokes_ogs.tif
102
RTVSPost2010PropOp54
 70
     1
102
RTVSPost2010Prop55
280
     0
102
RTVSPost2010PropOp55
 70
     1
102
RTVSPost2010Prop56
140
1.0
102
RTVSPost2010PropOp56
 70
     1
102
RTVSPost2010Prop57
140
1.0
102
RTVSPost2010PropOp57
 70
     1
  0
XRECORD
  5
4DF
102
{ACAD_REACTORS
330
4DE
102
}
330
4DE
100
AcDbXrecord
280
     1
102
RTVSPropertyOp0
 70
     1
102
RTVSPropertyOp1
 70
     1
102
RTVSPropertyOp2
 70
     1
102
RTVSPropertyOp3
 70
     1
102
RTVSPropertyOp4
 70
     1
102
RTVSPropertyOp5
 70
     1
102
RTVSPropertyOp6
 70
     1
102
RTVSPropertyOp7
 70
     1
102
RTVSPropertyOp8
 70
     1
102
RTVSPropertyOp9
 70
     1
102
RTVSPropertyOp10
 70
     1
102
RTVSPropertyOp11
 70
     1
102
RTVSPropertyOp12
 70
     1
102
RTVSPropertyOp13
 70
     1
102
RTVSPropertyOp14
 70
     1
102
RTVSPropertyOp15
 70
     1
102
RTVSPropertyOp16
 70
     1
102
RTVSPropertyOp17
 70
     1
102
RTVSPropertyOp18
 70
     1
102
RTVSPropertyOp19
 70
     1
102
RTVSPropertyOp20
 70
     1
102
RTVSPropertyOp21
 70
     1
102
RTVSPropertyOp22
 70
     1
102
RTVSPropertyOp23
 70
     1
102
RTVSPropertyOp24
 70
     1
102
RTVSPropertyOp25
 70
     1
102
RTVSPropertyOp26
 70
     1
102
RTVSPropertyOp27
 70
     1
102
RTVSPropertyOp28
 70
     1
102
RTVSPropertyOp29
 70
     1
102
RTVSPropertyOp30
 70
     1
102
RTVSPropertyOp31
 70
     1
102
RTVSPropertyOp32
 70
     1
102
RTVSPropertyOp33
 70
     1
102
RTVSPropertyOp34
 70
     1
102
RTVSPropertyOp35
 70
     1
102
RTVSPropertyOp36
 70
     1
102
RTVSPropertyOp37
 70
     1
102
RTVSPropertyOp38
 70
     1
102
RTVSPropertyOp39
 70
     1
102
RTVSPropertyOp40
 70
     1
102
RTVSPropertyOp41
 70
     1
102
RTVSPropertyOp42
 70
     1
102
RTVSPropertyOp43
 70
     1
102
RTVSPropertyOp44
 70
     1
102
RTVSPropertyOp45
 70
     1
102
RTVSPropertyOp46
 70
     1
102
RTVSPropertyOp47
 70
     1
102
RTVSPropertyOp48
 70
     1
102
RTVSPropertyOp49
 70
     1
102
RTVSPropertyOp50
 70
     1
102
RTVSPropertyOp51
 70
     0
102
RTVSPropertyOp52
 70
     0
102
RTVSPropertyOp53
 70
     1
102
RTVSPropertyOp54
 70
     1
102
RTVSPropertyOp55
 70
     1
102
RTVSPropertyOp56
 70
     1
102
RTVSPropertyOp57
 70
     1
102
RTVSPost2010Prop28
280
     0
102
RTVSPost2010PropOp28
 70
     1
102
RTVSPost2010Prop29
280
     1
102
RTVSPost2010PropOp29
 70
     1
102
RTVSPost2010Prop30
280
     1
102
RTVSPost2010PropOp30
 70
     1
102
RTVSPost2010Prop31
280
     0
102
RTVSPost2010PropOp31
 70
     1
102
RTVSPost2010Prop32
280
     0
102
RTVSPost2010PropOp32
 70
     1
102
RTVSPost2010Prop33
280
     0
102
RTVSPost2010PropOp33
 70
     1
102
RTVSPost2010Prop34
280
     0
102
RTVSPost2010PropOp34
 70
     1
102
RTVSPost2010Prop35
280
     0
102
RTVSPost2010PropOp35
 70
     1
102
RTVSPost2010Prop36
280
     0
102
RTVSPost2010PropOp36
 70
     1
102
RTVSPost2010Prop37
 90
       50
102
RTVSPost2010PropOp37
 70
     1
102
RTVSPost2010Prop38
140
0.0
102
RTVSPost2010PropOp38
 70
     1
102
RTVSPost2010Prop39
140
1.0
102
RTVSPost2010PropOp39
 70
     1
102
RTVSPost2010Prop40
 90
        0
102
RTVSPost2010PropOp40
 70
     1
102
RTVSPost2010Prop41ColorIndex
 90
       18
102
RTVSPost2010Prop41ColorRGB
 90
        0
102
RTVSPost2010PropOp41
 70
     1
102
RTVSPost2010Prop42
 90
       50
102
RTVSPost2010PropOp42
 70
     1
102
RTVSPost2010Prop43
 90
        3
102
RTVSPost2010PropOp43
 70
     1
102
RTVSPost2010Prop44ColorIndex
 90
        5
102
RTVSPost2010Prop44ColorRGB
 90
      255
102
RTVSPost2010PropOp44
 70
     1
102
RTVSPost2010Prop45
280
     0
102
RTVSPost2010PropOp45
 70
     1
102
RTVSPost2010Prop46
 90
       50
102
RTVSPost2010PropOp46
 70
     1
102
RTVSPost2010Prop47
 90
       50
102
RTVSPost2010PropOp47
 70
     1
102
RTVSPost2010Prop48
 90
       50
102
RTVSPost2010PropOp48
 70
     1
102
RTVSPost2010Prop49
280
     0
102
RTVSPost2010PropOp49
 70
     1
102
RTVSPost2010Prop50
 90
       50
102
RTVSPost2010PropOp50
 70
     1
102
RTVSPost2010Prop51ColorIndex
 90
      256
102
RTVSPost2010Prop51ColorRGB
 90
-16777216
102
RTVSPost2010PropOp51
 70
     0
102
RTVSPost2010Prop52
140
1.0
102
RTVSPost2010PropOp52
 70
     0
102
RTVSPost2010Prop53
 90
        2
102
RTVSPost2010PropOp53
 70
     1
102
RTVSPost2010Prop54
  1
strokes_ogs.tif
102
RTVSPost2010PropOp54
 70
     1
102
RTVSPost2010Prop55
280
     0
102
RTVSPost2010PropOp55
 70
     1
102
RTVSPost2010Prop56
140
1.0
102
RTVSPost2010PropOp56
 70
     1
102
RTVSPost2010Prop57
140
1.0
102
RTVSPost2010PropOp57
 70
     1
  0
XRECORD
  5
4D3
102
{ACAD_REACTORS
330
4D2
102
}
330
4D2
100
AcDbXrecord
280
     1
102
RTVSPropertyOp0
 70
     1
102
RTVSPropertyOp1
 70
     1
102
RTVSPropertyOp2
 70
     1
102
RTVSPropertyOp3
 70
     1
102
RTVSPropertyOp4
 70
     1
102
RTVSPropertyOp5
 70
     1
102
RTVSPropertyOp6
 70
     1
102
RTVSPropertyOp7
 70
     1
102
RTVSPropertyOp8
 70
     1
102
RTVSPropertyOp9
 70
     1
102
RTVSPropertyOp10
 70
     1
102
RTVSPropertyOp11
 70
     1
102
RTVSPropertyOp12
 70
     1
102
RTVSPropertyOp13
 70
     1
102
RTVSPropertyOp14
 70
     1
102
RTVSPropertyOp15
 70
     1
102
RTVSPropertyOp16
 70
     1
102
RTVSPropertyOp17
 70
     1
102
RTVSPropertyOp18
 70
     1
102
RTVSPropertyOp19
 70
     1
102
RTVSPropertyOp20
 70
     1
102
RTVSPropertyOp21
 70
     1
102
RTVSPropertyOp22
 70
     1
102
RTVSPropertyOp23
 70
     1
102
RTVSPropertyOp24
 70
     1
102
RTVSPropertyOp25
 70
     1
102
RTVSPropertyOp26
 70
     1
102
RTVSPropertyOp27
 70
     1
102
RTVSPropertyOp28
 70
     1
102
RTVSPropertyOp29
 70
     1
102
RTVSPropertyOp30
 70
     1
102
RTVSPropertyOp31
 70
     1
102
RTVSPropertyOp32
 70
     1
102
RTVSPropertyOp33
 70
     1
102
RTVSPropertyOp34
 70
     1
102
RTVSPropertyOp35
 70
     1
102
RTVSPropertyOp36
 70
     1
102
RTVSPropertyOp37
 70
     1
102
RTVSPropertyOp38
 70
     1
102
RTVSPropertyOp39
 70
     1
102
RTVSPropertyOp40
 70
     1
102
RTVSPropertyOp41
 70
     1
102
RTVSPropertyOp42
 70
     1
102
RTVSPropertyOp43
 70
     1
102
RTVSPropertyOp44
 70
     1
102
RTVSPropertyOp45
 70
     1
102
RTVSPropertyOp46
 70
     1
102
RTVSPropertyOp47
 70
     1
102
RTVSPropertyOp48
 70
     1
102
RTVSPropertyOp49
 70
     1
102
RTVSPropertyOp50
 70
     1
102
RTVSPropertyOp51
 70
     0
102
RTVSPropertyOp52
 70
     0
102
RTVSPropertyOp53
 70
     1
102
RTVSPropertyOp54
 70
     1
102
RTVSPropertyOp55
 70
     1
102
RTVSPropertyOp56
 70
     1
102
RTVSPropertyOp57
 70
     1
102
RTVSPost2010Prop28
280
     0
102
RTVSPost2010PropOp28
 70
     1
102
RTVSPost2010Prop29
280
     1
102
RTVSPost2010PropOp29
 70
     1
102
RTVSPost2010Prop30
280
     1
102
RTVSPost2010PropOp30
 70
     1
102
RTVSPost2010Prop31
280
     0
102
RTVSPost2010PropOp31
 70
     1
102
RTVSPost2010Prop32
280
     0
102
RTVSPost2010PropOp32
 70
     1
102
RTVSPost2010Prop33
280
     0
102
RTVSPost2010PropOp33
 70
     1
102
RTVSPost2010Prop34
280
     0
102
RTVSPost2010PropOp34
 70
     1
102
RTVSPost2010Prop35
280
     0
102
RTVSPost2010PropOp35
 70
     1
102
RTVSPost2010Prop36
280
     0
102
RTVSPost2010PropOp36
 70
     1
102
RTVSPost2010Prop37
 90
       50
102
RTVSPost2010PropOp37
 70
     1
102
RTVSPost2010Prop38
140
0.0
102
RTVSPost2010PropOp38
 70
     1
102
RTVSPost2010Prop39
140
1.0
102
RTVSPost2010PropOp39
 70
     1
102
RTVSPost2010Prop40
 90
        0
102
RTVSPost2010PropOp40
 70
     1
102
RTVSPost2010Prop41ColorIndex
 90
       18
102
RTVSPost2010Prop41ColorRGB
 90
        0
102
RTVSPost2010PropOp41
 70
     1
102
RTVSPost2010Prop42
 90
       50
102
RTVSPost2010PropOp42
 70
     1
102
RTVSPost2010Prop43
 90
        3
102
RTVSPost2010PropOp43
 70
     1
102
RTVSPost2010Prop44ColorIndex
 90
        5
102
RTVSPost2010Prop44ColorRGB
 90
      255
102
RTVSPost2010PropOp44
 70
     1
102
RTVSPost2010Prop45
280
     0
102
RTVSPost2010PropOp45
 70
     1
102
RTVSPost2010Prop46
 90
       50
102
RTVSPost2010PropOp46
 70
     1
102
RTVSPost2010Prop47
 90
       50
102
RTVSPost2010PropOp47
 70
     1
102
RTVSPost2010Prop48
 90
       50
102
RTVSPost2010PropOp48
 70
     1
102
RTVSPost2010Prop49
280
     0
102
RTVSPost2010PropOp49
 70
     1
102
RTVSPost2010Prop50
 90
       50
102
RTVSPost2010PropOp50
 70
     1
102
RTVSPost2010Prop51ColorIndex
 90
      256
102
RTVSPost2010Prop51ColorRGB
 90
-16777216
102
RTVSPost2010PropOp51
 70
     0
102
RTVSPost2010Prop52
140
1.0
102
RTVSPost2010PropOp52
 70
     0
102
RTVSPost2010Prop53
 90
        2
102
RTVSPost2010PropOp53
 70
     1
102
RTVSPost2010Prop54
  1
strokes_ogs.tif
102
RTVSPost2010PropOp54
 70
     1
102
RTVSPost2010Prop55
280
     0
102
RTVSPost2010PropOp55
 70
     1
102
RTVSPost2010Prop56
140
1.0
102
RTVSPost2010PropOp56
 70
     1
102
RTVSPost2010Prop57
140
1.0
102
RTVSPost2010PropOp57
 70
     1
  0
XRECORD
  5
4D5
102
{ACAD_REACTORS
330
4D4
102
}
330
4D4
100
AcDbXrecord
280
     1
102
RTVSPropertyOp0
 70
     1
102
RTVSPropertyOp1
 70
     1
102
RTVSPropertyOp2
 70
     1
102
RTVSPropertyOp3
 70
     1
102
RTVSPropertyOp4
 70
     1
102
RTVSPropertyOp5
 70
     1
102
RTVSPropertyOp6
 70
     1
102
RTVSPropertyOp7
 70
     1
102
RTVSPropertyOp8
 70
     1
102
RTVSPropertyOp9
 70
     1
102
RTVSPropertyOp10
 70
     1
102
RTVSPropertyOp11
 70
     1
102
RTVSPropertyOp12
 70
     1
102
RTVSPropertyOp13
 70
     1
102
RTVSPropertyOp14
 70
     1
102
RTVSPropertyOp15
 70
     1
102
RTVSPropertyOp16
 70
     1
102
RTVSPropertyOp17
 70
     1
102
RTVSPropertyOp18
 70
     1
102
RTVSPropertyOp19
 70
     1
102
RTVSPropertyOp20
 70
     1
102
RTVSPropertyOp21
 70
     1
102
RTVSPropertyOp22
 70
     1
102
RTVSPropertyOp23
 70
     1
102
RTVSPropertyOp24
 70
     1
102
RTVSPropertyOp25
 70
     1
102
RTVSPropertyOp26
 70
     1
102
RTVSPropertyOp27
 70
     1
102
RTVSPropertyOp28
 70
     1
102
RTVSPropertyOp29
 70
     1
102
RTVSPropertyOp30
 70
     1
102
RTVSPropertyOp31
 70
     1
102
RTVSPropertyOp32
 70
     1
102
RTVSPropertyOp33
 70
     1
102
RTVSPropertyOp34
 70
     1
102
RTVSPropertyOp35
 70
     1
102
RTVSPropertyOp36
 70
     1
102
RTVSPropertyOp37
 70
     1
102
RTVSPropertyOp38
 70
     1
102
RTVSPropertyOp39
 70
     1
102
RTVSPropertyOp40
 70
     1
102
RTVSPropertyOp41
 70
     1
102
RTVSPropertyOp42
 70
     1
102
RTVSPropertyOp43
 70
     1
102
RTVSPropertyOp44
 70
     1
102
RTVSPropertyOp45
 70
     1
102
RTVSPropertyOp46
 70
     1
102
RTVSPropertyOp47
 70
     1
102
RTVSPropertyOp48
 70
     1
102
RTVSPropertyOp49
 70
     1
102
RTVSPropertyOp50
 70
     1
102
RTVSPropertyOp51
 70
     0
102
RTVSPropertyOp52
 70
     0
102
RTVSPropertyOp53
 70
     1
102
RTVSPropertyOp54
 70
     1
102
RTVSPropertyOp55
 70
     1
102
RTVSPropertyOp56
 70
     1
102
RTVSPropertyOp57
 70
     1
102
RTVSPost2010Prop28
280
     0
102
RTVSPost2010PropOp28
 70
     1
102
RTVSPost2010Prop29
280
     1
102
RTVSPost2010PropOp29
 70
     1
102
RTVSPost2010Prop30
280
     1
102
RTVSPost2010PropOp30
 70
     1
102
RTVSPost2010Prop31
280
     0
102
RTVSPost2010PropOp31
 70
     1
102
RTVSPost2010Prop32
280
     0
102
RTVSPost2010PropOp32
 70
     1
102
RTVSPost2010Prop33
280
     0
102
RTVSPost2010PropOp33
 70
     1
102
RTVSPost2010Prop34
280
     0
102
RTVSPost2010PropOp34
 70
     1
102
RTVSPost2010Prop35
280
     0
102
RTVSPost2010PropOp35
 70
     1
102
RTVSPost2010Prop36
280
     0
102
RTVSPost2010PropOp36
 70
     1
102
RTVSPost2010Prop37
 90
       50
102
RTVSPost2010PropOp37
 70
     1
102
RTVSPost2010Prop38
140
0.0
102
RTVSPost2010PropOp38
 70
     1
102
RTVSPost2010Prop39
140
1.0
102
RTVSPost2010PropOp39
 70
     1
102
RTVSPost2010Prop40
 90
        0
102
RTVSPost2010PropOp40
 70
     1
102
RTVSPost2010Prop41ColorIndex
 90
       18
102
RTVSPost2010Prop41ColorRGB
 90
        0
102
RTVSPost2010PropOp41
 70
     1
102
RTVSPost2010Prop42
 90
       50
102
RTVSPost2010PropOp42
 70
     1
102
RTVSPost2010Prop43
 90
        3
102
RTVSPost2010PropOp43
 70
     1
102
RTVSPost2010Prop44ColorIndex
 90
        5
102
RTVSPost2010Prop44ColorRGB
 90
      255
102
RTVSPost2010PropOp44
 70
     1
102
RTVSPost2010Prop45
280
     0
102
RTVSPost2010PropOp45
 70
     1
102
RTVSPost2010Prop46
 90
       50
102
RTVSPost2010PropOp46
 70
     1
102
RTVSPost2010Prop47
 90
       50
102
RTVSPost2010PropOp47
 70
     1
102
RTVSPost2010Prop48
 90
       50
102
RTVSPost2010PropOp48
 70
     1
102
RTVSPost2010Prop49
280
     0
102
RTVSPost2010PropOp49
 70
     1
102
RTVSPost2010Prop50
 90
       50
102
RTVSPost2010PropOp50
 70
     1
102
RTVSPost2010Prop51ColorIndex
 90
      256
102
RTVSPost2010Prop51ColorRGB
 90
-16777216
102
RTVSPost2010PropOp51
 70
     0
102
RTVSPost2010Prop52
140
1.0
102
RTVSPost2010PropOp52
 70
     0
102
RTVSPost2010Prop53
 90
        2
102
RTVSPost2010PropOp53
 70
     1
102
RTVSPost2010Prop54
  1
strokes_ogs.tif
102
RTVSPost2010PropOp54
 70
     1
102
RTVSPost2010Prop55
280
     0
102
RTVSPost2010PropOp55
 70
     1
102
RTVSPost2010Prop56
140
1.0
102
RTVSPost2010PropOp56
 70
     1
102
RTVSPost2010Prop57
140
1.0
102
RTVSPost2010PropOp57
 70
     1
  0
XRECORD
  5
4E5
102
{ACAD_REACTORS
330
4E4
102
}
330
4E4
100
AcDbXrecord
280
     1
102
RTVSPropertyOp0
 70
     0
102
RTVSPropertyOp1
 70
     0
102
RTVSPropertyOp2
 70
     0
102
RTVSPropertyOp3
 70
     0
102
RTVSPropertyOp4
 70
     0
102
RTVSPropertyOp5
 70
     0
102
RTVSPropertyOp6
 70
     0
102
RTVSPropertyOp7
 70
     0
102
RTVSPropertyOp8
 70
     0
102
RTVSPropertyOp9
 70
     0
102
RTVSPropertyOp10
 70
     0
102
RTVSPropertyOp11
 70
     0
102
RTVSPropertyOp12
 70
     0
102
RTVSPropertyOp13
 70
     0
102
RTVSPropertyOp14
 70
     2
102
RTVSPropertyOp15
 70
     0
102
RTVSPropertyOp16
 70
     0
102
RTVSPropertyOp17
 70
     0
102
RTVSPropertyOp18
 70
     0
102
RTVSPropertyOp19
 70
     0
102
RTVSPropertyOp20
 70
     0
102
RTVSPropertyOp21
 70
     0
102
RTVSPropertyOp22
 70
     0
102
RTVSPropertyOp23
 70
     0
102
RTVSPropertyOp24
 70
     0
102
RTVSPropertyOp25
 70
     0
102
RTVSPropertyOp26
 70
     0
102
RTVSPropertyOp27
 70
     0
102
RTVSPropertyOp28
 70
     0
102
RTVSPropertyOp29
 70
     0
102
RTVSPropertyOp30
 70
     0
102
RTVSPropertyOp31
 70
     0
102
RTVSPropertyOp32
 70
     0
102
RTVSPropertyOp33
 70
     0
102
RTVSPropertyOp34
 70
     0
102
RTVSPropertyOp35
 70
     0
102
RTVSPropertyOp36
 70
     0
102
RTVSPropertyOp37
 70
     0
102
RTVSPropertyOp38
 70
     0
102
RTVSPropertyOp39
 70
     0
102
RTVSPropertyOp40
 70
     0
102
RTVSPropertyOp41
 70
     0
102
RTVSPropertyOp42
 70
     0
102
RTVSPropertyOp43
 70
     0
102
RTVSPropertyOp44
 70
     0
102
RTVSPropertyOp45
 70
     0
102
RTVSPropertyOp46
 70
     0
102
RTVSPropertyOp47
 70
     0
102
RTVSPropertyOp48
 70
     0
102
RTVSPropertyOp49
 70
     0
102
RTVSPropertyOp50
 70
     0
102
RTVSPropertyOp51
 70
     0
102
RTVSPropertyOp52
 70
     0
102
RTVSPropertyOp53
 70
     0
102
RTVSPropertyOp54
 70
     0
102
RTVSPropertyOp55
 70
     0
102
RTVSPropertyOp56
 70
     0
102
RTVSPropertyOp57
 70
     0
102
RTVSPost2010Prop28
280
     0
102
RTVSPost2010PropOp28
 70
     0
102
RTVSPost2010Prop29
280
     1
102
RTVSPost2010PropOp29
 70
     0
102
RTVSPost2010Prop30
280
     1
102
RTVSPost2010PropOp30
 70
     0
102
RTVSPost2010Prop31
280
     0
102
RTVSPost2010PropOp31
 70
     0
102
RTVSPost2010Prop32
280
     0
102
RTVSPost2010PropOp32
 70
     0
102
RTVSPost2010Prop33
280
     0
102
RTVSPost2010PropOp33
 70
     0
102
RTVSPost2010Prop34
280
     0
102
RTVSPost2010PropOp34
 70
     0
102
RTVSPost2010Prop35
280
     0
102
RTVSPost2010PropOp35
 70
     0
102
RTVSPost2010Prop36
280
     0
102
RTVSPost2010PropOp36
 70
     0
102
RTVSPost2010Prop37
 90
       50
102
RTVSPost2010PropOp37
 70
     0
102
RTVSPost2010Prop38
140
0.0
102
RTVSPost2010PropOp38
 70
     0
102
RTVSPost2010Prop39
140
1.0
102
RTVSPost2010PropOp39
 70
     0
102
RTVSPost2010Prop40
 90
        0
102
RTVSPost2010PropOp40
 70
     0
102
RTVSPost2010Prop41ColorIndex
 90
       18
102
RTVSPost2010Prop41ColorRGB
 90
        0
102
RTVSPost2010PropOp41
 70
     0
102
RTVSPost2010Prop42
 90
       50
102
RTVSPost2010PropOp42
 70
     0
102
RTVSPost2010Prop43
 90
        3
102
RTVSPost2010PropOp43
 70
     0
102
RTVSPost2010Prop44ColorIndex
 90
        5
102
RTVSPost2010Prop44ColorRGB
 90
      255
102
RTVSPost2010PropOp44
 70
     0
102
RTVSPost2010Prop45
280
     0
102
RTVSPost2010PropOp45
 70
     0
102
RTVSPost2010Prop46
 90
       50
102
RTVSPost2010PropOp46
 70
     0
102
RTVSPost2010Prop47
 90
       50
102
RTVSPost2010PropOp47
 70
     0
102
RTVSPost2010Prop48
 90
       50
102
RTVSPost2010PropOp48
 70
     0
102
RTVSPost2010Prop49
280
     0
102
RTVSPost2010PropOp49
 70
     0
102
RTVSPost2010Prop50
 90
       50
102
RTVSPost2010PropOp50
 70
     0
102
RTVSPost2010Prop51ColorIndex
 90
      256
102
RTVSPost2010Prop51ColorRGB
 90
-16777216
102
RTVSPost2010PropOp51
 70
     0
102
RTVSPost2010Prop52
140
1.0
102
RTVSPost2010PropOp52
 70
     0
102
RTVSPost2010Prop53
 90
        2
102
RTVSPost2010PropOp53
 70
     0
102
RTVSPost2010Prop54
  1
strokes_ogs.tif
102
RTVSPost2010PropOp54
 70
     0
102
RTVSPost2010Prop55
280
     0
102
RTVSPost2010PropOp55
 70
     0
102
RTVSPost2010Prop56
140
1.0
102
RTVSPost2010PropOp56
 70
     0
102
RTVSPost2010Prop57
140
1.0
102
RTVSPost2010PropOp57
 70
     0
  0
XRECORD
  5
4DD
102
{ACAD_REACTORS
330
4DC
102
}
330
4DC
100
AcDbXrecord
280
     1
102
RTVSPropertyOp0
 70
     1
102
RTVSPropertyOp1
 70
     1
102
RTVSPropertyOp2
 70
     1
102
RTVSPropertyOp3
 70
     1
102
RTVSPropertyOp4
 70
     1
102
RTVSPropertyOp5
 70
     1
102
RTVSPropertyOp6
 70
     1
102
RTVSPropertyOp7
 70
     1
102
RTVSPropertyOp8
 70
     1
102
RTVSPropertyOp9
 70
     1
102
RTVSPropertyOp10
 70
     1
102
RTVSPropertyOp11
 70
     1
102
RTVSPropertyOp12
 70
     1
102
RTVSPropertyOp13
 70
     1
102
RTVSPropertyOp14
 70
     1
102
RTVSPropertyOp15
 70
     1
102
RTVSPropertyOp16
 70
     1
102
RTVSPropertyOp17
 70
     1
102
RTVSPropertyOp18
 70
     1
102
RTVSPropertyOp19
 70
     1
102
RTVSPropertyOp20
 70
     1
102
RTVSPropertyOp21
 70
     1
102
RTVSPropertyOp22
 70
     1
102
RTVSPropertyOp23
 70
     1
102
RTVSPropertyOp24
 70
     1
102
RTVSPropertyOp25
 70
     1
102
RTVSPropertyOp26
 70
     1
102
RTVSPropertyOp27
 70
     1
102
RTVSPropertyOp28
 70
     1
102
RTVSPropertyOp29
 70
     1
102
RTVSPropertyOp30
 70
     1
102
RTVSPropertyOp31
 70
     1
102
RTVSPropertyOp32
 70
     1
102
RTVSPropertyOp33
 70
     1
102
RTVSPropertyOp34
 70
     1
102
RTVSPropertyOp35
 70
     1
102
RTVSPropertyOp36
 70
     1
102
RTVSPropertyOp37
 70
     1
102
RTVSPropertyOp38
 70
     1
102
RTVSPropertyOp39
 70
     1
102
RTVSPropertyOp40
 70
     1
102
RTVSPropertyOp41
 70
     1
102
RTVSPropertyOp42
 70
     1
102
RTVSPropertyOp43
 70
     1
102
RTVSPropertyOp44
 70
     1
102
RTVSPropertyOp45
 70
     1
102
RTVSPropertyOp46
 70
     1
102
RTVSPropertyOp47
 70
     1
102
RTVSPropertyOp48
 70
     1
102
RTVSPropertyOp49
 70
     1
102
RTVSPropertyOp50
 70
     1
102
RTVSPropertyOp51
 70
     0
102
RTVSPropertyOp52
 70
     0
102
RTVSPropertyOp53
 70
     1
102
RTVSPropertyOp54
 70
     1
102
RTVSPropertyOp55
 70
     1
102
RTVSPropertyOp56
 70
     1
102
RTVSPropertyOp57
 70
     1
102
RTVSPost2010Prop28
280
     0
102
RTVSPost2010PropOp28
 70
     1
102
RTVSPost2010Prop29
280
     1
102
RTVSPost2010PropOp29
 70
     1
102
RTVSPost2010Prop30
280
     1
102
RTVSPost2010PropOp30
 70
     1
102
RTVSPost2010Prop31
280
     0
102
RTVSPost2010PropOp31
 70
     1
102
RTVSPost2010Prop32
280
     0
102
RTVSPost2010PropOp32
 70
     1
102
RTVSPost2010Prop33
280
     0
102
RTVSPost2010PropOp33
 70
     1
102
RTVSPost2010Prop34
280
     0
102
RTVSPost2010PropOp34
 70
     1
102
RTVSPost2010Prop35
280
     0
102
RTVSPost2010PropOp35
 70
     1
102
RTVSPost2010Prop36
280
     0
102
RTVSPost2010PropOp36
 70
     1
102
RTVSPost2010Prop37
 90
       50
102
RTVSPost2010PropOp37
 70
     1
102
RTVSPost2010Prop38
140
0.0
102
RTVSPost2010PropOp38
 70
     1
102
RTVSPost2010Prop39
140
1.0
102
RTVSPost2010PropOp39
 70
     1
102
RTVSPost2010Prop40
 90
        0
102
RTVSPost2010PropOp40
 70
     1
102
RTVSPost2010Prop41ColorIndex
 90
       18
102
RTVSPost2010Prop41ColorRGB
 90
        0
102
RTVSPost2010PropOp41
 70
     1
102
RTVSPost2010Prop42
 90
       50
102
RTVSPost2010PropOp42
 70
     1
102
RTVSPost2010Prop43
 90
        3
102
RTVSPost2010PropOp43
 70
     1
102
RTVSPost2010Prop44ColorIndex
 90
        5
102
RTVSPost2010Prop44ColorRGB
 90
      255
102
RTVSPost2010PropOp44
 70
     1
102
RTVSPost2010Prop45
280
     0
102
RTVSPost2010PropOp45
 70
     1
102
RTVSPost2010Prop46
 90
       50
102
RTVSPost2010PropOp46
 70
     1
102
RTVSPost2010Prop47
 90
       50
102
RTVSPost2010PropOp47
 70
     1
102
RTVSPost2010Prop48
 90
       50
102
RTVSPost2010PropOp48
 70
     1
102
RTVSPost2010Prop49
280
     0
102
RTVSPost2010PropOp49
 70
     1
102
RTVSPost2010Prop50
 90
       50
102
RTVSPost2010PropOp50
 70
     1
102
RTVSPost2010Prop51ColorIndex
 90
      256
102
RTVSPost2010Prop51ColorRGB
 90
-16777216
102
RTVSPost2010PropOp51
 70
     0
102
RTVSPost2010Prop52
140
1.0
102
RTVSPost2010PropOp52
 70
     0
102
RTVSPost2010Prop53
 90
        2
102
RTVSPost2010PropOp53
 70
     1
102
RTVSPost2010Prop54
  1
strokes_ogs.tif
102
RTVSPost2010PropOp54
 70
     1
102
RTVSPost2010Prop55
280
     0
102
RTVSPost2010PropOp55
 70
     1
102
RTVSPost2010Prop56
140
1.0
102
RTVSPost2010PropOp56
 70
     1
102
RTVSPost2010Prop57
140
1.0
102
RTVSPost2010PropOp57
 70
     1
  0
XRECORD
  5
4C1
102
{ACAD_REACTORS
330
4C0
102
}
330
4C0
100
AcDbXrecord
280
     1
102
RTVSPropertyOp0
 70
     1
102
RTVSPropertyOp1
 70
     1
102
RTVSPropertyOp2
 70
     1
102
RTVSPropertyOp3
 70
     1
102
RTVSPropertyOp4
 70
     1
102
RTVSPropertyOp5
 70
     1
102
RTVSPropertyOp6
 70
     1
102
RTVSPropertyOp7
 70
     1
102
RTVSPropertyOp8
 70
     1
102
RTVSPropertyOp9
 70
     1
102
RTVSPropertyOp10
 70
     1
102
RTVSPropertyOp11
 70
     1
102
RTVSPropertyOp12
 70
     1
102
RTVSPropertyOp13
 70
     1
102
RTVSPropertyOp14
 70
     1
102
RTVSPropertyOp15
 70
     1
102
RTVSPropertyOp16
 70
     1
102
RTVSPropertyOp17
 70
     1
102
RTVSPropertyOp18
 70
     1
102
RTVSPropertyOp19
 70
     1
102
RTVSPropertyOp20
 70
     1
102
RTVSPropertyOp21
 70
     1
102
RTVSPropertyOp22
 70
     1
102
RTVSPropertyOp23
 70
     1
102
RTVSPropertyOp24
 70
     1
102
RTVSPropertyOp25
 70
     1
102
RTVSPropertyOp26
 70
     1
102
RTVSPropertyOp27
 70
     1
102
RTVSPropertyOp28
 70
     1
102
RTVSPropertyOp29
 70
     1
102
RTVSPropertyOp30
 70
     1
102
RTVSPropertyOp31
 70
     1
102
RTVSPropertyOp32
 70
     1
102
RTVSPropertyOp33
 70
     1
102
RTVSPropertyOp34
 70
     1
102
RTVSPropertyOp35
 70
     1
102
RTVSPropertyOp36
 70
     1
102
RTVSPropertyOp37
 70
     1
102
RTVSPropertyOp38
 70
     1
102
RTVSPropertyOp39
 70
     1
102
RTVSPropertyOp40
 70
     1
102
RTVSPropertyOp41
 70
     1
102
RTVSPropertyOp42
 70
     1
102
RTVSPropertyOp43
 70
     1
102
RTVSPropertyOp44
 70
     1
102
RTVSPropertyOp45
 70
     1
102
RTVSPropertyOp46
 70
     1
102
RTVSPropertyOp47
 70
     1
102
RTVSPropertyOp48
 70
     1
102
RTVSPropertyOp49
 70
     1
102
RTVSPropertyOp50
 70
     1
102
RTVSPropertyOp51
 70
     0
102
RTVSPropertyOp52
 70
     0
102
RTVSPropertyOp53
 70
     1
102
RTVSPropertyOp54
 70
     1
102
RTVSPropertyOp55
 70
     1
102
RTVSPropertyOp56
 70
     1
102
RTVSPropertyOp57
 70
     1
102
RTVSPost2010Prop28
280
     0
102
RTVSPost2010PropOp28
 70
     1
102
RTVSPost2010Prop29
280
     1
102
RTVSPost2010PropOp29
 70
     1
102
RTVSPost2010Prop30
280
     1
102
RTVSPost2010PropOp30
 70
     1
102
RTVSPost2010Prop31
280
     0
102
RTVSPost2010PropOp31
 70
     1
102
RTVSPost2010Prop32
280
     0
102
RTVSPost2010PropOp32
 70
     1
102
RTVSPost2010Prop33
280
     0
102
RTVSPost2010PropOp33
 70
     1
102
RTVSPost2010Prop34
280
     0
102
RTVSPost2010PropOp34
 70
     1
102
RTVSPost2010Prop35
280
     0
102
RTVSPost2010PropOp35
 70
     1
102
RTVSPost2010Prop36
280
     0
102
RTVSPost2010PropOp36
 70
     1
102
RTVSPost2010Prop37
 90
       50
102
RTVSPost2010PropOp37
 70
     1
102
RTVSPost2010Prop38
140
0.0
102
RTVSPost2010PropOp38
 70
     1
102
RTVSPost2010Prop39
140
1.0
102
RTVSPost2010PropOp39
 70
     1
102
RTVSPost2010Prop40
 90
        0
102
RTVSPost2010PropOp40
 70
     1
102
RTVSPost2010Prop41ColorIndex
 90
       18
102
RTVSPost2010Prop41ColorRGB
 90
        0
102
RTVSPost2010PropOp41
 70
     1
102
RTVSPost2010Prop42
 90
       50
102
RTVSPost2010PropOp42
 70
     1
102
RTVSPost2010Prop43
 90
        3
102
RTVSPost2010PropOp43
 70
     1
102
RTVSPost2010Prop44ColorIndex
 90
        5
102
RTVSPost2010Prop44ColorRGB
 90
      255
102
RTVSPost2010PropOp44
 70
     1
102
RTVSPost2010Prop45
280
     0
102
RTVSPost2010PropOp45
 70
     1
102
RTVSPost2010Prop46
 90
       50
102
RTVSPost2010PropOp46
 70
     1
102
RTVSPost2010Prop47
 90
       50
102
RTVSPost2010PropOp47
 70
     1
102
RTVSPost2010Prop48
 90
       50
102
RTVSPost2010PropOp48
 70
     1
102
RTVSPost2010Prop49
280
     0
102
RTVSPost2010PropOp49
 70
     1
102
RTVSPost2010Prop50
 90
       50
102
RTVSPost2010PropOp50
 70
     1
102
RTVSPost2010Prop51ColorIndex
 90
      256
102
RTVSPost2010Prop51ColorRGB
 90
-16777216
102
RTVSPost2010PropOp51
 70
     0
102
RTVSPost2010Prop52
140
1.0
102
RTVSPost2010PropOp52
 70
     0
102
RTVSPost2010Prop53
 90
        2
102
RTVSPost2010PropOp53
 70
     1
102
RTVSPost2010Prop54
  1
strokes_ogs.tif
102
RTVSPost2010PropOp54
 70
     1
102
RTVSPost2010Prop55
280
     0
102
RTVSPost2010PropOp55
 70
     1
102
RTVSPost2010Prop56
140
1.0
102
RTVSPost2010PropOp56
 70
     1
102
RTVSPost2010Prop57
140
1.0
102
RTVSPost2010PropOp57
 70
     1
  0
XRECORD
  5
4C3
102
{ACAD_REACTORS
330
4C2
102
}
330
4C2
100
AcDbXrecord
280
     1
102
RTVSPropertyOp0
 70
     1
102
RTVSPropertyOp1
 70
     1
102
RTVSPropertyOp2
 70
     1
102
RTVSPropertyOp3
 70
     1
102
RTVSPropertyOp4
 70
     1
102
RTVSPropertyOp5
 70
     1
102
RTVSPropertyOp6
 70
     1
102
RTVSPropertyOp7
 70
     1
102
RTVSPropertyOp8
 70
     1
102
RTVSPropertyOp9
 70
     1
102
RTVSPropertyOp10
 70
     1
102
RTVSPropertyOp11
 70
     1
102
RTVSPropertyOp12
 70
     1
102
RTVSPropertyOp13
 70
     1
102
RTVSPropertyOp14
 70
     1
102
RTVSPropertyOp15
 70
     1
102
RTVSPropertyOp16
 70
     1
102
RTVSPropertyOp17
 70
     1
102
RTVSPropertyOp18
 70
     1
102
RTVSPropertyOp19
 70
     1
102
RTVSPropertyOp20
 70
     1
102
RTVSPropertyOp21
 70
     1
102
RTVSPropertyOp22
 70
     1
102
RTVSPropertyOp23
 70
     1
102
RTVSPropertyOp24
 70
     1
102
RTVSPropertyOp25
 70
     1
102
RTVSPropertyOp26
 70
     1
102
RTVSPropertyOp27
 70
     1
102
RTVSPropertyOp28
 70
     1
102
RTVSPropertyOp29
 70
     1
102
RTVSPropertyOp30
 70
     1
102
RTVSPropertyOp31
 70
     1
102
RTVSPropertyOp32
 70
     1
102
RTVSPropertyOp33
 70
     1
102
RTVSPropertyOp34
 70
     1
102
RTVSPropertyOp35
 70
     1
102
RTVSPropertyOp36
 70
     1
102
RTVSPropertyOp37
 70
     1
102
RTVSPropertyOp38
 70
     1
102
RTVSPropertyOp39
 70
     1
102
RTVSPropertyOp40
 70
     1
102
RTVSPropertyOp41
 70
     1
102
RTVSPropertyOp42
 70
     1
102
RTVSPropertyOp43
 70
     1
102
RTVSPropertyOp44
 70
     1
102
RTVSPropertyOp45
 70
     1
102
RTVSPropertyOp46
 70
     1
102
RTVSPropertyOp47
 70
     1
102
RTVSPropertyOp48
 70
     1
102
RTVSPropertyOp49
 70
     1
102
RTVSPropertyOp50
 70
     1
102
RTVSPropertyOp51
 70
     0
102
RTVSPropertyOp52
 70
     0
102
RTVSPropertyOp53
 70
     1
102
RTVSPropertyOp54
 70
     1
102
RTVSPropertyOp55
 70
     1
102
RTVSPropertyOp56
 70
     1
102
RTVSPropertyOp57
 70
     1
102
RTVSPost2010Prop28
280
     0
102
RTVSPost2010PropOp28
 70
     1
102
RTVSPost2010Prop29
280
     1
102
RTVSPost2010PropOp29
 70
     1
102
RTVSPost2010Prop30
280
     1
102
RTVSPost2010PropOp30
 70
     1
102
RTVSPost2010Prop31
280
     0
102
RTVSPost2010PropOp31
 70
     1
102
RTVSPost2010Prop32
280
     0
102
RTVSPost2010PropOp32
 70
     1
102
RTVSPost2010Prop33
280
     0
102
RTVSPost2010PropOp33
 70
     1
102
RTVSPost2010Prop34
280
     0
102
RTVSPost2010PropOp34
 70
     1
102
RTVSPost2010Prop35
280
     0
102
RTVSPost2010PropOp35
 70
     1
102
RTVSPost2010Prop36
280
     0
102
RTVSPost2010PropOp36
 70
     1
102
RTVSPost2010Prop37
 90
       50
102
RTVSPost2010PropOp37
 70
     1
102
RTVSPost2010Prop38
140
0.0
102
RTVSPost2010PropOp38
 70
     1
102
RTVSPost2010Prop39
140
1.0
102
RTVSPost2010PropOp39
 70
     1
102
RTVSPost2010Prop40
 90
        0
102
RTVSPost2010PropOp40
 70
     1
102
RTVSPost2010Prop41ColorIndex
 90
       18
102
RTVSPost2010Prop41ColorRGB
 90
        0
102
RTVSPost2010PropOp41
 70
     1
102
RTVSPost2010Prop42
 90
       50
102
RTVSPost2010PropOp42
 70
     1
102
RTVSPost2010Prop43
 90
        3
102
RTVSPost2010PropOp43
 70
     1
102
RTVSPost2010Prop44ColorIndex
 90
        5
102
RTVSPost2010Prop44ColorRGB
 90
      255
102
RTVSPost2010PropOp44
 70
     1
102
RTVSPost2010Prop45
280
     0
102
RTVSPost2010PropOp45
 70
     1
102
RTVSPost2010Prop46
 90
       50
102
RTVSPost2010PropOp46
 70
     1
102
RTVSPost2010Prop47
 90
       50
102
RTVSPost2010PropOp47
 70
     1
102
RTVSPost2010Prop48
 90
       50
102
RTVSPost2010PropOp48
 70
     1
102
RTVSPost2010Prop49
280
     0
102
RTVSPost2010PropOp49
 70
     1
102
RTVSPost2010Prop50
 90
       50
102
RTVSPost2010PropOp50
 70
     1
102
RTVSPost2010Prop51ColorIndex
 90
      256
102
RTVSPost2010Prop51ColorRGB
 90
-16777216
102
RTVSPost2010PropOp51
 70
     0
102
RTVSPost2010Prop52
140
1.0
102
RTVSPost2010PropOp52
 70
     0
102
RTVSPost2010Prop53
 90
        2
102
RTVSPost2010PropOp53
 70
     1
102
RTVSPost2010Prop54
  1
strokes_ogs.tif
102
RTVSPost2010PropOp54
 70
     1
102
RTVSPost2010Prop55
280
     0
102
RTVSPost2010PropOp55
 70
     1
102
RTVSPost2010Prop56
140
1.0
102
RTVSPost2010PropOp56
 70
     1
102
RTVSPost2010Prop57
140
1.0
102
RTVSPost2010PropOp57
 70
     1
  0
XRECORD
  5
4C5
102
{ACAD_REACTORS
330
4C4
102
}
330
4C4
100
AcDbXrecord
280
     1
102
RTVSPropertyOp0
 70
     1
102
RTVSPropertyOp1
 70
     1
102
RTVSPropertyOp2
 70
     1
102
RTVSPropertyOp3
 70
     1
102
RTVSPropertyOp4
 70
     1
102
RTVSPropertyOp5
 70
     1
102
RTVSPropertyOp6
 70
     1
102
RTVSPropertyOp7
 70
     1
102
RTVSPropertyOp8
 70
     1
102
RTVSPropertyOp9
 70
     1
102
RTVSPropertyOp10
 70
     1
102
RTVSPropertyOp11
 70
     1
102
RTVSPropertyOp12
 70
     1
102
RTVSPropertyOp13
 70
     1
102
RTVSPropertyOp14
 70
     1
102
RTVSPropertyOp15
 70
     1
102
RTVSPropertyOp16
 70
     1
102
RTVSPropertyOp17
 70
     1
102
RTVSPropertyOp18
 70
     1
102
RTVSPropertyOp19
 70
     1
102
RTVSPropertyOp20
 70
     1
102
RTVSPropertyOp21
 70
     1
102
RTVSPropertyOp22
 70
     1
102
RTVSPropertyOp23
 70
     1
102
RTVSPropertyOp24
 70
     1
102
RTVSPropertyOp25
 70
     1
102
RTVSPropertyOp26
 70
     1
102
RTVSPropertyOp27
 70
     1
102
RTVSPropertyOp28
 70
     1
102
RTVSPropertyOp29
 70
     1
102
RTVSPropertyOp30
 70
     1
102
RTVSPropertyOp31
 70
     1
102
RTVSPropertyOp32
 70
     1
102
RTVSPropertyOp33
 70
     1
102
RTVSPropertyOp34
 70
     1
102
RTVSPropertyOp35
 70
     1
102
RTVSPropertyOp36
 70
     1
102
RTVSPropertyOp37
 70
     1
102
RTVSPropertyOp38
 70
     1
102
RTVSPropertyOp39
 70
     1
102
RTVSPropertyOp40
 70
     1
102
RTVSPropertyOp41
 70
     1
102
RTVSPropertyOp42
 70
     1
102
RTVSPropertyOp43
 70
     1
102
RTVSPropertyOp44
 70
     1
102
RTVSPropertyOp45
 70
     1
102
RTVSPropertyOp46
 70
     1
102
RTVSPropertyOp47
 70
     1
102
RTVSPropertyOp48
 70
     1
102
RTVSPropertyOp49
 70
     1
102
RTVSPropertyOp50
 70
     1
102
RTVSPropertyOp51
 70
     0
102
RTVSPropertyOp52
 70
     0
102
RTVSPropertyOp53
 70
     1
102
RTVSPropertyOp54
 70
     1
102
RTVSPropertyOp55
 70
     1
102
RTVSPropertyOp56
 70
     1
102
RTVSPropertyOp57
 70
     1
102
RTVSPost2010Prop28
280
     0
102
RTVSPost2010PropOp28
 70
     1
102
RTVSPost2010Prop29
280
     1
102
RTVSPost2010PropOp29
 70
     1
102
RTVSPost2010Prop30
280
     1
102
RTVSPost2010PropOp30
 70
     1
102
RTVSPost2010Prop31
280
     0
102
RTVSPost2010PropOp31
 70
     1
102
RTVSPost2010Prop32
280
     0
102
RTVSPost2010PropOp32
 70
     1
102
RTVSPost2010Prop33
280
     0
102
RTVSPost2010PropOp33
 70
     1
102
RTVSPost2010Prop34
280
     0
102
RTVSPost2010PropOp34
 70
     1
102
RTVSPost2010Prop35
280
     0
102
RTVSPost2010PropOp35
 70
     1
102
RTVSPost2010Prop36
280
     0
102
RTVSPost2010PropOp36
 70
     1
102
RTVSPost2010Prop37
 90
       50
102
RTVSPost2010PropOp37
 70
     1
102
RTVSPost2010Prop38
140
0.0
102
RTVSPost2010PropOp38
 70
     1
102
RTVSPost2010Prop39
140
1.0
102
RTVSPost2010PropOp39
 70
     1
102
RTVSPost2010Prop40
 90
        0
102
RTVSPost2010PropOp40
 70
     1
102
RTVSPost2010Prop41ColorIndex
 90
       18
102
RTVSPost2010Prop41ColorRGB
 90
        0
102
RTVSPost2010PropOp41
 70
     1
102
RTVSPost2010Prop42
 90
       50
102
RTVSPost2010PropOp42
 70
     1
102
RTVSPost2010Prop43
 90
        3
102
RTVSPost2010PropOp43
 70
     1
102
RTVSPost2010Prop44ColorIndex
 90
        5
102
RTVSPost2010Prop44ColorRGB
 90
      255
102
RTVSPost2010PropOp44
 70
     1
102
RTVSPost2010Prop45
280
     0
102
RTVSPost2010PropOp45
 70
     1
102
RTVSPost2010Prop46
 90
       50
102
RTVSPost2010PropOp46
 70
     1
102
RTVSPost2010Prop47
 90
       50
102
RTVSPost2010PropOp47
 70
     1
102
RTVSPost2010Prop48
 90
       50
102
RTVSPost2010PropOp48
 70
     1
102
RTVSPost2010Prop49
280
     0
102
RTVSPost2010PropOp49
 70
     1
102
RTVSPost2010Prop50
 90
       50
102
RTVSPost2010PropOp50
 70
     1
102
RTVSPost2010Prop51ColorIndex
 90
      256
102
RTVSPost2010Prop51ColorRGB
 90
-16777216
102
RTVSPost2010PropOp51
 70
     0
102
RTVSPost2010Prop52
140
1.0
102
RTVSPost2010PropOp52
 70
     0
102
RTVSPost2010Prop53
 90
        2
102
RTVSPost2010PropOp53
 70
     1
102
RTVSPost2010Prop54
  1
strokes_ogs.tif
102
RTVSPost2010PropOp54
 70
     1
102
RTVSPost2010Prop55
280
     0
102
RTVSPost2010PropOp55
 70
     1
102
RTVSPost2010Prop56
140
1.0
102
RTVSPost2010PropOp56
 70
     1
102
RTVSPost2010Prop57
140
1.0
102
RTVSPost2010PropOp57
 70
     1
  0
XRECORD
  5
4C7
102
{ACAD_REACTORS
330
4C6
102
}
330
4C6
100
AcDbXrecord
280
     1
102
RTVSPropertyOp0
 70
     1
102
RTVSPropertyOp1
 70
     1
102
RTVSPropertyOp2
 70
     1
102
RTVSPropertyOp3
 70
     1
102
RTVSPropertyOp4
 70
     1
102
RTVSPropertyOp5
 70
     1
102
RTVSPropertyOp6
 70
     1
102
RTVSPropertyOp7
 70
     1
102
RTVSPropertyOp8
 70
     1
102
RTVSPropertyOp9
 70
     1
102
RTVSPropertyOp10
 70
     1
102
RTVSPropertyOp11
 70
     1
102
RTVSPropertyOp12
 70
     1
102
RTVSPropertyOp13
 70
     1
102
RTVSPropertyOp14
 70
     1
102
RTVSPropertyOp15
 70
     1
102
RTVSPropertyOp16
 70
     1
102
RTVSPropertyOp17
 70
     1
102
RTVSPropertyOp18
 70
     1
102
RTVSPropertyOp19
 70
     1
102
RTVSPropertyOp20
 70
     1
102
RTVSPropertyOp21
 70
     1
102
RTVSPropertyOp22
 70
     1
102
RTVSPropertyOp23
 70
     1
102
RTVSPropertyOp24
 70
     1
102
RTVSPropertyOp25
 70
     1
102
RTVSPropertyOp26
 70
     1
102
RTVSPropertyOp27
 70
     1
102
RTVSPropertyOp28
 70
     1
102
RTVSPropertyOp29
 70
     1
102
RTVSPropertyOp30
 70
     1
102
RTVSPropertyOp31
 70
     1
102
RTVSPropertyOp32
 70
     1
102
RTVSPropertyOp33
 70
     1
102
RTVSPropertyOp34
 70
     1
102
RTVSPropertyOp35
 70
     1
102
RTVSPropertyOp36
 70
     1
102
RTVSPropertyOp37
 70
     1
102
RTVSPropertyOp38
 70
     1
102
RTVSPropertyOp39
 70
     1
102
RTVSPropertyOp40
 70
     1
102
RTVSPropertyOp41
 70
     1
102
RTVSPropertyOp42
 70
     1
102
RTVSPropertyOp43
 70
     1
102
RTVSPropertyOp44
 70
     1
102
RTVSPropertyOp45
 70
     1
102
RTVSPropertyOp46
 70
     1
102
RTVSPropertyOp47
 70
     1
102
RTVSPropertyOp48
 70
     1
102
RTVSPropertyOp49
 70
     1
102
RTVSPropertyOp50
 70
     1
102
RTVSPropertyOp51
 70
     0
102
RTVSPropertyOp52
 70
     0
102
RTVSPropertyOp53
 70
     1
102
RTVSPropertyOp54
 70
     1
102
RTVSPropertyOp55
 70
     1
102
RTVSPropertyOp56
 70
     1
102
RTVSPropertyOp57
 70
     1
102
RTVSPost2010Prop28
280
     0
102
RTVSPost2010PropOp28
 70
     1
102
RTVSPost2010Prop29
280
     1
102
RTVSPost2010PropOp29
 70
     1
102
RTVSPost2010Prop30
280
     1
102
RTVSPost2010PropOp30
 70
     1
102
RTVSPost2010Prop31
280
     0
102
RTVSPost2010PropOp31
 70
     1
102
RTVSPost2010Prop32
280
     0
102
RTVSPost2010PropOp32
 70
     1
102
RTVSPost2010Prop33
280
     0
102
RTVSPost2010PropOp33
 70
     1
102
RTVSPost2010Prop34
280
     0
102
RTVSPost2010PropOp34
 70
     1
102
RTVSPost2010Prop35
280
     0
102
RTVSPost2010PropOp35
 70
     1
102
RTVSPost2010Prop36
280
     0
102
RTVSPost2010PropOp36
 70
     1
102
RTVSPost2010Prop37
 90
       50
102
RTVSPost2010PropOp37
 70
     1
102
RTVSPost2010Prop38
140
0.0
102
RTVSPost2010PropOp38
 70
     1
102
RTVSPost2010Prop39
140
1.0
102
RTVSPost2010PropOp39
 70
     1
102
RTVSPost2010Prop40
 90
        0
102
RTVSPost2010PropOp40
 70
     1
102
RTVSPost2010Prop41ColorIndex
 90
       18
102
RTVSPost2010Prop41ColorRGB
 90
        0
102
RTVSPost2010PropOp41
 70
     1
102
RTVSPost2010Prop42
 90
       50
102
RTVSPost2010PropOp42
 70
     1
102
RTVSPost2010Prop43
 90
        3
102
RTVSPost2010PropOp43
 70
     1
102
RTVSPost2010Prop44ColorIndex
 90
        5
102
RTVSPost2010Prop44ColorRGB
 90
      255
102
RTVSPost2010PropOp44
 70
     1
102
RTVSPost2010Prop45
280
     0
102
RTVSPost2010PropOp45
 70
     1
102
RTVSPost2010Prop46
 90
       50
102
RTVSPost2010PropOp46
 70
     1
102
RTVSPost2010Prop47
 90
       50
102
RTVSPost2010PropOp47
 70
     1
102
RTVSPost2010Prop48
 90
       50
102
RTVSPost2010PropOp48
 70
     1
102
RTVSPost2010Prop49
280
     0
102
RTVSPost2010PropOp49
 70
     1
102
RTVSPost2010Prop50
 90
       50
102
RTVSPost2010PropOp50
 70
     1
102
RTVSPost2010Prop51ColorIndex
 90
      256
102
RTVSPost2010Prop51ColorRGB
 90
-16777216
102
RTVSPost2010PropOp51
 70
     0
102
RTVSPost2010Prop52
140
1.0
102
RTVSPost2010PropOp52
 70
     0
102
RTVSPost2010Prop53
 90
        2
102
RTVSPost2010PropOp53
 70
     1
102
RTVSPost2010Prop54
  1
strokes_ogs.tif
102
RTVSPost2010PropOp54
 70
     1
102
RTVSPost2010Prop55
280
     0
102
RTVSPost2010PropOp55
 70
     1
102
RTVSPost2010Prop56
140
1.0
102
RTVSPost2010PropOp56
 70
     1
102
RTVSPost2010Prop57
140
1.0
102
RTVSPost2010PropOp57
 70
     1
  0
XRECORD
  5
4CD
102
{ACAD_REACTORS
330
4CC
102
}
330
4CC
100
AcDbXrecord
280
     1
102
RTVSPropertyOp0
 70
     1
102
RTVSPropertyOp1
 70
     1
102
RTVSPropertyOp2
 70
     1
102
RTVSPropertyOp3
 70
     1
102
RTVSPropertyOp4
 70
     1
102
RTVSPropertyOp5
 70
     1
102
RTVSPropertyOp6
 70
     1
102
RTVSPropertyOp7
 70
     1
102
RTVSPropertyOp8
 70
     1
102
RTVSPropertyOp9
 70
     1
102
RTVSPropertyOp10
 70
     1
102
RTVSPropertyOp11
 70
     1
102
RTVSPropertyOp12
 70
     1
102
RTVSPropertyOp13
 70
     1
102
RTVSPropertyOp14
 70
     1
102
RTVSPropertyOp15
 70
     1
102
RTVSPropertyOp16
 70
     1
102
RTVSPropertyOp17
 70
     1
102
RTVSPropertyOp18
 70
     1
102
RTVSPropertyOp19
 70
     1
102
RTVSPropertyOp20
 70
     1
102
RTVSPropertyOp21
 70
     1
102
RTVSPropertyOp22
 70
     1
102
RTVSPropertyOp23
 70
     1
102
RTVSPropertyOp24
 70
     1
102
RTVSPropertyOp25
 70
     1
102
RTVSPropertyOp26
 70
     1
102
RTVSPropertyOp27
 70
     1
102
RTVSPropertyOp28
 70
     1
102
RTVSPropertyOp29
 70
     1
102
RTVSPropertyOp30
 70
     1
102
RTVSPropertyOp31
 70
     1
102
RTVSPropertyOp32
 70
     1
102
RTVSPropertyOp33
 70
     1
102
RTVSPropertyOp34
 70
     1
102
RTVSPropertyOp35
 70
     1
102
RTVSPropertyOp36
 70
     1
102
RTVSPropertyOp37
 70
     1
102
RTVSPropertyOp38
 70
     1
102
RTVSPropertyOp39
 70
     1
102
RTVSPropertyOp40
 70
     1
102
RTVSPropertyOp41
 70
     1
102
RTVSPropertyOp42
 70
     1
102
RTVSPropertyOp43
 70
     1
102
RTVSPropertyOp44
 70
     1
102
RTVSPropertyOp45
 70
     1
102
RTVSPropertyOp46
 70
     1
102
RTVSPropertyOp47
 70
     1
102
RTVSPropertyOp48
 70
     1
102
RTVSPropertyOp49
 70
     1
102
RTVSPropertyOp50
 70
     1
102
RTVSPropertyOp51
 70
     0
102
RTVSPropertyOp52
 70
     0
102
RTVSPropertyOp53
 70
     1
102
RTVSPropertyOp54
 70
     1
102
RTVSPropertyOp55
 70
     1
102
RTVSPropertyOp56
 70
     1
102
RTVSPropertyOp57
 70
     1
102
RTVSPost2010Prop28
280
     0
102
RTVSPost2010PropOp28
 70
     1
102
RTVSPost2010Prop29
280
     1
102
RTVSPost2010PropOp29
 70
     1
102
RTVSPost2010Prop30
280
     1
102
RTVSPost2010PropOp30
 70
     1
102
RTVSPost2010Prop31
280
     0
102
RTVSPost2010PropOp31
 70
     1
102
RTVSPost2010Prop32
280
     0
102
RTVSPost2010PropOp32
 70
     1
102
RTVSPost2010Prop33
280
     0
102
RTVSPost2010PropOp33
 70
     1
102
RTVSPost2010Prop34
280
     0
102
RTVSPost2010PropOp34
 70
     1
102
RTVSPost2010Prop35
280
     0
102
RTVSPost2010PropOp35
 70
     1
102
RTVSPost2010Prop36
280
     0
102
RTVSPost2010PropOp36
 70
     1
102
RTVSPost2010Prop37
 90
       50
102
RTVSPost2010PropOp37
 70
     1
102
RTVSPost2010Prop38
140
0.0
102
RTVSPost2010PropOp38
 70
     1
102
RTVSPost2010Prop39
140
1.0
102
RTVSPost2010PropOp39
 70
     1
102
RTVSPost2010Prop40
 90
        0
102
RTVSPost2010PropOp40
 70
     1
102
RTVSPost2010Prop41ColorIndex
 90
       18
102
RTVSPost2010Prop41ColorRGB
 90
        0
102
RTVSPost2010PropOp41
 70
     1
102
RTVSPost2010Prop42
 90
       50
102
RTVSPost2010PropOp42
 70
     1
102
RTVSPost2010Prop43
 90
        3
102
RTVSPost2010PropOp43
 70
     1
102
RTVSPost2010Prop44ColorIndex
 90
        5
102
RTVSPost2010Prop44ColorRGB
 90
      255
102
RTVSPost2010PropOp44
 70
     1
102
RTVSPost2010Prop45
280
     0
102
RTVSPost2010PropOp45
 70
     1
102
RTVSPost2010Prop46
 90
       50
102
RTVSPost2010PropOp46
 70
     1
102
RTVSPost2010Prop47
 90
       50
102
RTVSPost2010PropOp47
 70
     1
102
RTVSPost2010Prop48
 90
       50
102
RTVSPost2010PropOp48
 70
     1
102
RTVSPost2010Prop49
280
     0
102
RTVSPost2010PropOp49
 70
     1
102
RTVSPost2010Prop50
 90
       50
102
RTVSPost2010PropOp50
 70
     1
102
RTVSPost2010Prop51ColorIndex
 90
      256
102
RTVSPost2010Prop51ColorRGB
 90
-16777216
102
RTVSPost2010PropOp51
 70
     0
102
RTVSPost2010Prop52
140
1.0
102
RTVSPost2010PropOp52
 70
     0
102
RTVSPost2010Prop53
 90
        2
102
RTVSPost2010PropOp53
 70
     1
102
RTVSPost2010Prop54
  1
strokes_ogs.tif
102
RTVSPost2010PropOp54
 70
     1
102
RTVSPost2010Prop55
280
     0
102
RTVSPost2010PropOp55
 70
     1
102
RTVSPost2010Prop56
140
1.0
102
RTVSPost2010PropOp56
 70
     1
102
RTVSPost2010Prop57
140
1.0
102
RTVSPost2010PropOp57
 70
     1
  0
XRECORD
  5
4E1
102
{ACAD_REACTORS
330
4E0
102
}
330
4E0
100
AcDbXrecord
280
     1
102
RTVSPropertyOp0
 70
     0
102
RTVSPropertyOp1
 70
     0
102
RTVSPropertyOp2
 70
     0
102
RTVSPropertyOp3
 70
     0
102
RTVSPropertyOp4
 70
     0
102
RTVSPropertyOp5
 70
     0
102
RTVSPropertyOp6
 70
     0
102
RTVSPropertyOp7
 70
     0
102
RTVSPropertyOp8
 70
     0
102
RTVSPropertyOp9
 70
     0
102
RTVSPropertyOp10
 70
     0
102
RTVSPropertyOp11
 70
     0
102
RTVSPropertyOp12
 70
     0
102
RTVSPropertyOp13
 70
     0
102
RTVSPropertyOp14
 70
     2
102
RTVSPropertyOp15
 70
     0
102
RTVSPropertyOp16
 70
     0
102
RTVSPropertyOp17
 70
     0
102
RTVSPropertyOp18
 70
     0
102
RTVSPropertyOp19
 70
     0
102
RTVSPropertyOp20
 70
     0
102
RTVSPropertyOp21
 70
     0
102
RTVSPropertyOp22
 70
     0
102
RTVSPropertyOp23
 70
     0
102
RTVSPropertyOp24
 70
     0
102
RTVSPropertyOp25
 70
     0
102
RTVSPropertyOp26
 70
     0
102
RTVSPropertyOp27
 70
     0
102
RTVSPropertyOp28
 70
     0
102
RTVSPropertyOp29
 70
     0
102
RTVSPropertyOp30
 70
     0
102
RTVSPropertyOp31
 70
     0
102
RTVSPropertyOp32
 70
     0
102
RTVSPropertyOp33
 70
     0
102
RTVSPropertyOp34
 70
     0
102
RTVSPropertyOp35
 70
     0
102
RTVSPropertyOp36
 70
     0
102
RTVSPropertyOp37
 70
     0
102
RTVSPropertyOp38
 70
     0
102
RTVSPropertyOp39
 70
     0
102
RTVSPropertyOp40
 70
     0
102
RTVSPropertyOp41
 70
     0
102
RTVSPropertyOp42
 70
     0
102
RTVSPropertyOp43
 70
     0
102
RTVSPropertyOp44
 70
     0
102
RTVSPropertyOp45
 70
     0
102
RTVSPropertyOp46
 70
     0
102
RTVSPropertyOp47
 70
     0
102
RTVSPropertyOp48
 70
     0
102
RTVSPropertyOp49
 70
     0
102
RTVSPropertyOp50
 70
     0
102
RTVSPropertyOp51
 70
     0
102
RTVSPropertyOp52
 70
     0
102
RTVSPropertyOp53
 70
     0
102
RTVSPropertyOp54
 70
     0
102
RTVSPropertyOp55
 70
     0
102
RTVSPropertyOp56
 70
     0
102
RTVSPropertyOp57
 70
     0
102
RTVSPost2010Prop28
280
     0
102
RTVSPost2010PropOp28
 70
     0
102
RTVSPost2010Prop29
280
     1
102
RTVSPost2010PropOp29
 70
     0
102
RTVSPost2010Prop30
280
     1
102
RTVSPost2010PropOp30
 70
     0
102
RTVSPost2010Prop31
280
     0
102
RTVSPost2010PropOp31
 70
     0
102
RTVSPost2010Prop32
280
     0
102
RTVSPost2010PropOp32
 70
     0
102
RTVSPost2010Prop33
280
     0
102
RTVSPost2010PropOp33
 70
     0
102
RTVSPost2010Prop34
280
     0
102
RTVSPost2010PropOp34
 70
     0
102
RTVSPost2010Prop35
280
     0
102
RTVSPost2010PropOp35
 70
     0
102
RTVSPost2010Prop36
280
     0
102
RTVSPost2010PropOp36
 70
     0
102
RTVSPost2010Prop37
 90
       50
102
RTVSPost2010PropOp37
 70
     0
102
RTVSPost2010Prop38
140
0.0
102
RTVSPost2010PropOp38
 70
     0
102
RTVSPost2010Prop39
140
1.0
102
RTVSPost2010PropOp39
 70
     0
102
RTVSPost2010Prop40
 90
        0
102
RTVSPost2010PropOp40
 70
     0
102
RTVSPost2010Prop41ColorIndex
 90
       18
102
RTVSPost2010Prop41ColorRGB
 90
        0
102
RTVSPost2010PropOp41
 70
     0
102
RTVSPost2010Prop42
 90
       50
102
RTVSPost2010PropOp42
 70
     0
102
RTVSPost2010Prop43
 90
        3
102
RTVSPost2010PropOp43
 70
     0
102
RTVSPost2010Prop44ColorIndex
 90
        5
102
RTVSPost2010Prop44ColorRGB
 90
      255
102
RTVSPost2010PropOp44
 70
     0
102
RTVSPost2010Prop45
280
     0
102
RTVSPost2010PropOp45
 70
     0
102
RTVSPost2010Prop46
 90
       50
102
RTVSPost2010PropOp46
 70
     0
102
RTVSPost2010Prop47
 90
       50
102
RTVSPost2010PropOp47
 70
     0
102
RTVSPost2010Prop48
 90
       50
102
RTVSPost2010PropOp48
 70
     0
102
RTVSPost2010Prop49
280
     0
102
RTVSPost2010PropOp49
 70
     0
102
RTVSPost2010Prop50
 90
       50
102
RTVSPost2010PropOp50
 70
     0
102
RTVSPost2010Prop51ColorIndex
 90
      256
102
RTVSPost2010Prop51ColorRGB
 90
-16777216
102
RTVSPost2010PropOp51
 70
     0
102
RTVSPost2010Prop52
140
1.0
102
RTVSPost2010PropOp52
 70
     0
102
RTVSPost2010Prop53
 90
        2
102
RTVSPost2010PropOp53
 70
     0
102
RTVSPost2010Prop54
  1
strokes_ogs.tif
102
RTVSPost2010PropOp54
 70
     0
102
RTVSPost2010Prop55
280
     0
102
RTVSPost2010PropOp55
 70
     0
102
RTVSPost2010Prop56
140
1.0
102
RTVSPost2010PropOp56
 70
     0
102
RTVSPost2010Prop57
140
1.0
102
RTVSPost2010PropOp57
 70
     0
  0
XRECORD
  5
4DB
102
{ACAD_REACTORS
330
4DA
102
}
330
4DA
100
AcDbXrecord
280
     1
102
RTVSPropertyOp0
 70
     1
102
RTVSPropertyOp1
 70
     1
102
RTVSPropertyOp2
 70
     1
102
RTVSPropertyOp3
 70
     1
102
RTVSPropertyOp4
 70
     1
102
RTVSPropertyOp5
 70
     1
102
RTVSPropertyOp6
 70
     1
102
RTVSPropertyOp7
 70
     1
102
RTVSPropertyOp8
 70
     1
102
RTVSPropertyOp9
 70
     1
102
RTVSPropertyOp10
 70
     1
102
RTVSPropertyOp11
 70
     1
102
RTVSPropertyOp12
 70
     1
102
RTVSPropertyOp13
 70
     1
102
RTVSPropertyOp14
 70
     1
102
RTVSPropertyOp15
 70
     1
102
RTVSPropertyOp16
 70
     1
102
RTVSPropertyOp17
 70
     1
102
RTVSPropertyOp18
 70
     1
102
RTVSPropertyOp19
 70
     1
102
RTVSPropertyOp20
 70
     1
102
RTVSPropertyOp21
 70
     1
102
RTVSPropertyOp22
 70
     1
102
RTVSPropertyOp23
 70
     1
102
RTVSPropertyOp24
 70
     1
102
RTVSPropertyOp25
 70
     1
102
RTVSPropertyOp26
 70
     1
102
RTVSPropertyOp27
 70
     1
102
RTVSPropertyOp28
 70
     1
102
RTVSPropertyOp29
 70
     1
102
RTVSPropertyOp30
 70
     1
102
RTVSPropertyOp31
 70
     1
102
RTVSPropertyOp32
 70
     1
102
RTVSPropertyOp33
 70
     1
102
RTVSPropertyOp34
 70
     1
102
RTVSPropertyOp35
 70
     1
102
RTVSPropertyOp36
 70
     1
102
RTVSPropertyOp37
 70
     1
102
RTVSPropertyOp38
 70
     1
102
RTVSPropertyOp39
 70
     1
102
RTVSPropertyOp40
 70
     1
102
RTVSPropertyOp41
 70
     1
102
RTVSPropertyOp42
 70
     1
102
RTVSPropertyOp43
 70
     1
102
RTVSPropertyOp44
 70
     1
102
RTVSPropertyOp45
 70
     1
102
RTVSPropertyOp46
 70
     1
102
RTVSPropertyOp47
 70
     1
102
RTVSPropertyOp48
 70
     1
102
RTVSPropertyOp49
 70
     1
102
RTVSPropertyOp50
 70
     1
102
RTVSPropertyOp51
 70
     0
102
RTVSPropertyOp52
 70
     0
102
RTVSPropertyOp53
 70
     1
102
RTVSPropertyOp54
 70
     1
102
RTVSPropertyOp55
 70
     1
102
RTVSPropertyOp56
 70
     1
102
RTVSPropertyOp57
 70
     1
102
RTVSPost2010Prop28
280
     0
102
RTVSPost2010PropOp28
 70
     1
102
RTVSPost2010Prop29
280
     1
102
RTVSPost2010PropOp29
 70
     1
102
RTVSPost2010Prop30
280
     1
102
RTVSPost2010PropOp30
 70
     1
102
RTVSPost2010Prop31
280
     0
102
RTVSPost2010PropOp31
 70
     1
102
RTVSPost2010Prop32
280
     0
102
RTVSPost2010PropOp32
 70
     1
102
RTVSPost2010Prop33
280
     0
102
RTVSPost2010PropOp33
 70
     1
102
RTVSPost2010Prop34
280
     0
102
RTVSPost2010PropOp34
 70
     1
102
RTVSPost2010Prop35
280
     0
102
RTVSPost2010PropOp35
 70
     1
102
RTVSPost2010Prop36
280
     0
102
RTVSPost2010PropOp36
 70
     1
102
RTVSPost2010Prop37
 90
       50
102
RTVSPost2010PropOp37
 70
     1
102
RTVSPost2010Prop38
140
0.0
102
RTVSPost2010PropOp38
 70
     1
102
RTVSPost2010Prop39
140
1.0
102
RTVSPost2010PropOp39
 70
     1
102
RTVSPost2010Prop40
 90
        0
102
RTVSPost2010PropOp40
 70
     1
102
RTVSPost2010Prop41ColorIndex
 90
       18
102
RTVSPost2010Prop41ColorRGB
 90
        0
102
RTVSPost2010PropOp41
 70
     1
102
RTVSPost2010Prop42
 90
       50
102
RTVSPost2010PropOp42
 70
     1
102
RTVSPost2010Prop43
 90
        3
102
RTVSPost2010PropOp43
 70
     1
102
RTVSPost2010Prop44ColorIndex
 90
        5
102
RTVSPost2010Prop44ColorRGB
 90
      255
102
RTVSPost2010PropOp44
 70
     1
102
RTVSPost2010Prop45
280
     0
102
RTVSPost2010PropOp45
 70
     1
102
RTVSPost2010Prop46
 90
       50
102
RTVSPost2010PropOp46
 70
     1
102
RTVSPost2010Prop47
 90
       50
102
RTVSPost2010PropOp47
 70
     1
102
RTVSPost2010Prop48
 90
       50
102
RTVSPost2010PropOp48
 70
     1
102
RTVSPost2010Prop49
280
     0
102
RTVSPost2010PropOp49
 70
     1
102
RTVSPost2010Prop50
 90
       50
102
RTVSPost2010PropOp50
 70
     1
102
RTVSPost2010Prop51ColorIndex
 90
      256
102
RTVSPost2010Prop51ColorRGB
 90
-16777216
102
RTVSPost2010PropOp51
 70
     0
102
RTVSPost2010Prop52
140
1.0
102
RTVSPost2010PropOp52
 70
     0
102
RTVSPost2010Prop53
 90
        2
102
RTVSPost2010PropOp53
 70
     1
102
RTVSPost2010Prop54
  1
strokes_ogs.tif
102
RTVSPost2010PropOp54
 70
     1
102
RTVSPost2010Prop55
280
     0
102
RTVSPost2010PropOp55
 70
     1
102
RTVSPost2010Prop56
140
1.0
102
RTVSPost2010PropOp56
 70
     1
102
RTVSPost2010Prop57
140
1.0
102
RTVSPost2010PropOp57
 70
     1
  0
XRECORD
  5
4E3
102
{ACAD_REACTORS
330
4E2
102
}
330
4E2
100
AcDbXrecord
280
     1
102
RTVSPropertyOp0
 70
     0
102
RTVSPropertyOp1
 70
     0
102
RTVSPropertyOp2
 70
     0
102
RTVSPropertyOp3
 70
     0
102
RTVSPropertyOp4
 70
     0
102
RTVSPropertyOp5
 70
     0
102
RTVSPropertyOp6
 70
     0
102
RTVSPropertyOp7
 70
     0
102
RTVSPropertyOp8
 70
     0
102
RTVSPropertyOp9
 70
     0
102
RTVSPropertyOp10
 70
     0
102
RTVSPropertyOp11
 70
     0
102
RTVSPropertyOp12
 70
     0
102
RTVSPropertyOp13
 70
     0
102
RTVSPropertyOp14
 70
     2
102
RTVSPropertyOp15
 70
     0
102
RTVSPropertyOp16
 70
     0
102
RTVSPropertyOp17
 70
     0
102
RTVSPropertyOp18
 70
     0
102
RTVSPropertyOp19
 70
     0
102
RTVSPropertyOp20
 70
     0
102
RTVSPropertyOp21
 70
     0
102
RTVSPropertyOp22
 70
     0
102
RTVSPropertyOp23
 70
     0
102
RTVSPropertyOp24
 70
     0
102
RTVSPropertyOp25
 70
     0
102
RTVSPropertyOp26
 70
     0
102
RTVSPropertyOp27
 70
     0
102
RTVSPropertyOp28
 70
     0
102
RTVSPropertyOp29
 70
     0
102
RTVSPropertyOp30
 70
     0
102
RTVSPropertyOp31
 70
     0
102
RTVSPropertyOp32
 70
     0
102
RTVSPropertyOp33
 70
     0
102
RTVSPropertyOp34
 70
     0
102
RTVSPropertyOp35
 70
     0
102
RTVSPropertyOp36
 70
     0
102
RTVSPropertyOp37
 70
     0
102
RTVSPropertyOp38
 70
     0
102
RTVSPropertyOp39
 70
     0
102
RTVSPropertyOp40
 70
     0
102
RTVSPropertyOp41
 70
     0
102
RTVSPropertyOp42
 70
     0
102
RTVSPropertyOp43
 70
     0
102
RTVSPropertyOp44
 70
     0
102
RTVSPropertyOp45
 70
     0
102
RTVSPropertyOp46
 70
     0
102
RTVSPropertyOp47
 70
     0
102
RTVSPropertyOp48
 70
     0
102
RTVSPropertyOp49
 70
     0
102
RTVSPropertyOp50
 70
     0
102
RTVSPropertyOp51
 70
     0
102
RTVSPropertyOp52
 70
     0
102
RTVSPropertyOp53
 70
     0
102
RTVSPropertyOp54
 70
     0
102
RTVSPropertyOp55
 70
     0
102
RTVSPropertyOp56
 70
     0
102
RTVSPropertyOp57
 70
     0
102
RTVSPost2010Prop28
280
     0
102
RTVSPost2010PropOp28
 70
     0
102
RTVSPost2010Prop29
280
     1
102
RTVSPost2010PropOp29
 70
     0
102
RTVSPost2010Prop30
280
     1
102
RTVSPost2010PropOp30
 70
     0
102
RTVSPost2010Prop31
280
     0
102
RTVSPost2010PropOp31
 70
     0
102
RTVSPost2010Prop32
280
     0
102
RTVSPost2010PropOp32
 70
     0
102
RTVSPost2010Prop33
280
     0
102
RTVSPost2010PropOp33
 70
     0
102
RTVSPost2010Prop34
280
     0
102
RTVSPost2010PropOp34
 70
     0
102
RTVSPost2010Prop35
280
     0
102
RTVSPost2010PropOp35
 70
     0
102
RTVSPost2010Prop36
280
     0
102
RTVSPost2010PropOp36
 70
     0
102
RTVSPost2010Prop37
 90
       50
102
RTVSPost2010PropOp37
 70
     0
102
RTVSPost2010Prop38
140
0.0
102
RTVSPost2010PropOp38
 70
     0
102
RTVSPost2010Prop39
140
1.0
102
RTVSPost2010PropOp39
 70
     0
102
RTVSPost2010Prop40
 90
        0
102
RTVSPost2010PropOp40
 70
     0
102
RTVSPost2010Prop41ColorIndex
 90
       18
102
RTVSPost2010Prop41ColorRGB
 90
        0
102
RTVSPost2010PropOp41
 70
     0
102
RTVSPost2010Prop42
 90
       50
102
RTVSPost2010PropOp42
 70
     0
102
RTVSPost2010Prop43
 90
        3
102
RTVSPost2010PropOp43
 70
     0
102
RTVSPost2010Prop44ColorIndex
 90
        5
102
RTVSPost2010Prop44ColorRGB
 90
      255
102
RTVSPost2010PropOp44
 70
     0
102
RTVSPost2010Prop45
280
     0
102
RTVSPost2010PropOp45
 70
     0
102
RTVSPost2010Prop46
 90
       50
102
RTVSPost2010PropOp46
 70
     0
102
RTVSPost2010Prop47
 90
       50
102
RTVSPost2010PropOp47
 70
     0
102
RTVSPost2010Prop48
 90
       50
102
RTVSPost2010PropOp48
 70
     0
102
RTVSPost2010Prop49
280
     0
102
RTVSPost2010PropOp49
 70
     0
102
RTVSPost2010Prop50
 90
       50
102
RTVSPost2010PropOp50
 70
     0
102
RTVSPost2010Prop51ColorIndex
 90
      256
102
RTVSPost2010Prop51ColorRGB
 90
-16777216
102
RTVSPost2010PropOp51
 70
     0
102
RTVSPost2010Prop52
140
1.0
102
RTVSPost2010PropOp52
 70
     0
102
RTVSPost2010Prop53
 90
        2
102
RTVSPost2010PropOp53
 70
     0
102
RTVSPost2010Prop54
  1
strokes_ogs.tif
102
RTVSPost2010PropOp54
 70
     0
102
RTVSPost2010Prop55
280
     0
102
RTVSPost2010PropOp55
 70
     0
102
RTVSPost2010Prop56
140
1.0
102
RTVSPost2010PropOp56
 70
     0
102
RTVSPost2010Prop57
140
1.0
102
RTVSPost2010PropOp57
 70
     0
  0
XRECORD
  5
4D1
102
{ACAD_REACTORS
330
4D0
102
}
330
4D0
100
AcDbXrecord
280
     1
102
RTVSPropertyOp0
 70
     1
102
RTVSPropertyOp1
 70
     1
102
RTVSPropertyOp2
 70
     1
102
RTVSPropertyOp3
 70
     1
102
RTVSPropertyOp4
 70
     1
102
RTVSPropertyOp5
 70
     1
102
RTVSPropertyOp6
 70
     1
102
RTVSPropertyOp7
 70
     1
102
RTVSPropertyOp8
 70
     1
102
RTVSPropertyOp9
 70
     1
102
RTVSPropertyOp10
 70
     1
102
RTVSPropertyOp11
 70
     1
102
RTVSPropertyOp12
 70
     1
102
RTVSPropertyOp13
 70
     1
102
RTVSPropertyOp14
 70
     1
102
RTVSPropertyOp15
 70
     1
102
RTVSPropertyOp16
 70
     1
102
RTVSPropertyOp17
 70
     1
102
RTVSPropertyOp18
 70
     1
102
RTVSPropertyOp19
 70
     1
102
RTVSPropertyOp20
 70
     1
102
RTVSPropertyOp21
 70
     1
102
RTVSPropertyOp22
 70
     1
102
RTVSPropertyOp23
 70
     1
102
RTVSPropertyOp24
 70
     1
102
RTVSPropertyOp25
 70
     1
102
RTVSPropertyOp26
 70
     1
102
RTVSPropertyOp27
 70
     1
102
RTVSPropertyOp28
 70
     1
102
RTVSPropertyOp29
 70
     1
102
RTVSPropertyOp30
 70
     1
102
RTVSPropertyOp31
 70
     1
102
RTVSPropertyOp32
 70
     1
102
RTVSPropertyOp33
 70
     1
102
RTVSPropertyOp34
 70
     1
102
RTVSPropertyOp35
 70
     1
102
RTVSPropertyOp36
 70
     1
102
RTVSPropertyOp37
 70
     1
102
RTVSPropertyOp38
 70
     1
102
RTVSPropertyOp39
 70
     1
102
RTVSPropertyOp40
 70
     1
102
RTVSPropertyOp41
 70
     1
102
RTVSPropertyOp42
 70
     1
102
RTVSPropertyOp43
 70
     1
102
RTVSPropertyOp44
 70
     1
102
RTVSPropertyOp45
 70
     1
102
RTVSPropertyOp46
 70
     1
102
RTVSPropertyOp47
 70
     1
102
RTVSPropertyOp48
 70
     1
102
RTVSPropertyOp49
 70
     1
102
RTVSPropertyOp50
 70
     1
102
RTVSPropertyOp51
 70
     0
102
RTVSPropertyOp52
 70
     0
102
RTVSPropertyOp53
 70
     1
102
RTVSPropertyOp54
 70
     1
102
RTVSPropertyOp55
 70
     1
102
RTVSPropertyOp56
 70
     1
102
RTVSPropertyOp57
 70
     1
102
RTVSPost2010Prop28
280
     0
102
RTVSPost2010PropOp28
 70
     1
102
RTVSPost2010Prop29
280
     1
102
RTVSPost2010PropOp29
 70
     1
102
RTVSPost2010Prop30
280
     1
102
RTVSPost2010PropOp30
 70
     1
102
RTVSPost2010Prop31
280
     0
102
RTVSPost2010PropOp31
 70
     1
102
RTVSPost2010Prop32
280
     0
102
RTVSPost2010PropOp32
 70
     1
102
RTVSPost2010Prop33
280
     0
102
RTVSPost2010PropOp33
 70
     1
102
RTVSPost2010Prop34
280
     0
102
RTVSPost2010PropOp34
 70
     1
102
RTVSPost2010Prop35
280
     0
102
RTVSPost2010PropOp35
 70
     1
102
RTVSPost2010Prop36
280
     0
102
RTVSPost2010PropOp36
 70
     1
102
RTVSPost2010Prop37
 90
       50
102
RTVSPost2010PropOp37
 70
     1
102
RTVSPost2010Prop38
140
0.0
102
RTVSPost2010PropOp38
 70
     1
102
RTVSPost2010Prop39
140
1.0
102
RTVSPost2010PropOp39
 70
     1
102
RTVSPost2010Prop40
 90
        0
102
RTVSPost2010PropOp40
 70
     1
102
RTVSPost2010Prop41ColorIndex
 90
       18
102
RTVSPost2010Prop41ColorRGB
 90
        0
102
RTVSPost2010PropOp41
 70
     1
102
RTVSPost2010Prop42
 90
       50
102
RTVSPost2010PropOp42
 70
     1
102
RTVSPost2010Prop43
 90
        3
102
RTVSPost2010PropOp43
 70
     1
102
RTVSPost2010Prop44ColorIndex
 90
        5
102
RTVSPost2010Prop44ColorRGB
 90
      255
102
RTVSPost2010PropOp44
 70
     1
102
RTVSPost2010Prop45
280
     0
102
RTVSPost2010PropOp45
 70
     1
102
RTVSPost2010Prop46
 90
       50
102
RTVSPost2010PropOp46
 70
     1
102
RTVSPost2010Prop47
 90
       50
102
RTVSPost2010PropOp47
 70
     1
102
RTVSPost2010Prop48
 90
       50
102
RTVSPost2010PropOp48
 70
     1
102
RTVSPost2010Prop49
280
     0
102
RTVSPost2010PropOp49
 70
     1
102
RTVSPost2010Prop50
 90
       50
102
RTVSPost2010PropOp50
 70
     1
102
RTVSPost2010Prop51ColorIndex
 90
      256
102
RTVSPost2010Prop51ColorRGB
 90
-16777216
102
RTVSPost2010PropOp51
 70
     0
102
RTVSPost2010Prop52
140
1.0
102
RTVSPost2010PropOp52
 70
     0
102
RTVSPost2010Prop53
 90
        2
102
RTVSPost2010PropOp53
 70
     1
102
RTVSPost2010Prop54
  1
strokes_ogs.tif
102
RTVSPost2010PropOp54
 70
     1
102
RTVSPost2010Prop55
280
     0
102
RTVSPost2010PropOp55
 70
     1
102
RTVSPost2010Prop56
140
1.0
102
RTVSPost2010PropOp56
 70
     1
102
RTVSPost2010Prop57
140
1.0
102
RTVSPost2010PropOp57
 70
     1
  0
XRECORD
  5
4EF
102
{ACAD_REACTORS
330
4EE
102
}
330
4EE
100
AcDbXrecord
280
     1
102
RTVSPropertyOp0
 70
     1
102
RTVSPropertyOp1
 70
     1
102
RTVSPropertyOp2
 70
     1
102
RTVSPropertyOp3
 70
     1
102
RTVSPropertyOp4
 70
     1
102
RTVSPropertyOp5
 70
     1
102
RTVSPropertyOp6
 70
     1
102
RTVSPropertyOp7
 70
     1
102
RTVSPropertyOp8
 70
     1
102
RTVSPropertyOp9
 70
     1
102
RTVSPropertyOp10
 70
     1
102
RTVSPropertyOp11
 70
     1
102
RTVSPropertyOp12
 70
     1
102
RTVSPropertyOp13
 70
     1
102
RTVSPropertyOp14
 70
     1
102
RTVSPropertyOp15
 70
     1
102
RTVSPropertyOp16
 70
     1
102
RTVSPropertyOp17
 70
     1
102
RTVSPropertyOp18
 70
     1
102
RTVSPropertyOp19
 70
     1
102
RTVSPropertyOp20
 70
     1
102
RTVSPropertyOp21
 70
     1
102
RTVSPropertyOp22
 70
     1
102
RTVSPropertyOp23
 70
     1
102
RTVSPropertyOp24
 70
     1
102
RTVSPropertyOp25
 70
     1
102
RTVSPropertyOp26
 70
     1
102
RTVSPropertyOp27
 70
     1
102
RTVSPropertyOp28
 70
     1
102
RTVSPropertyOp29
 70
     1
102
RTVSPropertyOp30
 70
     1
102
RTVSPropertyOp31
 70
     1
102
RTVSPropertyOp32
 70
     1
102
RTVSPropertyOp33
 70
     1
102
RTVSPropertyOp34
 70
     1
102
RTVSPropertyOp35
 70
     1
102
RTVSPropertyOp36
 70
     1
102
RTVSPropertyOp37
 70
     1
102
RTVSPropertyOp38
 70
     1
102
RTVSPropertyOp39
 70
     1
102
RTVSPropertyOp40
 70
     1
102
RTVSPropertyOp41
 70
     1
102
RTVSPropertyOp42
 70
     1
102
RTVSPropertyOp43
 70
     1
102
RTVSPropertyOp44
 70
     1
102
RTVSPropertyOp45
 70
     1
102
RTVSPropertyOp46
 70
     1
102
RTVSPropertyOp47
 70
     1
102
RTVSPropertyOp48
 70
     1
102
RTVSPropertyOp49
 70
     1
102
RTVSPropertyOp50
 70
     1
102
RTVSPropertyOp51
 70
     0
102
RTVSPropertyOp52
 70
     0
102
RTVSPropertyOp53
 70
     1
102
RTVSPropertyOp54
 70
     1
102
RTVSPropertyOp55
 70
     1
102
RTVSPropertyOp56
 70
     1
102
RTVSPropertyOp57
 70
     1
102
RTVSPost2010Prop28
280
     0
102
RTVSPost2010PropOp28
 70
     1
102
RTVSPost2010Prop29
280
     1
102
RTVSPost2010PropOp29
 70
     1
102
RTVSPost2010Prop30
280
     1
102
RTVSPost2010PropOp30
 70
     1
102
RTVSPost2010Prop31
280
     0
102
RTVSPost2010PropOp31
 70
     1
102
RTVSPost2010Prop32
280
     0
102
RTVSPost2010PropOp32
 70
     1
102
RTVSPost2010Prop33
280
     0
102
RTVSPost2010PropOp33
 70
     1
102
RTVSPost2010Prop34
280
     0
102
RTVSPost2010PropOp34
 70
     1
102
RTVSPost2010Prop35
280
     0
102
RTVSPost2010PropOp35
 70
     1
102
RTVSPost2010Prop36
280
     0
102
RTVSPost2010PropOp36
 70
     1
102
RTVSPost2010Prop37
 90
       50
102
RTVSPost2010PropOp37
 70
     1
102
RTVSPost2010Prop38
140
0.0
102
RTVSPost2010PropOp38
 70
     1
102
RTVSPost2010Prop39
140
1.0
102
RTVSPost2010PropOp39
 70
     1
102
RTVSPost2010Prop40
 90
        0
102
RTVSPost2010PropOp40
 70
     1
102
RTVSPost2010Prop41ColorIndex
 90
       18
102
RTVSPost2010Prop41ColorRGB
 90
        0
102
RTVSPost2010PropOp41
 70
     1
102
RTVSPost2010Prop42
 90
       50
102
RTVSPost2010PropOp42
 70
     1
102
RTVSPost2010Prop43
 90
        3
102
RTVSPost2010PropOp43
 70
     1
102
RTVSPost2010Prop44ColorIndex
 90
        5
102
RTVSPost2010Prop44ColorRGB
 90
      255
102
RTVSPost2010PropOp44
 70
     1
102
RTVSPost2010Prop45
280
     0
102
RTVSPost2010PropOp45
 70
     1
102
RTVSPost2010Prop46
 90
       50
102
RTVSPost2010PropOp46
 70
     1
102
RTVSPost2010Prop47
 90
       50
102
RTVSPost2010PropOp47
 70
     1
102
RTVSPost2010Prop48
 90
       50
102
RTVSPost2010PropOp48
 70
     1
102
RTVSPost2010Prop49
280
     0
102
RTVSPost2010PropOp49
 70
     1
102
RTVSPost2010Prop50
 90
       50
102
RTVSPost2010PropOp50
 70
     1
102
RTVSPost2010Prop51ColorIndex
 90
      256
102
RTVSPost2010Prop51ColorRGB
 90
-16777216
102
RTVSPost2010PropOp51
 70
     0
102
RTVSPost2010Prop52
140
1.0
102
RTVSPost2010PropOp52
 70
     0
102
RTVSPost2010Prop53
 90
        2
102
RTVSPost2010PropOp53
 70
     1
102
RTVSPost2010Prop54
  1
strokes_ogs.tif
102
RTVSPost2010PropOp54
 70
     1
102
RTVSPost2010Prop55
280
     0
102
RTVSPost2010PropOp55
 70
     1
102
RTVSPost2010Prop56
140
1.0
102
RTVSPost2010PropOp56
 70
     1
102
RTVSPost2010Prop57
140
1.0
102
RTVSPost2010PropOp57
 70
     1
  0
XRECORD
  5
4ED
102
{ACAD_REACTORS
330
4EC
102
}
330
4EC
100
AcDbXrecord
280
     1
102
RTVSPropertyOp0
 70
     1
102
RTVSPropertyOp1
 70
     1
102
RTVSPropertyOp2
 70
     1
102
RTVSPropertyOp3
 70
     1
102
RTVSPropertyOp4
 70
     1
102
RTVSPropertyOp5
 70
     1
102
RTVSPropertyOp6
 70
     1
102
RTVSPropertyOp7
 70
     1
102
RTVSPropertyOp8
 70
     1
102
RTVSPropertyOp9
 70
     1
102
RTVSPropertyOp10
 70
     1
102
RTVSPropertyOp11
 70
     1
102
RTVSPropertyOp12
 70
     1
102
RTVSPropertyOp13
 70
     1
102
RTVSPropertyOp14
 70
     1
102
RTVSPropertyOp15
 70
     1
102
RTVSPropertyOp16
 70
     1
102
RTVSPropertyOp17
 70
     1
102
RTVSPropertyOp18
 70
     1
102
RTVSPropertyOp19
 70
     1
102
RTVSPropertyOp20
 70
     1
102
RTVSPropertyOp21
 70
     1
102
RTVSPropertyOp22
 70
     1
102
RTVSPropertyOp23
 70
     1
102
RTVSPropertyOp24
 70
     1
102
RTVSPropertyOp25
 70
     1
102
RTVSPropertyOp26
 70
     1
102
RTVSPropertyOp27
 70
     1
102
RTVSPropertyOp28
 70
     1
102
RTVSPropertyOp29
 70
     1
102
RTVSPropertyOp30
 70
     1
102
RTVSPropertyOp31
 70
     1
102
RTVSPropertyOp32
 70
     1
102
RTVSPropertyOp33
 70
     1
102
RTVSPropertyOp34
 70
     1
102
RTVSPropertyOp35
 70
     1
102
RTVSPropertyOp36
 70
     1
102
RTVSPropertyOp37
 70
     1
102
RTVSPropertyOp38
 70
     1
102
RTVSPropertyOp39
 70
     1
102
RTVSPropertyOp40
 70
     1
102
RTVSPropertyOp41
 70
     1
102
RTVSPropertyOp42
 70
     1
102
RTVSPropertyOp43
 70
     1
102
RTVSPropertyOp44
 70
     1
102
RTVSPropertyOp45
 70
     1
102
RTVSPropertyOp46
 70
     1
102
RTVSPropertyOp47
 70
     1
102
RTVSPropertyOp48
 70
     1
102
RTVSPropertyOp49
 70
     1
102
RTVSPropertyOp50
 70
     1
102
RTVSPropertyOp51
 70
     0
102
RTVSPropertyOp52
 70
     0
102
RTVSPropertyOp53
 70
     1
102
RTVSPropertyOp54
 70
     1
102
RTVSPropertyOp55
 70
     1
102
RTVSPropertyOp56
 70
     1
102
RTVSPropertyOp57
 70
     1
102
RTVSPost2010Prop28
280
     0
102
RTVSPost2010PropOp28
 70
     1
102
RTVSPost2010Prop29
280
     1
102
RTVSPost2010PropOp29
 70
     1
102
RTVSPost2010Prop30
280
     1
102
RTVSPost2010PropOp30
 70
     1
102
RTVSPost2010Prop31
280
     0
102
RTVSPost2010PropOp31
 70
     1
102
RTVSPost2010Prop32
280
     0
102
RTVSPost2010PropOp32
 70
     1
102
RTVSPost2010Prop33
280
     0
102
RTVSPost2010PropOp33
 70
     1
102
RTVSPost2010Prop34
280
     0
102
RTVSPost2010PropOp34
 70
     1
102
RTVSPost2010Prop35
280
     0
102
RTVSPost2010PropOp35
 70
     1
102
RTVSPost2010Prop36
280
     0
102
RTVSPost2010PropOp36
 70
     1
102
RTVSPost2010Prop37
 90
       50
102
RTVSPost2010PropOp37
 70
     1
102
RTVSPost2010Prop38
140
0.0
102
RTVSPost2010PropOp38
 70
     1
102
RTVSPost2010Prop39
140
1.0
102
RTVSPost2010PropOp39
 70
     1
102
RTVSPost2010Prop40
 90
        0
102
RTVSPost2010PropOp40
 70
     1
102
RTVSPost2010Prop41ColorIndex
 90
       18
102
RTVSPost2010Prop41ColorRGB
 90
        0
102
RTVSPost2010PropOp41
 70
     1
102
RTVSPost2010Prop42
 90
       50
102
RTVSPost2010PropOp42
 70
     1
102
RTVSPost2010Prop43
 90
        3
102
RTVSPost2010PropOp43
 70
     1
102
RTVSPost2010Prop44ColorIndex
 90
        5
102
RTVSPost2010Prop44ColorRGB
 90
      255
102
RTVSPost2010PropOp44
 70
     1
102
RTVSPost2010Prop45
280
     0
102
RTVSPost2010PropOp45
 70
     1
102
RTVSPost2010Prop46
 90
       50
102
RTVSPost2010PropOp46
 70
     1
102
RTVSPost2010Prop47
 90
       50
102
RTVSPost2010PropOp47
 70
     1
102
RTVSPost2010Prop48
 90
       50
102
RTVSPost2010PropOp48
 70
     1
102
RTVSPost2010Prop49
280
     0
102
RTVSPost2010PropOp49
 70
     1
102
RTVSPost2010Prop50
 90
       50
102
RTVSPost2010PropOp50
 70
     1
102
RTVSPost2010Prop51ColorIndex
 90
      256
102
RTVSPost2010Prop51ColorRGB
 90
-16777216
102
RTVSPost2010PropOp51
 70
     0
102
RTVSPost2010Prop52
140
1.0
102
RTVSPost2010PropOp52
 70
     0
102
RTVSPost2010Prop53
 90
        2
102
RTVSPost2010PropOp53
 70
     1
102
RTVSPost2010Prop54
  1
strokes_ogs.tif
102
RTVSPost2010PropOp54
 70
     1
102
RTVSPost2010Prop55
280
     0
102
RTVSPost2010PropOp55
 70
     1
102
RTVSPost2010Prop56
140
1.0
102
RTVSPost2010PropOp56
 70
     1
102
RTVSPost2010Prop57
140
1.0
102
RTVSPost2010PropOp57
 70
     1
  0
XRECORD
  5
4E7
102
{ACAD_REACTORS
330
4E6
102
}
330
4E6
100
AcDbXrecord
280
     1
102
RTVSPropertyOp0
 70
     1
102
RTVSPropertyOp1
 70
     1
102
RTVSPropertyOp2
 70
     1
102
RTVSPropertyOp3
 70
     1
102
RTVSPropertyOp4
 70
     1
102
RTVSPropertyOp5
 70
     1
102
RTVSPropertyOp6
 70
     1
102
RTVSPropertyOp7
 70
     1
102
RTVSPropertyOp8
 70
     1
102
RTVSPropertyOp9
 70
     1
102
RTVSPropertyOp10
 70
     1
102
RTVSPropertyOp11
 70
     1
102
RTVSPropertyOp12
 70
     1
102
RTVSPropertyOp13
 70
     1
102
RTVSPropertyOp14
 70
     1
102
RTVSPropertyOp15
 70
     1
102
RTVSPropertyOp16
 70
     1
102
RTVSPropertyOp17
 70
     1
102
RTVSPropertyOp18
 70
     1
102
RTVSPropertyOp19
 70
     1
102
RTVSPropertyOp20
 70
     1
102
RTVSPropertyOp21
 70
     1
102
RTVSPropertyOp22
 70
     1
102
RTVSPropertyOp23
 70
     1
102
RTVSPropertyOp24
 70
     1
102
RTVSPropertyOp25
 70
     1
102
RTVSPropertyOp26
 70
     1
102
RTVSPropertyOp27
 70
     1
102
RTVSPropertyOp28
 70
     1
102
RTVSPropertyOp29
 70
     1
102
RTVSPropertyOp30
 70
     1
102
RTVSPropertyOp31
 70
     1
102
RTVSPropertyOp32
 70
     1
102
RTVSPropertyOp33
 70
     1
102
RTVSPropertyOp34
 70
     1
102
RTVSPropertyOp35
 70
     1
102
RTVSPropertyOp36
 70
     1
102
RTVSPropertyOp37
 70
     1
102
RTVSPropertyOp38
 70
     1
102
RTVSPropertyOp39
 70
     1
102
RTVSPropertyOp40
 70
     1
102
RTVSPropertyOp41
 70
     1
102
RTVSPropertyOp42
 70
     1
102
RTVSPropertyOp43
 70
     1
102
RTVSPropertyOp44
 70
     1
102
RTVSPropertyOp45
 70
     1
102
RTVSPropertyOp46
 70
     1
102
RTVSPropertyOp47
 70
     1
102
RTVSPropertyOp48
 70
     1
102
RTVSPropertyOp49
 70
     1
102
RTVSPropertyOp50
 70
     1
102
RTVSPropertyOp51
 70
     0
102
RTVSPropertyOp52
 70
     0
102
RTVSPropertyOp53
 70
     1
102
RTVSPropertyOp54
 70
     1
102
RTVSPropertyOp55
 70
     1
102
RTVSPropertyOp56
 70
     1
102
RTVSPropertyOp57
 70
     1
102
RTVSPost2010Prop28
280
     0
102
RTVSPost2010PropOp28
 70
     1
102
RTVSPost2010Prop29
280
     1
102
RTVSPost2010PropOp29
 70
     1
102
RTVSPost2010Prop30
280
     1
102
RTVSPost2010PropOp30
 70
     1
102
RTVSPost2010Prop31
280
     0
102
RTVSPost2010PropOp31
 70
     1
102
RTVSPost2010Prop32
280
     0
102
RTVSPost2010PropOp32
 70
     1
102
RTVSPost2010Prop33
280
     0
102
RTVSPost2010PropOp33
 70
     1
102
RTVSPost2010Prop34
280
     0
102
RTVSPost2010PropOp34
 70
     1
102
RTVSPost2010Prop35
280
     0
102
RTVSPost2010PropOp35
 70
     1
102
RTVSPost2010Prop36
280
     0
102
RTVSPost2010PropOp36
 70
     1
102
RTVSPost2010Prop37
 90
       50
102
RTVSPost2010PropOp37
 70
     1
102
RTVSPost2010Prop38
140
0.0
102
RTVSPost2010PropOp38
 70
     1
102
RTVSPost2010Prop39
140
1.0
102
RTVSPost2010PropOp39
 70
     1
102
RTVSPost2010Prop40
 90
        0
102
RTVSPost2010PropOp40
 70
     1
102
RTVSPost2010Prop41ColorIndex
 90
       18
102
RTVSPost2010Prop41ColorRGB
 90
        0
102
RTVSPost2010PropOp41
 70
     1
102
RTVSPost2010Prop42
 90
       50
102
RTVSPost2010PropOp42
 70
     1
102
RTVSPost2010Prop43
 90
        3
102
RTVSPost2010PropOp43
 70
     1
102
RTVSPost2010Prop44ColorIndex
 90
        5
102
RTVSPost2010Prop44ColorRGB
 90
      255
102
RTVSPost2010PropOp44
 70
     1
102
RTVSPost2010Prop45
280
     0
102
RTVSPost2010PropOp45
 70
     1
102
RTVSPost2010Prop46
 90
       50
102
RTVSPost2010PropOp46
 70
     1
102
RTVSPost2010Prop47
 90
       50
102
RTVSPost2010PropOp47
 70
     1
102
RTVSPost2010Prop48
 90
       50
102
RTVSPost2010PropOp48
 70
     1
102
RTVSPost2010Prop49
280
     0
102
RTVSPost2010PropOp49
 70
     1
102
RTVSPost2010Prop50
 90
       50
102
RTVSPost2010PropOp50
 70
     1
102
RTVSPost2010Prop51ColorIndex
 90
      256
102
RTVSPost2010Prop51ColorRGB
 90
-16777216
102
RTVSPost2010PropOp51
 70
     0
102
RTVSPost2010Prop52
140
1.0
102
RTVSPost2010PropOp52
 70
     0
102
RTVSPost2010Prop53
 90
        2
102
RTVSPost2010PropOp53
 70
     1
102
RTVSPost2010Prop54
  1
strokes_ogs.tif
102
RTVSPost2010PropOp54
 70
     1
102
RTVSPost2010Prop55
280
     0
102
RTVSPost2010PropOp55
 70
     1
102
RTVSPost2010Prop56
140
1.0
102
RTVSPost2010PropOp56
 70
     1
102
RTVSPost2010Prop57
140
1.0
102
RTVSPost2010PropOp57
 70
     1
  0
XRECORD
  5
4E9
102
{ACAD_REACTORS
330
4E8
102
}
330
4E8
100
AcDbXrecord
280
     1
102
RTVSPropertyOp0
 70
     1
102
RTVSPropertyOp1
 70
     1
102
RTVSPropertyOp2
 70
     1
102
RTVSPropertyOp3
 70
     1
102
RTVSPropertyOp4
 70
     1
102
RTVSPropertyOp5
 70
     1
102
RTVSPropertyOp6
 70
     1
102
RTVSPropertyOp7
 70
     1
102
RTVSPropertyOp8
 70
     1
102
RTVSPropertyOp9
 70
     1
102
RTVSPropertyOp10
 70
     1
102
RTVSPropertyOp11
 70
     1
102
RTVSPropertyOp12
 70
     1
102
RTVSPropertyOp13
 70
     1
102
RTVSPropertyOp14
 70
     1
102
RTVSPropertyOp15
 70
     1
102
RTVSPropertyOp16
 70
     1
102
RTVSPropertyOp17
 70
     1
102
RTVSPropertyOp18
 70
     1
102
RTVSPropertyOp19
 70
     1
102
RTVSPropertyOp20
 70
     1
102
RTVSPropertyOp21
 70
     1
102
RTVSPropertyOp22
 70
     1
102
RTVSPropertyOp23
 70
     1
102
RTVSPropertyOp24
 70
     1
102
RTVSPropertyOp25
 70
     1
102
RTVSPropertyOp26
 70
     1
102
RTVSPropertyOp27
 70
     1
102
RTVSPropertyOp28
 70
     1
102
RTVSPropertyOp29
 70
     1
102
RTVSPropertyOp30
 70
     1
102
RTVSPropertyOp31
 70
     1
102
RTVSPropertyOp32
 70
     1
102
RTVSPropertyOp33
 70
     1
102
RTVSPropertyOp34
 70
     1
102
RTVSPropertyOp35
 70
     1
102
RTVSPropertyOp36
 70
     1
102
RTVSPropertyOp37
 70
     1
102
RTVSPropertyOp38
 70
     1
102
RTVSPropertyOp39
 70
     1
102
RTVSPropertyOp40
 70
     1
102
RTVSPropertyOp41
 70
     1
102
RTVSPropertyOp42
 70
     1
102
RTVSPropertyOp43
 70
     1
102
RTVSPropertyOp44
 70
     1
102
RTVSPropertyOp45
 70
     1
102
RTVSPropertyOp46
 70
     1
102
RTVSPropertyOp47
 70
     1
102
RTVSPropertyOp48
 70
     1
102
RTVSPropertyOp49
 70
     1
102
RTVSPropertyOp50
 70
     1
102
RTVSPropertyOp51
 70
     0
102
RTVSPropertyOp52
 70
     0
102
RTVSPropertyOp53
 70
     1
102
RTVSPropertyOp54
 70
     1
102
RTVSPropertyOp55
 70
     1
102
RTVSPropertyOp56
 70
     1
102
RTVSPropertyOp57
 70
     1
102
RTVSPost2010Prop28
280
     0
102
RTVSPost2010PropOp28
 70
     1
102
RTVSPost2010Prop29
280
     1
102
RTVSPost2010PropOp29
 70
     1
102
RTVSPost2010Prop30
280
     1
102
RTVSPost2010PropOp30
 70
     1
102
RTVSPost2010Prop31
280
     0
102
RTVSPost2010PropOp31
 70
     1
102
RTVSPost2010Prop32
280
     0
102
RTVSPost2010PropOp32
 70
     1
102
RTVSPost2010Prop33
280
     0
102
RTVSPost2010PropOp33
 70
     1
102
RTVSPost2010Prop34
280
     0
102
RTVSPost2010PropOp34
 70
     1
102
RTVSPost2010Prop35
280
     0
102
RTVSPost2010PropOp35
 70
     1
102
RTVSPost2010Prop36
280
     0
102
RTVSPost2010PropOp36
 70
     1
102
RTVSPost2010Prop37
 90
       50
102
RTVSPost2010PropOp37
 70
     1
102
RTVSPost2010Prop38
140
0.0
102
RTVSPost2010PropOp38
 70
     1
102
RTVSPost2010Prop39
140
1.0
102
RTVSPost2010PropOp39
 70
     1
102
RTVSPost2010Prop40
 90
        0
102
RTVSPost2010PropOp40
 70
     1
102
RTVSPost2010Prop41ColorIndex
 90
       18
102
RTVSPost2010Prop41ColorRGB
 90
        0
102
RTVSPost2010PropOp41
 70
     1
102
RTVSPost2010Prop42
 90
       50
102
RTVSPost2010PropOp42
 70
     1
102
RTVSPost2010Prop43
 90
        3
102
RTVSPost2010PropOp43
 70
     1
102
RTVSPost2010Prop44ColorIndex
 90
        5
102
RTVSPost2010Prop44ColorRGB
 90
      255
102
RTVSPost2010PropOp44
 70
     1
102
RTVSPost2010Prop45
280
     0
102
RTVSPost2010PropOp45
 70
     1
102
RTVSPost2010Prop46
 90
       50
102
RTVSPost2010PropOp46
 70
     1
102
RTVSPost2010Prop47
 90
       50
102
RTVSPost2010PropOp47
 70
     1
102
RTVSPost2010Prop48
 90
       50
102
RTVSPost2010PropOp48
 70
     1
102
RTVSPost2010Prop49
280
     0
102
RTVSPost2010PropOp49
 70
     1
102
RTVSPost2010Prop50
 90
       50
102
RTVSPost2010PropOp50
 70
     1
102
RTVSPost2010Prop51ColorIndex
 90
      256
102
RTVSPost2010Prop51ColorRGB
 90
-16777216
102
RTVSPost2010PropOp51
 70
     0
102
RTVSPost2010Prop52
140
1.0
102
RTVSPost2010PropOp52
 70
     0
102
RTVSPost2010Prop53
 90
        2
102
RTVSPost2010PropOp53
 70
     1
102
RTVSPost2010Prop54
  1
strokes_ogs.tif
102
RTVSPost2010PropOp54
 70
     1
102
RTVSPost2010Prop55
280
     0
102
RTVSPost2010PropOp55
 70
     1
102
RTVSPost2010Prop56
140
1.0
102
RTVSPost2010PropOp56
 70
     1
102
RTVSPost2010Prop57
140
1.0
102
RTVSPost2010PropOp57
 70
     1
  0
XRECORD
  5
4D9
102
{ACAD_REACTORS
330
4D8
102
}
330
4D8
100
AcDbXrecord
280
     1
102
RTVSPropertyOp0
 70
     1
102
RTVSPropertyOp1
 70
     1
102
RTVSPropertyOp2
 70
     1
102
RTVSPropertyOp3
 70
     1
102
RTVSPropertyOp4
 70
     1
102
RTVSPropertyOp5
 70
     1
102
RTVSPropertyOp6
 70
     1
102
RTVSPropertyOp7
 70
     1
102
RTVSPropertyOp8
 70
     1
102
RTVSPropertyOp9
 70
     1
102
RTVSPropertyOp10
 70
     1
102
RTVSPropertyOp11
 70
     1
102
RTVSPropertyOp12
 70
     1
102
RTVSPropertyOp13
 70
     1
102
RTVSPropertyOp14
 70
     1
102
RTVSPropertyOp15
 70
     1
102
RTVSPropertyOp16
 70
     1
102
RTVSPropertyOp17
 70
     1
102
RTVSPropertyOp18
 70
     1
102
RTVSPropertyOp19
 70
     1
102
RTVSPropertyOp20
 70
     1
102
RTVSPropertyOp21
 70
     1
102
RTVSPropertyOp22
 70
     1
102
RTVSPropertyOp23
 70
     1
102
RTVSPropertyOp24
 70
     1
102
RTVSPropertyOp25
 70
     1
102
RTVSPropertyOp26
 70
     1
102
RTVSPropertyOp27
 70
     1
102
RTVSPropertyOp28
 70
     1
102
RTVSPropertyOp29
 70
     1
102
RTVSPropertyOp30
 70
     1
102
RTVSPropertyOp31
 70
     1
102
RTVSPropertyOp32
 70
     1
102
RTVSPropertyOp33
 70
     1
102
RTVSPropertyOp34
 70
     1
102
RTVSPropertyOp35
 70
     1
102
RTVSPropertyOp36
 70
     1
102
RTVSPropertyOp37
 70
     1
102
RTVSPropertyOp38
 70
     1
102
RTVSPropertyOp39
 70
     1
102
RTVSPropertyOp40
 70
     1
102
RTVSPropertyOp41
 70
     1
102
RTVSPropertyOp42
 70
     1
102
RTVSPropertyOp43
 70
     1
102
RTVSPropertyOp44
 70
     1
102
RTVSPropertyOp45
 70
     1
102
RTVSPropertyOp46
 70
     1
102
RTVSPropertyOp47
 70
     1
102
RTVSPropertyOp48
 70
     1
102
RTVSPropertyOp49
 70
     1
102
RTVSPropertyOp50
 70
     1
102
RTVSPropertyOp51
 70
     0
102
RTVSPropertyOp52
 70
     0
102
RTVSPropertyOp53
 70
     1
102
RTVSPropertyOp54
 70
     1
102
RTVSPropertyOp55
 70
     1
102
RTVSPropertyOp56
 70
     1
102
RTVSPropertyOp57
 70
     1
102
RTVSPost2010Prop28
280
     0
102
RTVSPost2010PropOp28
 70
     1
102
RTVSPost2010Prop29
280
     1
102
RTVSPost2010PropOp29
 70
     1
102
RTVSPost2010Prop30
280
     1
102
RTVSPost2010PropOp30
 70
     1
102
RTVSPost2010Prop31
280
     0
102
RTVSPost2010PropOp31
 70
     1
102
RTVSPost2010Prop32
280
     0
102
RTVSPost2010PropOp32
 70
     1
102
RTVSPost2010Prop33
280
     0
102
RTVSPost2010PropOp33
 70
     1
102
RTVSPost2010Prop34
280
     0
102
RTVSPost2010PropOp34
 70
     1
102
RTVSPost2010Prop35
280
     0
102
RTVSPost2010PropOp35
 70
     1
102
RTVSPost2010Prop36
280
     0
102
RTVSPost2010PropOp36
 70
     1
102
RTVSPost2010Prop37
 90
       50
102
RTVSPost2010PropOp37
 70
     1
102
RTVSPost2010Prop38
140
0.0
102
RTVSPost2010PropOp38
 70
     1
102
RTVSPost2010Prop39
140
1.0
102
RTVSPost2010PropOp39
 70
     1
102
RTVSPost2010Prop40
 90
        0
102
RTVSPost2010PropOp40
 70
     1
102
RTVSPost2010Prop41ColorIndex
 90
       18
102
RTVSPost2010Prop41ColorRGB
 90
        0
102
RTVSPost2010PropOp41
 70
     1
102
RTVSPost2010Prop42
 90
       50
102
RTVSPost2010PropOp42
 70
     1
102
RTVSPost2010Prop43
 90
        3
102
RTVSPost2010PropOp43
 70
     1
102
RTVSPost2010Prop44ColorIndex
 90
        5
102
RTVSPost2010Prop44ColorRGB
 90
      255
102
RTVSPost2010PropOp44
 70
     1
102
RTVSPost2010Prop45
280
     0
102
RTVSPost2010PropOp45
 70
     1
102
RTVSPost2010Prop46
 90
       50
102
RTVSPost2010PropOp46
 70
     1
102
RTVSPost2010Prop47
 90
       50
102
RTVSPost2010PropOp47
 70
     1
102
RTVSPost2010Prop48
 90
       50
102
RTVSPost2010PropOp48
 70
     1
102
RTVSPost2010Prop49
280
     0
102
RTVSPost2010PropOp49
 70
     1
102
RTVSPost2010Prop50
 90
       50
102
RTVSPost2010PropOp50
 70
     1
102
RTVSPost2010Prop51ColorIndex
 90
      256
102
RTVSPost2010Prop51ColorRGB
 90
-16777216
102
RTVSPost2010PropOp51
 70
     0
102
RTVSPost2010Prop52
140
1.0
102
RTVSPost2010PropOp52
 70
     0
102
RTVSPost2010Prop53
 90
        2
102
RTVSPost2010PropOp53
 70
     1
102
RTVSPost2010Prop54
  1
strokes_ogs.tif
102
RTVSPost2010PropOp54
 70
     1
102
RTVSPost2010Prop55
280
     0
102
RTVSPost2010PropOp55
 70
     1
102
RTVSPost2010Prop56
140
1.0
102
RTVSPost2010PropOp56
 70
     1
102
RTVSPost2010Prop57
140
1.0
102
RTVSPost2010PropOp57
 70
     1
  0
XRECORD
  5
4CB
102
{ACAD_REACTORS
330
4CA
102
}
330
4CA
100
AcDbXrecord
280
     1
102
RTVSPropertyOp0
 70
     1
102
RTVSPropertyOp1
 70
     1
102
RTVSPropertyOp2
 70
     1
102
RTVSPropertyOp3
 70
     1
102
RTVSPropertyOp4
 70
     1
102
RTVSPropertyOp5
 70
     1
102
RTVSPropertyOp6
 70
     1
102
RTVSPropertyOp7
 70
     1
102
RTVSPropertyOp8
 70
     1
102
RTVSPropertyOp9
 70
     1
102
RTVSPropertyOp10
 70
     1
102
RTVSPropertyOp11
 70
     1
102
RTVSPropertyOp12
 70
     1
102
RTVSPropertyOp13
 70
     1
102
RTVSPropertyOp14
 70
     1
102
RTVSPropertyOp15
 70
     1
102
RTVSPropertyOp16
 70
     1
102
RTVSPropertyOp17
 70
     1
102
RTVSPropertyOp18
 70
     1
102
RTVSPropertyOp19
 70
     1
102
RTVSPropertyOp20
 70
     1
102
RTVSPropertyOp21
 70
     1
102
RTVSPropertyOp22
 70
     1
102
RTVSPropertyOp23
 70
     1
102
RTVSPropertyOp24
 70
     1
102
RTVSPropertyOp25
 70
     1
102
RTVSPropertyOp26
 70
     1
102
RTVSPropertyOp27
 70
     1
102
RTVSPropertyOp28
 70
     1
102
RTVSPropertyOp29
 70
     1
102
RTVSPropertyOp30
 70
     1
102
RTVSPropertyOp31
 70
     1
102
RTVSPropertyOp32
 70
     1
102
RTVSPropertyOp33
 70
     1
102
RTVSPropertyOp34
 70
     1
102
RTVSPropertyOp35
 70
     1
102
RTVSPropertyOp36
 70
     1
102
RTVSPropertyOp37
 70
     1
102
RTVSPropertyOp38
 70
     1
102
RTVSPropertyOp39
 70
     1
102
RTVSPropertyOp40
 70
     1
102
RTVSPropertyOp41
 70
     1
102
RTVSPropertyOp42
 70
     1
102
RTVSPropertyOp43
 70
     1
102
RTVSPropertyOp44
 70
     1
102
RTVSPropertyOp45
 70
     1
102
RTVSPropertyOp46
 70
     1
102
RTVSPropertyOp47
 70
     1
102
RTVSPropertyOp48
 70
     1
102
RTVSPropertyOp49
 70
     1
102
RTVSPropertyOp50
 70
     1
102
RTVSPropertyOp51
 70
     0
102
RTVSPropertyOp52
 70
     0
102
RTVSPropertyOp53
 70
     1
102
RTVSPropertyOp54
 70
     1
102
RTVSPropertyOp55
 70
     1
102
RTVSPropertyOp56
 70
     1
102
RTVSPropertyOp57
 70
     1
102
RTVSPost2010Prop28
280
     0
102
RTVSPost2010PropOp28
 70
     1
102
RTVSPost2010Prop29
280
     1
102
RTVSPost2010PropOp29
 70
     1
102
RTVSPost2010Prop30
280
     1
102
RTVSPost2010PropOp30
 70
     1
102
RTVSPost2010Prop31
280
     0
102
RTVSPost2010PropOp31
 70
     1
102
RTVSPost2010Prop32
280
     0
102
RTVSPost2010PropOp32
 70
     1
102
RTVSPost2010Prop33
280
     0
102
RTVSPost2010PropOp33
 70
     1
102
RTVSPost2010Prop34
280
     0
102
RTVSPost2010PropOp34
 70
     1
102
RTVSPost2010Prop35
280
     0
102
RTVSPost2010PropOp35
 70
     1
102
RTVSPost2010Prop36
280
     0
102
RTVSPost2010PropOp36
 70
     1
102
RTVSPost2010Prop37
 90
       50
102
RTVSPost2010PropOp37
 70
     1
102
RTVSPost2010Prop38
140
0.0
102
RTVSPost2010PropOp38
 70
     1
102
RTVSPost2010Prop39
140
1.0
102
RTVSPost2010PropOp39
 70
     1
102
RTVSPost2010Prop40
 90
        0
102
RTVSPost2010PropOp40
 70
     1
102
RTVSPost2010Prop41ColorIndex
 90
       18
102
RTVSPost2010Prop41ColorRGB
 90
        0
102
RTVSPost2010PropOp41
 70
     1
102
RTVSPost2010Prop42
 90
       50
102
RTVSPost2010PropOp42
 70
     1
102
RTVSPost2010Prop43
 90
        3
102
RTVSPost2010PropOp43
 70
     1
102
RTVSPost2010Prop44ColorIndex
 90
        5
102
RTVSPost2010Prop44ColorRGB
 90
      255
102
RTVSPost2010PropOp44
 70
     1
102
RTVSPost2010Prop45
280
     0
102
RTVSPost2010PropOp45
 70
     1
102
RTVSPost2010Prop46
 90
       50
102
RTVSPost2010PropOp46
 70
     1
102
RTVSPost2010Prop47
 90
       50
102
RTVSPost2010PropOp47
 70
     1
102
RTVSPost2010Prop48
 90
       50
102
RTVSPost2010PropOp48
 70
     1
102
RTVSPost2010Prop49
280
     0
102
RTVSPost2010PropOp49
 70
     1
102
RTVSPost2010Prop50
 90
       50
102
RTVSPost2010PropOp50
 70
     1
102
RTVSPost2010Prop51ColorIndex
 90
      256
102
RTVSPost2010Prop51ColorRGB
 90
-16777216
102
RTVSPost2010PropOp51
 70
     0
102
RTVSPost2010Prop52
140
1.0
102
RTVSPost2010PropOp52
 70
     0
102
RTVSPost2010Prop53
 90
        2
102
RTVSPost2010PropOp53
 70
     1
102
RTVSPost2010Prop54
  1
strokes_ogs.tif
102
RTVSPost2010PropOp54
 70
     1
102
RTVSPost2010Prop55
280
     0
102
RTVSPost2010PropOp55
 70
     1
102
RTVSPost2010Prop56
140
1.0
102
RTVSPost2010PropOp56
 70
     1
102
RTVSPost2010Prop57
140
1.0
102
RTVSPost2010PropOp57
 70
     1
  0
XRECORD
  5
4EB
102
{ACAD_REACTORS
330
4EA
102
}
330
4EA
100
AcDbXrecord
280
     1
102
RTVSPropertyOp0
 70
     1
102
RTVSPropertyOp1
 70
     1
102
RTVSPropertyOp2
 70
     1
102
RTVSPropertyOp3
 70
     1
102
RTVSPropertyOp4
 70
     1
102
RTVSPropertyOp5
 70
     1
102
RTVSPropertyOp6
 70
     1
102
RTVSPropertyOp7
 70
     1
102
RTVSPropertyOp8
 70
     1
102
RTVSPropertyOp9
 70
     1
102
RTVSPropertyOp10
 70
     1
102
RTVSPropertyOp11
 70
     1
102
RTVSPropertyOp12
 70
     1
102
RTVSPropertyOp13
 70
     1
102
RTVSPropertyOp14
 70
     1
102
RTVSPropertyOp15
 70
     1
102
RTVSPropertyOp16
 70
     1
102
RTVSPropertyOp17
 70
     1
102
RTVSPropertyOp18
 70
     1
102
RTVSPropertyOp19
 70
     1
102
RTVSPropertyOp20
 70
     1
102
RTVSPropertyOp21
 70
     1
102
RTVSPropertyOp22
 70
     1
102
RTVSPropertyOp23
 70
     1
102
RTVSPropertyOp24
 70
     1
102
RTVSPropertyOp25
 70
     1
102
RTVSPropertyOp26
 70
     1
102
RTVSPropertyOp27
 70
     1
102
RTVSPropertyOp28
 70
     1
102
RTVSPropertyOp29
 70
     1
102
RTVSPropertyOp30
 70
     1
102
RTVSPropertyOp31
 70
     1
102
RTVSPropertyOp32
 70
     1
102
RTVSPropertyOp33
 70
     1
102
RTVSPropertyOp34
 70
     1
102
RTVSPropertyOp35
 70
     1
102
RTVSPropertyOp36
 70
     1
102
RTVSPropertyOp37
 70
     1
102
RTVSPropertyOp38
 70
     1
102
RTVSPropertyOp39
 70
     1
102
RTVSPropertyOp40
 70
     1
102
RTVSPropertyOp41
 70
     1
102
RTVSPropertyOp42
 70
     1
102
RTVSPropertyOp43
 70
     1
102
RTVSPropertyOp44
 70
     1
102
RTVSPropertyOp45
 70
     1
102
RTVSPropertyOp46
 70
     1
102
RTVSPropertyOp47
 70
     1
102
RTVSPropertyOp48
 70
     1
102
RTVSPropertyOp49
 70
     1
102
RTVSPropertyOp50
 70
     1
102
RTVSPropertyOp51
 70
     0
102
RTVSPropertyOp52
 70
     0
102
RTVSPropertyOp53
 70
     1
102
RTVSPropertyOp54
 70
     1
102
RTVSPropertyOp55
 70
     1
102
RTVSPropertyOp56
 70
     1
102
RTVSPropertyOp57
 70
     1
102
RTVSPost2010Prop28
280
     0
102
RTVSPost2010PropOp28
 70
     1
102
RTVSPost2010Prop29
280
     1
102
RTVSPost2010PropOp29
 70
     1
102
RTVSPost2010Prop30
280
     1
102
RTVSPost2010PropOp30
 70
     1
102
RTVSPost2010Prop31
280
     0
102
RTVSPost2010PropOp31
 70
     1
102
RTVSPost2010Prop32
280
     0
102
RTVSPost2010PropOp32
 70
     1
102
RTVSPost2010Prop33
280
     0
102
RTVSPost2010PropOp33
 70
     1
102
RTVSPost2010Prop34
280
     0
102
RTVSPost2010PropOp34
 70
     1
102
RTVSPost2010Prop35
280
     0
102
RTVSPost2010PropOp35
 70
     1
102
RTVSPost2010Prop36
280
     0
102
RTVSPost2010PropOp36
 70
     1
102
RTVSPost2010Prop37
 90
       50
102
RTVSPost2010PropOp37
 70
     1
102
RTVSPost2010Prop38
140
0.0
102
RTVSPost2010PropOp38
 70
     1
102
RTVSPost2010Prop39
140
1.0
102
RTVSPost2010PropOp39
 70
     1
102
RTVSPost2010Prop40
 90
        0
102
RTVSPost2010PropOp40
 70
     1
102
RTVSPost2010Prop41ColorIndex
 90
       18
102
RTVSPost2010Prop41ColorRGB
 90
        0
102
RTVSPost2010PropOp41
 70
     1
102
RTVSPost2010Prop42
 90
       50
102
RTVSPost2010PropOp42
 70
     1
102
RTVSPost2010Prop43
 90
        3
102
RTVSPost2010PropOp43
 70
     1
102
RTVSPost2010Prop44ColorIndex
 90
        5
102
RTVSPost2010Prop44ColorRGB
 90
      255
102
RTVSPost2010PropOp44
 70
     1
102
RTVSPost2010Prop45
280
     0
102
RTVSPost2010PropOp45
 70
     1
102
RTVSPost2010Prop46
 90
       50
102
RTVSPost2010PropOp46
 70
     1
102
RTVSPost2010Prop47
 90
       50
102
RTVSPost2010PropOp47
 70
     1
102
RTVSPost2010Prop48
 90
       50
102
RTVSPost2010PropOp48
 70
     1
102
RTVSPost2010Prop49
280
     0
102
RTVSPost2010PropOp49
 70
     1
102
RTVSPost2010Prop50
 90
       50
102
RTVSPost2010PropOp50
 70
     1
102
RTVSPost2010Prop51ColorIndex
 90
      256
102
RTVSPost2010Prop51ColorRGB
 90
-16777216
102
RTVSPost2010PropOp51
 70
     0
102
RTVSPost2010Prop52
140
1.0
102
RTVSPost2010PropOp52
 70
     0
102
RTVSPost2010Prop53
 90
        2
102
RTVSPost2010PropOp53
 70
     1
102
RTVSPost2010Prop54
  1
strokes_ogs.tif
102
RTVSPost2010PropOp54
 70
     1
102
RTVSPost2010Prop55
280
     0
102
RTVSPost2010PropOp55
 70
     1
102
RTVSPost2010Prop56
140
1.0
102
RTVSPost2010PropOp56
 70
     1
102
RTVSPost2010Prop57
140
1.0
102
RTVSPost2010PropOp57
 70
     1
  0
ENDSEC
  0
EOF
