  0
SECTION
  2
HEADER
  9
$ACADVER
  1
AC1015
  9
$ACADMAINTVER
 70
     6
  9
$DWGCODEPAGE
  3
ANSI_932
  9
$INSBASE
 10
0.0
 20
0.0
 30
0.0
  9
$EXTMIN
 10
103.3496387244044
 20
39.18753960674163
 30
0.0
  9
$EXTMAX
 10
1097.5417309375
 20
390.3125
 30
0.0
  9
$LIMMIN
 10
103.3496387244044
 20
39.18753960674163
  9
$LIMMAX
 10
1097.5417309375
 20
390.3125
  9
$ORTHOMODE
 70
     0
  9
$REGENMODE
 70
     1
  9
$FILLMODE
 70
     1
  9
$QTEXTMODE
 70
     0
  9
$MIRRTEXT
 70
     1
  9
$LTSCALE
 40
3.0
  9
$ATTMODE
 70
     1
  9
$TEXTSIZE
 40
0.2
  9
$TRACEWID
 40
0.05
  9
$TEXTSTYLE
  7
Standard
  9
$CLAYER
  8
モータ左
  9
$CELTYPE
  6
ByLayer
  9
$CECOLOR
 62
   256
  9
$CELTSCALE
 40
1.0
  9
$DISPSILH
 70
     0
  9
$DIMSCALE
 40
1.0
  9
$DIMASZ
 40
0.18
  9
$DIMEXO
 40
0.0625
  9
$DIMDLI
 40
0.38
  9
$DIMRND
 40
0.0
  9
$DIMDLE
 40
0.0
  9
$DIMEXE
 40
0.18
  9
$DIMTP
 40
0.0
  9
$DIMTM
 40
0.0
  9
$DIMTXT
 40
0.18
  9
$DIMCEN
 40
0.09
  9
$DIMTSZ
 40
0.0
  9
$DIMTOL
 70
     0
  9
$DIMLIM
 70
     0
  9
$DIMTIH
 70
     1
  9
$DIMTOH
 70
     1
  9
$DIMSE1
 70
     0
  9
$DIMSE2
 70
     0
  9
$DIMTAD
 70
     0
  9
$DIMZIN
 70
     0
  9
$DIMBLK
  1

  9
$DIMASO
 70
     1
  9
$DIMSHO
 70
     1
  9
$DIMPOST
  1

  9
$DIMAPOST
  1

  9
$DIMALT
 70
     0
  9
$DIMALTD
 70
     2
  9
$DIMALTF
 40
25.4
  9
$DIMLFAC
 40
1.0
  9
$DIMTOFL
 70
     0
  9
$DIMTVP
 40
0.0
  9
$DIMTIX
 70
     0
  9
$DIMSOXD
 70
     0
  9
$DIMSAH
 70
     0
  9
$DIMBLK1
  1

  9
$DIMBLK2
  1

  9
$DIMSTYLE
  2
Standard
  9
$DIMCLRD
 70
     0
  9
$DIMCLRE
 70
     0
  9
$DIMCLRT
 70
     0
  9
$DIMTFAC
 40
1.0
  9
$DIMGAP
 40
0.09
  9
$DIMJUST
 70
     0
  9
$DIMSD1
 70
     0
  9
$DIMSD2
 70
     0
  9
$DIMTOLJ
 70
     1
  9
$DIMTZIN
 70
     0
  9
$DIMALTZ
 70
     0
  9
$DIMALTTZ
 70
     0
  9
$DIMUPT
 70
     0
  9
$DIMDEC
 70
     4
  9
$DIMTDEC
 70
     4
  9
$DIMALTU
 70
     2
  9
$DIMALTTD
 70
     2
  9
$DIMTXSTY
  7
Standard
  9
$DIMAUNIT
 70
     0
  9
$DIMADEC
 70
     0
  9
$DIMALTRND
 40
0.0
  9
$DIMAZIN
 70
     0
  9
$DIMDSEP
 70
    46
  9
$DIMATFIT
 70
     3
  9
$DIMFRAC
 70
     0
  9
$DIMLDRBLK
  1

  9
$DIMLUNIT
 70
     2
  9
$DIMLWD
 70
    -2
  9
$DIMLWE
 70
    -2
  9
$DIMTMOVE
 70
     0
  9
$LUNITS
 70
     2
  9
$LUPREC
 70
     4
  9
$SKETCHINC
 40
0.1
  9
$FILLETRAD
 40
0.5
  9
$AUNITS
 70
     0
  9
$AUPREC
 70
     0
  9
$MENU
  1
.
  9
$ELEVATION
 40
0.0
  9
$PELEVATION
 40
0.0
  9
$THICKNESS
 40
0.0
  9
$LIMCHECK
 70
     0
  9
$CHAMFERA
 40
0.0
  9
$CHAMFERB
 40
0.0
  9
$CHAMFERC
 40
0.0
  9
$CHAMFERD
 40
0.0
  9
$SKPOLY
 70
     0
  9
$TDCREATE
 40
2459347.597585937
  9
$TDUCREATE
 40
2459347.222585937
  9
$TDUPDATE
 40
2459347.597588276
  9
$TDUUPDATE
 40
2459347.222588276
  9
$TDINDWG
 40
0.0000000116
  9
$TDUSRTIMER
 40
0.0000000116
  9
$USRTIMER
 70
     1
  9
$ANGBASE
 50
0.0
  9
$ANGDIR
 70
     0
  9
$PDMODE
 70
     0
  9
$PDSIZE
 40
0.0
  9
$PLINEWID
 40
0.0
  9
$SPLFRAME
 70
     0
  9
$SPLINETYPE
 70
     6
  9
$SPLINESEGS
 70
     8
  9
$HANDSEED
  5
3FB
  9
$SURFTAB1
 70
     6
  9
$SURFTAB2
 70
     6
  9
$SURFTYPE
 70
     6
  9
$SURFU
 70
     6
  9
$SURFV
 70
     6
  9
$UCSBASE
  2

  9
$UCSNAME
  2

  9
$UCSORG
 10
0.0
 20
0.0
 30
0.0
  9
$UCSXDIR
 10
1.0
 20
0.0
 30
0.0
  9
$UCSYDIR
 10
0.0
 20
1.0
 30
0.0
  9
$UCSORTHOREF
  2

  9
$UCSORTHOVIEW
 70
     0
  9
$UCSORGTOP
 10
0.0
 20
0.0
 30
0.0
  9
$UCSORGBOTTOM
 10
0.0
 20
0.0
 30
0.0
  9
$UCSORGLEFT
 10
0.0
 20
0.0
 30
0.0
  9
$UCSORGRIGHT
 10
0.0
 20
0.0
 30
0.0
  9
$UCSORGFRONT
 10
0.0
 20
0.0
 30
0.0
  9
$UCSORGBACK
 10
0.0
 20
0.0
 30
0.0
  9
$PUCSBASE
  2

  9
$PUCSNAME
  2

  9
$PUCSORG
 10
0.0
 20
0.0
 30
0.0
  9
$PUCSXDIR
 10
1.0
 20
0.0
 30
0.0
  9
$PUCSYDIR
 10
0.0
 20
1.0
 30
0.0
  9
$PUCSORTHOREF
  2

  9
$PUCSORTHOVIEW
 70
     0
  9
$PUCSORGTOP
 10
0.0
 20
0.0
 30
0.0
  9
$PUCSORGBOTTOM
 10
0.0
 20
0.0
 30
0.0
  9
$PUCSORGLEFT
 10
0.0
 20
0.0
 30
0.0
  9
$PUCSORGRIGHT
 10
0.0
 20
0.0
 30
0.0
  9
$PUCSORGFRONT
 10
0.0
 20
0.0
 30
0.0
  9
$PUCSORGBACK
 10
0.0
 20
0.0
 30
0.0
  9
$USERI1
 70
     0
  9
$USERI2
 70
     0
  9
$USERI3
 70
     0
  9
$USERI4
 70
     0
  9
$USERI5
 70
     0
  9
$USERR1
 40
0.0
  9
$USERR2
 40
0.0
  9
$USERR3
 40
0.0
  9
$USERR4
 40
0.0
  9
$USERR5
 40
0.0
  9
$WORLDVIEW
 70
     1
  9
$SHADEDGE
 70
     3
  9
$SHADEDIF
 70
    70
  9
$TILEMODE
 70
     1
  9
$MAXACTVP
 70
    64
  9
$PINSBASE
 10
0.0
 20
0.0
 30
0.0
  9
$PLIMCHECK
 70
     0
  9
$PEXTMIN
 10
1.000000000000000E+20
 20
1.000000000000000E+20
 30
1.000000000000000E+20
  9
$PEXTMAX
 10
-1.000000000000000E+20
 20
-1.000000000000000E+20
 30
-1.000000000000000E+20
  9
$PLIMMIN
 10
0.0
 20
0.0
  9
$PLIMMAX
 10
12.0
 20
9.0
  9
$UNITMODE
 70
     0
  9
$VISRETAIN
 70
     1
  9
$PLINEGEN
 70
     0
  9
$PSLTSCALE
 70
     0
  9
$TREEDEPTH
 70
  3020
  9
$CMLSTYLE
  2
Standard
  9
$CMLJUST
 70
     0
  9
$CMLSCALE
 40
1.0
  9
$PROXYGRAPHICS
 70
     1
  9
$MEASUREMENT
 70
     1
  9
$CELWEIGHT
370
    -1
  9
$ENDCAPS
280
     0
  9
$JOINSTYLE
280
     0
  9
$LWDISPLAY
290
     0
  9
$INSUNITS
 70
     0
  9
$HYPERLINKBASE
  1

  9
$STYLESHEET
  1

  9
$XEDIT
290
     1
  9
$CEPSNTYPE
380
     0
  9
$PSTYLEMODE
290
     1
  9
$FINGERPRINTGUID
  2
{aa8d0d79-b001-4e06-83f6-962e40e7979f}
  9
$VERSIONGUID
  2
{FAEB1C32-E019-11D5-929B-00C0DF256EC4}
  9
$EXTNAMES
290
     1
  9
$PSVPSCALE
 40
0.0
  9
$OLESTARTUP
290
     0
  0
ENDSEC
  0
SECTION
  2
CLASSES
  0
CLASS
  1
ACDBDICTIONARYWDFLT
  2
AcDbDictionaryWithDefault
  3
ObjectDBX Classes
 90
        0
280
     0
281
     0
  0
CLASS
  1
VISUALSTYLE
  2
AcDbVisualStyle
  3
ObjectDBX Classes
 90
     4095
280
     0
281
     0
  0
CLASS
  1
MATERIAL
  2
AcDbMaterial
  3
ObjectDBX Classes
 90
     1153
280
     0
281
     0
  0
CLASS
  1
SCALE
  2
AcDbScale
  3
ObjectDBX Classes
 90
     1153
280
     0
281
     0
  0
CLASS
  1
TABLESTYLE
  2
AcDbTableStyle
  3
ObjectDBX Classes
 90
     4095
280
     0
281
     0
  0
CLASS
  1
MLEADERSTYLE
  2
AcDbMLeaderStyle
  3
ACDB_MLEADERSTYLE_CLASS
 90
     4095
280
     0
281
     0
  0
CLASS
  1
SUN
  2
AcDbSun
  3
SCENEOE
 90
     1153
280
     0
281
     0
  0
CLASS
  1
RASTERVARIABLES
  2
AcDbRasterVariables
  3
ISM
 90
        0
280
     0
281
     0
  0
CLASS
  1
DICTIONARYVAR
  2
AcDbDictionaryVar
  3
ObjectDBX Classes
 90
        0
280
     0
281
     0
  0
CLASS
  1
ACDBPLACEHOLDER
  2
AcDbPlaceHolder
  3
ObjectDBX Classes
 90
        0
280
     0
281
     0
  0
CLASS
  1
LAYOUT
  2
AcDbLayout
  3
ObjectDBX Classes
 90
        0
280
     0
281
     0
  0
ENDSEC
  0
SECTION
  2
TABLES
  0
TABLE
  2
VPORT
  5
8
102
{ACAD_XDICTIONARY
360
3BE
102
}
330
0
100
AcDbSymbolTable
 70
     1
  0
VPORT
  5
29
330
8
100
AcDbSymbolTableRecord
100
AcDbViewportTableRecord
  2
*Active
 70
     0
 10
0.0
 20
0.0
 11
1.0
 21
1.0
 12
480.3565478647618
 22
171.8000158426967
 13
0.0
 23
0.0
 14
0.5
 24
0.5
 15
0.5
 25
0.5
 16
0.0
 26
0.0
 36
1.0
 17
0.0
 27
0.0
 37
0.0
 40
294.944966730337
 41
2.831448072217951
 42
50.0
 43
0.0
 44
0.0
 50
0.0
 51
0.0
 71
     0
 72
 20000
 73
     1
 74
     3
 75
     0
 76
     0
 77
     0
 78
     0
281
     0
 65
     1
110
0.0
120
0.0
130
0.0
111
1.0
121
0.0
131
0.0
112
0.0
122
1.0
132
0.0
 79
     0
146
0.0
  0
ENDTAB
  0
TABLE
  2
LTYPE
  5
5
330
0
100
AcDbSymbolTable
 70
     4
  0
LTYPE
  5
14
330
5
100
AcDbSymbolTableRecord
100
AcDbLinetypeTableRecord
  2
ByBlock
 70
     0
  3

 72
    65
 73
     0
 40
0.0
  0
LTYPE
  5
15
330
5
100
AcDbSymbolTableRecord
100
AcDbLinetypeTableRecord
  2
ByLayer
 70
     0
  3

 72
    65
 73
     0
 40
0.0
  0
LTYPE
  5
16
330
5
100
AcDbSymbolTableRecord
100
AcDbLinetypeTableRecord
  2
Continuous
 70
     0
  3
Solid line
 72
    65
 73
     0
 40
0.0
  0
LTYPE
  5
70
330
5
100
AcDbSymbolTableRecord
100
AcDbLinetypeTableRecord
  2
ACAD_ISO02W100
 70
     0
  3
ISO dash __ __ __ __ __ __ __ __ __ __ __ __ __
 72
    65
 73
     2
 40
15.0
 49
12.0
 74
     0
 49
-3.0
 74
     0
  0
LTYPE
  5
71
330
5
100
AcDbSymbolTableRecord
100
AcDbLinetypeTableRecord
  2
DASHED
 70
     0
  3

 72
    65
 73
     2
 40
1.5
 49
1.0
 74
     0
 49
-0.5
 74
     0
  0
LTYPE
  5
72
330
5
100
AcDbSymbolTableRecord
100
AcDbLinetypeTableRecord
  2
CENTER
 70
     0
  3

 72
    65
 73
     4
 40
4.0
 49
2.5
 74
     0
 49
-0.5
 74
     0
 49
0.5
 74
     0
 49
-0.5
 74
     0
  0
ENDTAB
  0
TABLE
  2
LAYER
  5
2
330
0
100
AcDbSymbolTable
 70
    11
  0
LAYER
  5
10
330
2
100
AcDbSymbolTableRecord
100
AcDbLayerTableRecord
  2
0
 70
     0
 62
     7
  6
Continuous
370
    25
390
F
  0
LAYER
  5
73
330
2
100
AcDbSymbolTableRecord
100
AcDbLayerTableRecord
  2
モータ左
 70
     4
 62
     7
  6
Continuous
370
    50
390
F
  0
LAYER
  5
74
330
2
100
AcDbSymbolTableRecord
100
AcDbLayerTableRecord
  2
モータ上
 70
     0
 62
     7
  6
Continuous
370
    50
390
F
  0
LAYER
  5
75
330
2
100
AcDbSymbolTableRecord
100
AcDbLayerTableRecord
  2
モータ後ろ
 70
     0
 62
     7
  6
Continuous
370
    50
390
F
  0
LAYER
  5
76
330
2
100
AcDbSymbolTableRecord
100
AcDbLayerTableRecord
  2
View_0_PV
 70
     0
 62
     7
  6
Continuous
370
    18
390
F
  0
LAYER
  5
77
330
2
100
AcDbSymbolTableRecord
100
AcDbLayerTableRecord
  2
新しいレイヤ 2
 70
     0
 62
     7
  6
Continuous
370
    13
390
F
  0
LAYER
  5
78
330
2
100
AcDbSymbolTableRecord
100
AcDbLayerTableRecord
  2
AM_4
 70
     0
 62
     7
  6
Continuous
370
    25
390
F
  0
LAYER
  5
79
330
2
100
AcDbSymbolTableRecord
100
AcDbLayerTableRecord
  2
新しいレイヤ 1
 70
     0
 62
     7
  6
Continuous
370
    13
390
F
  0
LAYER
  5
7A
330
2
100
AcDbSymbolTableRecord
100
AcDbLayerTableRecord
  2
AM_7
 70
     0
 62
     4
  6
CENTER
370
    25
390
F
  0
LAYER
  5
7B
330
2
100
AcDbSymbolTableRecord
100
AcDbLayerTableRecord
  2
AM_0
 70
     0
 62
     7
  6
Continuous
370
    50
390
F
  0
LAYER
  5
7C
330
2
100
AcDbSymbolTableRecord
100
AcDbLayerTableRecord
  2
ConnectionPoints
 70
     0
 62
     7
  6
Continuous
370
    50
390
F
  0
ENDTAB
  0
TABLE
  2
STYLE
  5
3
330
0
100
AcDbSymbolTable
 70
     4
  0
STYLE
  5
11
330
3
100
AcDbSymbolTableRecord
100
AcDbTextStyleTableRecord
  2
Standard
 70
     0
 40
0.0
 41
1.0
 50
0.0
 71
     0
 42
0.2
  3
txt.shx
  4
extfont
  0
STYLE
  5
7D
330
3
100
AcDbSymbolTableRecord
100
AcDbTextStyleTableRecord
  2
MS PGothic
 70
     0
 40
0.0
 41
1.0
 50
0.0
 71
     0
 42
0.2
  3
MS PGothic.ttf
  4

1001
ACAD
1000
ＭＳ Ｐゴシック
1071
    32818
  0
STYLE
  5
7E
330
3
100
AcDbSymbolTableRecord
100
AcDbTextStyleTableRecord
  2
VERTICAL
 70
     4
 40
0.0
 41
1.0
 50
0.0
 71
     0
 42
0.2
  3
txt.shx
  4
extfont
  0
STYLE
  5
7F
330
3
100
AcDbSymbolTableRecord
100
AcDbTextStyleTableRecord
  2
VERTICAL MS PGothic
 70
     0
 40
0.0
 41
1.0
 50
0.0
 71
     0
 42
0.2
  3
MS PGothic.ttf
  4

1001
ACAD
1000
@ＭＳ Ｐゴシック
1071
    32818
  0
ENDTAB
  0
TABLE
  2
VIEW
  5
6
330
0
100
AcDbSymbolTable
 70
     0
  0
ENDTAB
  0
TABLE
  2
UCS
  5
7
330
0
100
AcDbSymbolTable
 70
     0
  0
ENDTAB
  0
TABLE
  2
APPID
  5
9
330
0
100
AcDbSymbolTable
 70
     3
  0
APPID
  5
12
330
9
100
AcDbSymbolTableRecord
100
AcDbRegAppTableRecord
  2
ACAD
 70
     0
  0
APPID
  5
6E
330
9
100
AcDbSymbolTableRecord
100
AcDbRegAppTableRecord
  2
RootPro CAD
 70
     0
  0
APPID
  5
3F8
330
9
100
AcDbSymbolTableRecord
100
AcDbRegAppTableRecord
  2
ACAD_MLEADERVER
 70
     0
  0
ENDTAB
  0
TABLE
  2
DIMSTYLE
  5
A
330
0
100
AcDbSymbolTable
 70
     1
100
AcDbDimStyleTable
  0
DIMSTYLE
105
27
330
A
100
AcDbSymbolTableRecord
100
AcDbDimStyleTableRecord
  2
Standard
 70
     0
178
     0
340
11
  0
ENDTAB
  0
TABLE
  2
BLOCK_RECORD
  5
1
330
0
100
AcDbSymbolTable
 70
     5
  0
BLOCK_RECORD
  5
1F
330
1
100
AcDbSymbolTableRecord
100
AcDbBlockTableRecord
  2
*Model_Space
340
22
  0
BLOCK_RECORD
  5
1B
330
1
100
AcDbSymbolTableRecord
100
AcDbBlockTableRecord
  2
*Paper_Space
340
1E
  0
BLOCK_RECORD
  5
23
330
1
100
AcDbSymbolTableRecord
100
AcDbBlockTableRecord
  2
*Paper_Space0
340
26
  0
BLOCK_RECORD
  5
80
330
1
100
AcDbSymbolTableRecord
100
AcDbBlockTableRecord
  2
レイアウト (部分図 2)
340
0
102
{BLKREFS
331
9F
102
}
  0
BLOCK_RECORD
  5
A0
330
1
100
AcDbSymbolTableRecord
100
AcDbBlockTableRecord
  2
レイアウト (部分図 3)
340
0
102
{BLKREFS
331
13F
102
}
  0
BLOCK_RECORD
  5
140
330
1
100
AcDbSymbolTableRecord
100
AcDbBlockTableRecord
  2
用紙 1
340
0
102
{BLKREFS
331
143
102
}
  0
BLOCK_RECORD
  5
144
330
1
100
AcDbSymbolTableRecord
100
AcDbBlockTableRecord
  2
レイアウト (部分図 1)
340
0
102
{BLKREFS
331
3B6
102
}
  0
ENDTAB
  0
ENDSEC
  0
SECTION
  2
BLOCKS
  0
BLOCK
  5
20
330
1F
100
AcDbEntity
  8
0
100
AcDbBlockBegin
  2
*Model_Space
 70
     0
 10
0.0
 20
0.0
 30
0.0
  3
*Model_Space
  1

  0
ENDBLK
  5
21
330
1F
100
AcDbEntity
  8
0
100
AcDbBlockEnd
  0
BLOCK
  5
1C
330
1B
100
AcDbEntity
 67
     1
  8
0
100
AcDbBlockBegin
  2
*Paper_Space
 70
     0
 10
0.0
 20
0.0
 30
0.0
  3
*Paper_Space
  1

  0
ENDBLK
  5
1D
330
1B
100
AcDbEntity
 67
     1
  8
0
100
AcDbBlockEnd
  0
BLOCK
  5
24
330
23
100
AcDbEntity
  8
0
100
AcDbBlockBegin
  2
*Paper_Space0
 70
     0
 10
0.0
 20
0.0
 30
0.0
  3
*Paper_Space0
  1

  0
ENDBLK
  5
25
330
23
100
AcDbEntity
  8
0
100
AcDbBlockEnd
  0
BLOCK
  5
81
330
80
100
AcDbEntity
  8
0
100
AcDbBlockBegin
  2
レイアウト (部分図 2)
 70
     0
 10
0.0
 20
0.0
 30
0.0
  3
レイアウト (部分図 2)
  1

  0
LWPOLYLINE
  5
83
330
80
100
AcDbEntity
  8
View_0_PV
100
AcDbPolyline
 90
        5
 70
     1
 43
0.0
 10
183.7422469969995
 20
-116.7571496376823
 10
186.9422469969996
 20
-116.7571496376823
 10
186.9422469969996
 20
-76.59714963768229
 10
183.7422469969995
 20
-76.59714963768229
 10
183.7422469969995
 20
-116.7571496376823
  0
LINE
  5
84
330
80
100
AcDbEntity
  8
View_0_PV
 62
     7
370
    18
100
AcDbLine
 10
177.7544931426837
 20
-105.1029492006873
 30
0.0
 11
177.7512685719495
 21
-112.7666752570335
 31
0.0
  0
LINE
  5
85
330
80
100
AcDbEntity
  8
新しいレイヤ 2
370
    18
100
AcDbLine
 10
177.7512685719495
 20
-112.7666752570335
 30
0.0
 11
183.6345236602618
 21
-112.7654967914716
 31
0.0
  0
LINE
  5
86
330
80
100
AcDbEntity
  8
新しいレイヤ 2
370
    18
100
AcDbLine
 10
183.7545236602618
 20
-116.305413193721
 30
0.0
 11
183.7294185166597
 21
-102.3212652482274
 31
0.0
  0
LINE
  5
87
330
80
100
AcDbEntity
  8
新しいレイヤ 2
370
    18
100
AcDbLine
 10
57.48727755147291
 20
-112.7671395716399
 30
0.0
 11
63.48727755147291
 21
-112.7671395716399
 31
0.0
  0
LINE
  5
88
330
80
100
AcDbEntity
  8
新しいレイヤ 2
370
    18
100
AcDbLine
 10
57.49206195205767
 20
-102.3248456909871
 30
0.0
 11
57.49206195205767
 21
-112.7671395716399
 31
0.0
  0
LINE
  5
89
330
80
100
AcDbEntity
  8
新しいレイヤ 2
  6
Continuous
370
    18
100
AcDbLine
 10
65.49206195205767
 20
-103.1038778347837
 30
0.0
 11
175.7544762986117
 21
-103.1029492007582
 31
0.0
  0
LINE
  5
8A
330
80
100
AcDbEntity
  8
新しいレイヤ 2
370
    18
100
AcDbLine
 10
59.49206195205767
 20
-99.98651803616215
 30
0.0
 11
181.686328319699
 21
-99.98651803616215
 31
0.0
  0
LINE
  5
8B
330
80
100
AcDbEntity
  8
新しいレイヤ 2
370
    18
100
AcDbLine
 10
183.7545236602618
 20
-112.8093762073476
 30
0.0
 11
183.7422522077052
 21
-74.61204283592772
 31
0.0
  0
LINE
  5
8C
330
80
100
AcDbEntity
  8
新しいレイヤ 2
370
    18
100
AcDbLine
 10
181.7544931426802
 20
-72.61203276988505
 30
0.0
 11
59.49206195205767
 21
-72.61203276988505
 31
0.0
  0
LINE
  5
8D
330
80
100
AcDbEntity
  8
新しいレイヤ 2
370
    18
100
AcDbLine
 10
57.49206195205767
 20
-74.61203276988505
 30
0.0
 11
57.49206195205767
 21
-102.3248456909871
 31
0.0
  0
ARC
  5
8E
330
80
100
AcDbEntity
  8
新しいレイヤ 2
370
    18
100
AcDbCircle
 10
181.7544931426802
 20
-74.61204283592772
 30
0.0
 40
2.0
100
AcDbArc
 50
0.0
 51
90.0
  0
ARC
  5
8F
330
80
100
AcDbEntity
  8
新しいレイヤ 2
370
    18
100
AcDbCircle
 10
181.7294217396006
 20
-101.9860537215554
 30
0.0
 40
2.0
100
AcDbArc
 50
359.5698588415644
 51
90.0
  0
ARC
  5
90
330
80
100
AcDbEntity
  8
新しいレイヤ 2
370
    18
100
AcDbCircle
 10
59.49206195205767
 20
-74.61203276988505
 30
0.0
 40
2.0
100
AcDbArc
 50
90.0
 51
180.0
  0
ARC
  5
91
330
80
100
AcDbEntity
  8
新しいレイヤ 2
370
    18
100
AcDbCircle
 10
175.7544931426837
 20
-105.1029492006873
 30
0.0
 40
2.0
100
AcDbArc
 50
0.0
 51
90.0
  0
ARC
  5
92
330
80
100
AcDbEntity
  8
新しいレイヤ 2
370
    18
100
AcDbCircle
 10
59.49206195205767
 20
-101.9865180361622
 30
0.0
 40
2.0
100
AcDbArc
 50
90.0
 51
180.0
  0
LWPOLYLINE
  5
93
330
80
100
AcDbEntity
  8
AM_4
370
    13
100
AcDbPolyline
 90
        5
 70
     1
 43
0.0
 10
193.6712685719496
 20
-124.5566752570332
 10
195.9712685719496
 20
-124.5566752570332
 10
195.9712685719496
 20
-100.5566752570332
 10
193.6712685719496
 20
-100.5566752570332
 10
193.6712685719496
 20
-124.5566752570332
  0
LWPOLYLINE
  5
94
330
80
100
AcDbEntity
  8
AM_4
370
    13
100
AcDbPolyline
 90
        2
 70
     0
 43
0.0
 10
183.7509414733739
 20
-101.659108044447
 10
183.7025174099167
 20
-101.659108044447
  0
LWPOLYLINE
  5
95
330
80
100
AcDbEntity
  8
AM_4
370
    13
100
AcDbPolyline
 90
        2
 70
     0
 43
0.0
 10
185.9712685719496
 20
-116.7571496376823
 10
185.9712685719496
 20
-163.5001419503797
  0
LWPOLYLINE
  5
96
330
80
100
AcDbEntity
  8
AM_4
370
    13
100
AcDbPolyline
 90
        3
 70
     0
 43
0.0
 10
185.8712685719495
 20
-163.5001419503797
 10
195.9712685719496
 20
-163.5001419503797
 10
195.9712685719496
 20
-101.659108044447
  0
LWPOLYLINE
  5
97
330
80
100
AcDbEntity
  8
AM_4
370
    13
100
AcDbPolyline
 90
        2
 70
     0
 43
0.0
 10
186.9422469969996
 20
-109.9566752570332
 10
193.6712685719496
 20
-109.9566752570332
  0
LWPOLYLINE
  5
98
330
80
100
AcDbEntity
  8
AM_4
370
    13
100
AcDbPolyline
 90
        5
 70
     0
 43
0.0
 10
195.9712685719496
 20
-109.9566752570332
 10
200.6909745719492
 20
-109.9566752570332
 10
200.6909745719492
 20
-90.75667525703321
 10
186.9909745719492
 20
-90.75667525703321
 10
186.9909745719492
 20
-109.9566752570332
  0
LINE
  5
99
330
80
100
AcDbEntity
  8
View_0_PV
 62
     7
370
    18
100
AcDbLine
 10
63.49050212220703
 20
-105.1034135152938
 30
0.0
 11
63.48727755147291
 21
-112.7671395716399
 31
0.0
  0
ARC
  5
9A
330
80
100
AcDbEntity
  8
新しいレイヤ 2
370
    18
100
AcDbCircle
 10
65.42727755147288
 20
-105.0595723590537
 30
0.0
 40
2.0
100
AcDbArc
 50
90.0
 51
180.0
  0
LWPOLYLINE
  5
9B
330
80
100
AcDbEntity
  8
0
100
AcDbPolyline
 90
        3
 70
     0
 43
0.0
 10
177.7539052632608
 20
-106.5001419503797
 10
175.9712685719496
 20
-106.5001419503797
 10
175.9712685719496
 20
-163.5001419503797
  0
LWPOLYLINE
  5
9C
330
80
100
AcDbEntity
  8
0
100
AcDbPolyline
 90
        3
 70
     0
 43
0.0
 10
175.9712685719496
 20
-163.5001419503797
 10
185.9712685719496
 20
-163.5001419503797
 10
185.9712685719496
 20
-116.7571496376823
  0
LWPOLYLINE
  5
9D
330
80
100
AcDbEntity
  8
0
100
AcDbPolyline
 90
        2
 70
     0
 43
0.0
 10
183.7524967263892
 20
-106.5001419503797
 10
183.7369206755407
 20
-106.5001419503797
  0
ARC
  5
9E
330
80
100
AcDbEntity
  8
0
100
AcDbCircle
 10
548.81237675
 20
-135.5949643146067
 30
0.0
 40
28.5
100
AcDbArc
 50
170.5409775375472
 51
129.4590224624527
  0
ENDBLK
  5
82
330
80
100
AcDbEntity
  8
0
100
AcDbBlockEnd
  0
BLOCK
  5
A1
330
A0
100
AcDbEntity
  8
0
100
AcDbBlockBegin
  2
レイアウト (部分図 3)
 70
     0
 10
0.0
 20
0.0
 30
0.0
  3
レイアウト (部分図 3)
  1

  0
LINE
  5
A3
330
A0
100
AcDbEntity
  8
新しいレイヤ 2
100
AcDbLine
 10
756.9559702894489
 20
192.0652897232378
 30
0.0
 11
760.5950445681925
 21
189.9642692088041
 31
0.0
  0
LINE
  5
A4
330
A0
100
AcDbEntity
  8
新しいレイヤ 2
100
AcDbLine
 10
746.9559702894489
 20
174.7447816475489
 30
0.0
 11
750.5950445681925
 21
172.6437611331153
 31
0.0
  0
CIRCLE
  5
A5
330
A0
100
AcDbEntity
  8
新しいレイヤ 2
100
AcDbCircle
 10
745.7957162516045
 20
192.7351627043155
 30
0.0
 40
1.5
  0
CIRCLE
  5
A6
330
A0
100
AcDbEntity
  8
新しいレイヤ 2
100
AcDbCircle
 10
740.7957162516045
 20
184.0749086664711
 30
0.0
 40
1.5
  0
LWPOLYLINE
  5
A7
330
A0
100
AcDbEntity
  8
新しいレイヤ 1
100
AcDbPolyline
 90
        5
 70
     0
 43
0.0
 10
724.5412313934401
 20
197.5008917591985
 10
726.9572589834847
 20
196.1059975797166
 10
724.0822589834847
 20
191.1263515079561
 10
724.8723224929458
 20
187.4947816475489
 10
746.9559702894489
 20
174.7447816475489
  0
LWPOLYLINE
  5
A8
330
A0
100
AcDbEntity
  8
新しいレイヤ 1
100
AcDbPolyline
 90
        6
 70
     0
 43
0.0
 10
746.9559702894489
 20
174.7447816475489
 10
756.9559702894489
 20
192.0652897232378
 10
734.8723224929458
 20
204.8152897232378
 10
731.3322589834845
 20
203.6837198628302
 10
728.4572589834847
 20
198.70407379107
 10
726.0412313934401
 20
200.0989679705519
  0
CIRCLE
  5
A9
102
{ACAD_REACTORS
330
AA
102
}
330
A0
100
AcDbEntity
  8
新しいレイヤ 2
100
AcDbCircle
 10
691.6335040044276
 20
208.3696068671342
 30
0.0
 40
2.0
  0
CIRCLE
  5
AB
102
{ACAD_REACTORS
330
AA
102
}
330
A0
100
AcDbEntity
  8
新しいレイヤ 2
100
AcDbCircle
 10
699.6335040044276
 20
222.2260133276851
 30
0.0
 40
2.0
  0
LWPOLYLINE
  5
AC
102
{ACAD_REACTORS
330
AA
102
}
330
A0
100
AcDbEntity
  8
新しいレイヤ 1
100
AcDbPolyline
 90
        3
 70
     0
 43
0.0
 10
693.2411991590143
 20
235.1542165579607
 10
677.2411991590143
 20
207.4414036368586
 10
700.3020271083399
 20
194.1272284125802
  0
LWPOLYLINE
  5
AD
102
{ACAD_REACTORS
330
AA
102
}
330
A0
100
AcDbEntity
  8
新しいレイヤ 1
100
AcDbPolyline
 90
        3
 70
     0
 43
0.0
 10
718.3746455413266
 20
220.5843911093615
 10
718.3559358687631
 20
220.654216557961
 10
693.2411991590143
 20
235.1542165579607
  0
ARC
  5
AE
102
{ACAD_REACTORS
330
AA
102
}
330
A0
100
AcDbEntity
  8
新しいレイヤ 1
  6
ACAD_ISO02W100
370
    13
100
AcDbCircle
 10
707.7578596574097
 20
208.2978100974096
 30
0.0
 40
3.25
100
AcDbArc
 50
148.2142324120294
 51
153.5056023978734
  0
ARC
  5
AF
102
{ACAD_REACTORS
330
AA
102
}
330
A0
100
AcDbEntity
  8
新しいレイヤ 1
  6
ACAD_ISO02W100
370
    13
100
AcDbCircle
 10
707.7578596574097
 20
208.2978100974096
 30
0.0
 40
3.25
100
AcDbArc
 50
104.2225778314458
 51
108.5526606982882
  0
ARC
  5
B0
102
{ACAD_REACTORS
330
AA
102
}
330
A0
100
AcDbEntity
  8
新しいレイヤ 1
  6
ACAD_ISO02W100
370
    13
100
AcDbCircle
 10
707.7578596574097
 20
208.2978100974096
 30
0.0
 40
3.25
100
AcDbArc
 50
45.84092608441129
 51
48.91979909022473
  0
ARC
  5
B1
102
{ACAD_REACTORS
330
AA
102
}
330
A0
100
AcDbEntity
  8
新しいレイヤ 1
  6
ACAD_ISO02W100
370
    13
100
AcDbCircle
 10
707.7578596574097
 20
208.2978100974096
 30
0.0
 40
3.25
100
AcDbArc
 50
233.7578930370133
 51
241.6053755614026
  0
CIRCLE
  5
B2
102
{ACAD_REACTORS
330
B3
102
}
330
A0
100
AcDbEntity
  8
新しいレイヤ 2
100
AcDbCircle
 10
831.9507717497194
 20
222.2931545217606
 30
0.0
 40
2.0
  0
CIRCLE
  5
B4
102
{ACAD_REACTORS
330
B3
102
}
330
A0
100
AcDbEntity
  8
新しいレイヤ 2
100
AcDbCircle
 10
839.9507717497194
 20
208.4367480612096
 30
0.0
 40
2.0
  0
LWPOLYLINE
  5
B5
102
{ACAD_REACTORS
330
B3
102
}
330
A0
100
AcDbEntity
  8
新しいレイヤ 1
100
AcDbPolyline
 90
        4
 70
     0
 43
0.0
 10
854.3430765951326
 20
207.508544830934
 10
838.3430765951326
 20
235.221357752036
 10
813.2283398853839
 20
220.721357752036
 10
813.1934340812751
 20
220.591087517623
  0
ARC
  5
B6
102
{ACAD_REACTORS
330
B3
102
}
330
A0
100
AcDbEntity
  8
新しいレイヤ 1
  6
ACAD_ISO02W100
370
    13
100
AcDbCircle
 10
823.8264160967371
 20
208.3649512914851
 30
0.0
 40
3.25
100
AcDbArc
 50
102.6568664098733
 51
117.4720223443478
  0
ARC
  5
B7
102
{ACAD_REACTORS
330
B3
102
}
330
A0
100
AcDbEntity
  8
新しいレイヤ 1
  6
ACAD_ISO02W100
370
    13
100
AcDbCircle
 10
823.8264160967371
 20
208.3649512914851
 30
0.0
 40
3.25
100
AcDbArc
 50
131.0802009097753
 51
137.3431335901275
  0
LINE
  5
B8
102
{ACAD_REACTORS
330
B9
102
}
330
A0
100
AcDbEntity
  8
0
  6
Continuous
 62
     7
100
AcDbLine
 10
706.8704744645387
 20
211.2942229501417
 30
0.0
 11
703.8393855512932
 21
213.0442229501417
 31
0.0
  0
LINE
  5
BA
102
{ACAD_REACTORS
330
B9
102
}
330
A0
100
AcDbEntity
  8
0
  6
Continuous
 62
     7
100
AcDbLine
 10
700.4761339155579
 20
212.618862238409
 30
0.0
 11
700.3261324155578
 21
212.3590520191974
 31
0.0
  0
LINE
  5
BB
102
{ACAD_REACTORS
330
B9
102
}
330
A0
100
AcDbEntity
  8
0
  6
CENTER
 62
     2
100
AcDbLine
 10
710.2483307783028
 20
195.8340197062486
 30
0.0
 11
702.9012016153531
 21
200.0758867062485
 31
0.0
  0
LINE
  5
BC
102
{ACAD_REACTORS
330
B9
102
}
330
A0
100
AcDbEntity
  8
0
  6
Continuous
 62
     7
100
AcDbLine
 10
719.9111000639599
 20
215.0812610508227
 30
0.0
 11
715.5111025639599
 21
207.4602418276467
 31
0.0
  0
LINE
  5
BD
102
{ACAD_REACTORS
330
B9
102
}
330
A0
100
AcDbEntity
  8
0
  6
Continuous
 62
     7
100
AcDbLine
 10
708.6828978336845
 20
211.6334443103274
 30
0.0
 11
708.5828993336845
 21
211.4602418276467
 31
0.0
  0
LWPOLYLINE
  5
BE
102
{ACAD_REACTORS
330
B9
102
}
330
A0
100
AcDbEntity
  8
新しいレイヤ 1
100
AcDbPolyline
 90
        5
 70
     0
 43
0.0
 10
717.1553679102328
 20
206.5081749485161
 10
722.0553677102329
 20
214.9952235591935
 10
721.8233169026639
 20
218.5932997705468
 10
699.3066564042686
 20
231.5932997705468
 10
696.5746055966997
 20
230.8612489629778
  0
ARC
  5
BF
102
{ACAD_REACTORS
330
B9
102
}
330
A0
100
AcDbEntity
  8
0
  6
Continuous
 62
     7
100
AcDbCircle
 10
715.8764306064568
 20
214.292990558681
 30
0.0
 40
1.600000399999999
100
AcDbArc
 50
150.00005
 51
330.000018
  0
LINE
  5
C0
102
{ACAD_REACTORS
330
B9
102
}
330
A0
100
AcDbEntity
  8
0
  6
Continuous
 62
     7
100
AcDbLine
 10
714.4907847642494
 20
215.092993558681
 30
0.0
 11
715.0407877642493
 21
216.0456266989962
 31
0.0
  0
LINE
  5
C1
102
{ACAD_REACTORS
330
B9
102
}
330
A0
100
AcDbEntity
  8
0
  6
Continuous
 62
     7
100
AcDbLine
 10
703.8394080057758
 20
213.0442238424465
 30
0.0
 11
703.7296030807929
 21
213.4540241334548
 31
0.0
  0
LINE
  5
C2
102
{ACAD_REACTORS
330
B9
102
}
330
A0
100
AcDbEntity
  8
0
  6
CENTER
 62
     2
100
AcDbLine
 10
719.5497486493674
 20
212.4031360413617
 30
0.0
 11
712.3350027277164
 21
216.5685715413616
 31
0.0
  0
LINE
  5
C3
102
{ACAD_REACTORS
330
B9
102
}
330
A0
100
AcDbEntity
  8
0
  6
Continuous
 62
     7
100
AcDbLine
 10
725.7194347150814
 20
199.141597773928
 30
0.0
 11
724.6194362150815
 21
197.2363444836784
 31
0.0
  0
ARC
  5
C4
102
{ACAD_REACTORS
330
C5
330
B9
102
}
330
A0
100
AcDbEntity
  8
新しいレイヤ 1
100
AcDbCircle
 10
706.9979993553585
 20
217.9150965402713
 30
0.0
 40
2.5
100
AcDbArc
 50
240.0
 51
60.0
  0
LWPOLYLINE
  5
C6
102
{ACAD_REACTORS
330
C5
330
B9
102
}
330
A0
100
AcDbEntity
  8
新しいレイヤ 1
100
AcDbPolyline
 90
        2
 70
     0
 43
0.0
 10
708.2479993553585
 20
220.0801600497324
 10
700.4537707212985
 20
224.5801600497324
  0
ARC
  5
C7
102
{ACAD_REACTORS
330
C5
330
B9
102
}
330
A0
100
AcDbEntity
  8
新しいレイヤ 1
100
AcDbCircle
 10
699.2037707212985
 20
222.4150965402713
 30
0.0
 40
2.5
100
AcDbArc
 50
60.0
 51
240.0
  0
LWPOLYLINE
  5
C8
102
{ACAD_REACTORS
330
C5
330
B9
102
}
330
A0
100
AcDbEntity
  8
新しいレイヤ 1
100
AcDbPolyline
 90
        2
 70
     0
 43
0.0
 10
697.9537707212985
 20
220.2500330308102
 10
705.7479993553585
 20
215.7500330308102
  0
LINE
  5
C9
102
{ACAD_REACTORS
330
B9
102
}
330
A0
100
AcDbEntity
  8
0
  6
Continuous
 62
     7
100
AcDbLine
 10
724.1713629319313
 20
202.4602427917482
 30
0.0
 11
724.1347591236038
 21
202.5968391359744
 31
0.0
  0
LINE
  5
CA
102
{ACAD_REACTORS
330
B9
102
}
330
A0
100
AcDbEntity
  8
0
  6
Continuous
 62
     7
100
AcDbLine
 10
707.8168724299001
 20
212.1334443103274
 30
0.0
 11
707.7168739299
 21
211.9602418276467
 31
0.0
  0
ARC
  5
CB
102
{ACAD_REACTORS
330
B9
102
}
330
A0
100
AcDbEntity
  8
0
  6
Continuous
 62
     7
100
AcDbCircle
 10
716.4264336064568
 20
215.2456236989963
 30
0.0
 40
1.600000399999999
100
AcDbArc
 50
330.000018
 51
150.0000400000001
  0
LINE
  5
CC
102
{ACAD_REACTORS
330
B9
102
}
330
A0
100
AcDbEntity
  8
0
  6
Continuous
 62
     7
100
AcDbLine
 10
717.2620634582834
 20
213.492995058681
 30
0.0
 11
717.8120664582833
 21
214.4456281989962
 31
0.0
  0
LINE
  5
CD
102
{ACAD_REACTORS
330
B9
102
}
330
A0
100
AcDbEntity
  8
0
  6
Continuous
 62
     7
100
AcDbLine
 10
707.3704924094025
 20
212.1602114353418
 30
0.0
 11
706.7874747434086
 21
212.1504032161303
 31
0.0
  0
LINE
  5
CE
102
{ACAD_REACTORS
330
B9
102
}
330
A0
100
AcDbEntity
  8
0
  6
Continuous
 62
     7
100
AcDbLine
 10
724.6194362150815
 20
197.2363444836784
 30
0.0
 11
724.4462302682991
 21
197.3363449836785
 31
0.0
  0
LINE
  5
CF
102
{ACAD_REACTORS
330
B9
102
}
330
A0
100
AcDbEntity
  8
0
  6
Continuous
 62
     7
100
AcDbLine
 10
726.5962242682992
 20
201.0602438276467
 30
0.0
 11
723.3962290682991
 21
195.5176895572702
 31
0.0
  0
LINE
  5
D0
102
{ACAD_REACTORS
330
B9
102
}
330
A0
100
AcDbEntity
  8
0
  6
Continuous
 62
     7
100
AcDbLine
 10
704.9498914317923
 20
206.1676875572701
 30
0.0
 11
704.8498910317923
 21
205.9944817836929
 31
0.0
  0
LINE
  5
D1
102
{ACAD_REACTORS
330
B9
102
}
330
A0
100
AcDbEntity
  8
0
  6
Continuous
 62
     7
100
AcDbLine
 10
720.7981589191237
 20
197.0176860572702
 30
0.0
 11
706.9417524585726
 21
205.0176860572702
 31
0.0
  0
ARC
  5
D2
102
{ACAD_REACTORS
330
B9
102
}
330
A0
100
AcDbEntity
  8
0
  6
Continuous
 62
     7
100
AcDbCircle
 10
706.0264398564568
 20
197.2323061255975
 30
0.0
 40
1.600000399999999
100
AcDbArc
 50
150.0
 51
330.000018
  0
LINE
  5
D3
102
{ACAD_REACTORS
330
B9
102
}
330
A0
100
AcDbEntity
  8
0
  6
Continuous
 62
     7
100
AcDbLine
 10
705.1907894142494
 20
198.9849291023266
 30
0.0
 11
704.6407940142493
 21
198.0323091255974
 31
0.0
  0
LINE
  5
D4
102
{ACAD_REACTORS
330
B9
102
}
330
A0
100
AcDbEntity
  8
0
  6
Continuous
 62
     7
100
AcDbLine
 10
725.7194347150814
 20
199.141597773928
 30
0.0
 11
725.5462287682992
 21
199.2415982739279
 31
0.0
  0
LINE
  5
D5
102
{ACAD_REACTORS
330
B9
102
}
330
A0
100
AcDbEntity
  8
0
  6
CENTER
 62
     2
100
AcDbLine
 10
726.8861201339109
 20
197.1978421957905
 30
0.0
 11
699.5477402243384
 21
212.9816631957905
 31
0.0
  0
LINE
  5
D6
102
{ACAD_REACTORS
330
B9
102
}
330
A0
100
AcDbEntity
  8
0
  6
Continuous
 62
     7
100
AcDbLine
 10
706.0757270547882
 20
205.5176860572702
 30
0.0
 11
705.9757266547882
 21
205.3444802836929
 31
0.0
  0
LINE
  5
D7
102
{ACAD_REACTORS
330
B9
102
}
330
A0
100
AcDbEntity
  8
0
  6
Continuous
 62
     7
100
AcDbLine
 10
720.9713799242362
 20
196.9176856390633
 30
0.0
 11
720.8347790498831
 21
196.8810839843254
 31
0.0
  0
ARC
  5
D8
102
{ACAD_REACTORS
330
B9
102
}
330
A0
100
AcDbEntity
  8
0
  6
Continuous
 62
     7
100
AcDbCircle
 10
706.5764352564568
 20
198.1849261023266
 30
0.0
 40
1.600000399999999
100
AcDbArc
 50
330.000018
 51
149.99998
  0
LINE
  5
D9
102
{ACAD_REACTORS
330
B9
102
}
330
A0
100
AcDbEntity
  8
0
  6
Continuous
 62
     7
100
AcDbLine
 10
707.9620681082833
 20
197.3849306023266
 30
0.0
 11
707.4120727082833
 21
196.4323106255974
 31
0.0
  0
LINE
  5
DA
102
{ACAD_REACTORS
330
B9
102
}
330
A0
100
AcDbEntity
  8
0
  6
Continuous
 62
     7
100
AcDbLine
 10
723.3962290682991
 20
195.5176895572702
 30
0.0
 11
720.9713614018044
 21
196.9176875572701
 31
0.0
  0
LWPOLYLINE
  5
DB
102
{ACAD_REACTORS
330
DC
330
B9
102
}
330
A0
100
AcDbEntity
  8
新しいレイヤ 1
100
AcDbPolyline
 90
        2
 70
     0
 43
0.0
 10
692.4537707212985
 20
210.7237535891812
 10
700.2479993553584
 20
206.2237535891812
  0
ARC
  5
DD
102
{ACAD_REACTORS
330
DC
330
B9
102
}
330
A0
100
AcDbEntity
  8
新しいレイヤ 1
100
AcDbCircle
 10
691.2037707212985
 20
208.5586900797201
 30
0.0
 40
2.5
100
AcDbArc
 50
60.0
 51
240.0
  0
LWPOLYLINE
  5
DE
102
{ACAD_REACTORS
330
DC
330
B9
102
}
330
A0
100
AcDbEntity
  8
新しいレイヤ 1
100
AcDbPolyline
 90
        2
 70
     0
 43
0.0
 10
697.7479993553584
 20
201.893626570259
 10
689.9537707212985
 20
206.393626570259
  0
ARC
  5
DF
102
{ACAD_REACTORS
330
DC
330
B9
102
}
330
A0
100
AcDbEntity
  8
新しいレイヤ 1
100
AcDbCircle
 10
698.9979993553584
 20
204.0586900797201
 30
0.0
 40
2.5
100
AcDbArc
 50
240.0
 51
60.0
  0
LINE
  5
E0
102
{ACAD_REACTORS
330
B9
102
}
330
A0
100
AcDbEntity
  8
0
  6
Continuous
 62
     7
100
AcDbLine
 10
708.6828978336845
 20
211.6334443103274
 30
0.0
 11
707.8168724299001
 21
212.1334443103274
 31
0.0
  0
LINE
  5
E1
102
{ACAD_REACTORS
330
B9
102
}
330
A0
100
AcDbEntity
  8
0
  6
Continuous
 62
     7
100
AcDbLine
 10
720.8347773178323
 20
196.8810849843254
 30
0.0
 11
720.7981757095047
 21
197.0176851390632
 31
0.0
  0
LINE
  5
E2
102
{ACAD_REACTORS
330
B9
102
}
330
A0
100
AcDbEntity
  8
0
  6
Continuous
 62
     7
100
AcDbLine
 10
706.9417524585726
 20
205.0176860572702
 30
0.0
 11
702.5417528435726
 21
197.3966631708066
 31
0.0
  0
ARC
  5
E3
102
{ACAD_REACTORS
330
B9
102
}
330
A0
100
AcDbEntity
  8
0
  6
Continuous
 62
     7
100
AcDbCircle
 10
715.4077705623571
 20
217.6812595508227
 30
0.0
 40
1.0
100
AcDbArc
 50
60.0
 51
149.99998
  0
LINE
  5
E4
102
{ACAD_REACTORS
330
B9
102
}
330
A0
100
AcDbEntity
  8
0
  6
Continuous
 62
     7
100
AcDbLine
 10
706.9417524585726
 20
205.0176860572702
 30
0.0
 11
704.1704737645387
 21
206.6176845572702
 31
0.0
  0
LINE
  5
E5
102
{ACAD_REACTORS
330
B9
102
}
330
A0
100
AcDbEntity
  8
0
  6
Continuous
 62
     7
100
AcDbLine
 10
726.5962242682992
 20
201.0602438276467
 30
0.0
 11
724.1713566018043
 21
202.4602418276467
 31
0.0
  0
LINE
  5
E6
102
{ACAD_REACTORS
330
B9
102
}
330
A0
100
AcDbEntity
  8
0
  6
Continuous
 62
     7
100
AcDbLine
 10
703.9295683320815
 20
213.8004301084351
 30
0.0
 11
703.7295748320817
 21
213.4540312052517
 31
0.0
  0
LINE
  5
E7
102
{ACAD_REACTORS
330
B9
102
}
330
A0
100
AcDbEntity
  8
0
  6
Continuous
 62
     7
100
AcDbLine
 10
705.9757266547882
 20
205.3444802836929
 30
0.0
 11
704.8498910317923
 21
205.9944817836929
 31
0.0
  0
LINE
  5
E8
102
{ACAD_REACTORS
330
B9
102
}
330
A0
100
AcDbEntity
  8
0
  6
Continuous
 62
     7
100
AcDbLine
 10
723.9981541191237
 20
202.5602403276467
 30
0.0
 11
710.1417476585726
 21
210.5602403276467
 31
0.0
  0
LINE
  5
E9
102
{ACAD_REACTORS
330
B9
102
}
330
A0
100
AcDbEntity
  8
0
  6
Continuous
 62
     7
100
AcDbLine
 10
712.31110736396
 20
201.9176875572701
 30
0.0
 11
707.9111077489599
 21
194.2966646708066
 31
0.0
  0
ARC
  5
EA
102
{ACAD_REACTORS
330
B9
102
}
330
A0
100
AcDbEntity
  8
0
  6
Continuous
 62
     7
100
AcDbCircle
 10
719.0450746601755
 20
215.5812610508227
 30
0.0
 40
1.0
100
AcDbArc
 50
330.000018
 51
60.0
  0
LINE
  5
EB
102
{ACAD_REACTORS
330
B9
102
}
330
A0
100
AcDbEntity
  8
0
  6
Continuous
 62
     7
100
AcDbLine
 10
710.1417476585726
 20
210.5602403276467
 30
0.0
 11
707.3704689645386
 21
212.1602388276467
 31
0.0
  0
ARC
  5
EC
102
{ACAD_REACTORS
330
B9
102
}
330
A0
100
AcDbEntity
  8
0
  6
Continuous
 62
     7
100
AcDbCircle
 10
703.4077782473571
 20
196.8966631708066
 30
0.0
 40
1.0
100
AcDbArc
 50
149.9999700000001
 51
240.0000200000001
  0
LINE
  5
ED
102
{ACAD_REACTORS
330
B9
102
}
330
A0
100
AcDbEntity
  8
0
  6
Continuous
 62
     7
100
AcDbLine
 10
707.3704689645386
 20
212.1602388276467
 30
0.0
 11
704.1704737645387
 21
206.6176845572702
 31
0.0
  0
CIRCLE
  5
EE
102
{ACAD_REACTORS
330
B9
102
}
330
A0
100
AcDbEntity
  8
新しいレイヤ 1
100
AcDbCircle
 10
716.2478872602821
 20
214.9071663559158
 30
0.0
 40
1.5
  0
LINE
  5
EF
102
{ACAD_REACTORS
330
B9
102
}
330
A0
100
AcDbEntity
  8
0
  6
Continuous
 62
     7
100
AcDbLine
 10
705.6954734645386
 20
209.2590615191974
 30
0.0
 11
700.3261324155578
 21
212.3590520191974
 31
0.0
  0
LINE
  5
F0
102
{ACAD_REACTORS
330
B9
102
}
330
A0
100
AcDbEntity
  8
0
  6
Continuous
 62
     7
100
AcDbLine
 10
724.1347605255276
 20
202.5968475641774
 30
0.0
 11
723.9981602171999
 21
202.5602448898245
 31
0.0
  0
LINE
  5
F1
102
{ACAD_REACTORS
330
B9
102
}
330
A0
100
AcDbEntity
  8
0
  6
Continuous
 62
     7
100
AcDbLine
 10
706.5450823601755
 20
193.930639293003
 30
0.0
 11
702.9077782623572
 21
196.0306377930029
 31
0.0
  0
ARC
  5
F2
102
{ACAD_REACTORS
330
B9
102
}
330
A0
100
AcDbEntity
  8
0
  6
Continuous
 62
     7
100
AcDbCircle
 10
707.0450823451755
 20
194.7966646708066
 30
0.0
 40
1.0
100
AcDbArc
 50
240.00004
 51
330.000018
  0
LINE
  5
F3
102
{ACAD_REACTORS
330
B9
102
}
330
A0
100
AcDbEntity
  8
0
  6
Continuous
 62
     7
100
AcDbLine
 10
706.7874547626465
 20
212.150428608435
 30
0.0
 11
703.9295683320815
 21
213.8004301084351
 31
0.0
  0
CIRCLE
  5
F4
102
{ACAD_REACTORS
330
B9
102
}
330
A0
100
AcDbEntity
  8
新しいレイヤ 1
100
AcDbCircle
 10
706.2478872602821
 20
197.5866582802271
 30
0.0
 40
1.5
  0
LINE
  5
F5
102
{ACAD_REACTORS
330
B9
102
}
330
A0
100
AcDbEntity
  8
0
  6
Continuous
 62
     7
100
AcDbLine
 10
705.8454749645387
 20
209.518871738409
 30
0.0
 11
700.4761339155579
 21
212.618862238409
 31
0.0
  0
LINE
  5
F6
102
{ACAD_REACTORS
330
B9
102
}
330
A0
100
AcDbEntity
  8
0
  6
Continuous
 62
     7
100
AcDbLine
 10
719.5450746601755
 20
216.4472864546071
 30
0.0
 11
715.9077705623571
 21
218.5472849546071
 31
0.0
  0
LINE
  5
F7
102
{ACAD_REACTORS
330
B9
102
}
330
A0
100
AcDbEntity
  8
0
  6
Continuous
 62
     7
100
AcDbLine
 10
714.5417451585727
 20
218.1812595508227
 30
0.0
 11
710.1417476585726
 21
210.5602403276467
 31
0.0
  0
LINE
  5
F8
102
{ACAD_REACTORS
330
B9
102
}
330
A0
100
AcDbEntity
  8
0
  6
CENTER
 62
     2
100
AcDbLine
 10
719.9619284556545
 20
195.3692804077047
 30
0.0
 11
724.7232903556546
 21
203.6162011317274
 31
0.0
  0
LWPOLYLINE
  5
F9
102
{ACAD_REACTORS
330
B9
102
}
330
A0
100
AcDbEntity
  8
新しいレイヤ 1
100
AcDbPolyline
 90
        6
 70
     0
 43
0.0
 10
696.5746055966997
 20
230.8612489629778
 10
682.5746055966997
 20
206.6125376570136
 10
683.3066564042686
 20
203.8804868494447
 10
705.8233169026639
 20
190.8804868494447
 10
708.5553677102328
 20
191.6125376570136
 10
713.9553727102328
 20
200.9656206781395
  0
LINE
  5
FA
102
{ACAD_REACTORS
330
FB
102
}
330
A0
100
AcDbEntity
  8
0
  6
Continuous
 62
     7
100
AcDbLine
 10
827.0046914284379
 20
207.5467078639253
 30
0.0
 11
830.0357803416834
 21
209.2967078639253
 31
0.0
  0
LINE
  5
FC
102
{ACAD_REACTORS
330
FB
102
}
330
A0
100
AcDbEntity
  8
0
  6
Continuous
 62
     7
100
AcDbLine
 10
831.3490329774187
 20
212.422049575658
 30
0.0
 11
831.1990314774187
 21
212.6818597948696
 31
0.0
  0
LINE
  5
FD
102
{ACAD_REACTORS
330
FB
102
}
330
A0
100
AcDbEntity
  8
0
  6
CENTER
 62
     2
100
AcDbLine
 10
811.9268345146737
 20
212.3515001078185
 30
0.0
 11
819.2739636776236
 21
216.5933671078185
 31
0.0
  0
LINE
  5
FE
102
{ACAD_REACTORS
330
FB
102
}
330
A0
100
AcDbEntity
  8
0
  6
Continuous
 62
     7
100
AcDbLine
 10
823.7640498290166
 20
194.3596757632443
 30
0.0
 11
819.3640523290165
 21
201.9806949864202
 31
0.0
  0
LINE
  5
FF
102
{ACAD_REACTORS
330
FB
102
}
330
A0
100
AcDbEntity
  8
0
  6
Continuous
 62
     7
100
AcDbLine
 10
826.3922540592921
 20
205.8074925037396
 30
0.0
 11
826.2922555592921
 21
205.9806949864202
 31
0.0
  0
LWPOLYLINE
  5
100
102
{ACAD_REACTORS
330
FB
102
}
330
A0
100
AcDbEntity
  8
新しいレイヤ 1
100
AcDbPolyline
 90
        5
 70
     0
 43
0.0
 10
817.7174055524513
 20
201.0327528655509
 10
822.6174053524513
 20
192.5457042548735
 10
825.8494561600202
 20
190.9476280435202
 10
848.3661166584155
 20
203.9476280435202
 10
849.0981674659845
 20
206.6796788510891
  0
ARC
  5
101
102
{ACAD_REACTORS
330
FB
102
}
330
A0
100
AcDbEntity
  8
0
  6
Continuous
 62
     7
100
AcDbCircle
 10
825.0987222865197
 20
198.247937255386
 30
0.0
 40
1.600000399999999
100
AcDbArc
 50
30.00004999999998
 51
210.000018
  0
LINE
  5
102
102
{ACAD_REACTORS
330
FB
102
}
330
A0
100
AcDbEntity
  8
0
  6
Continuous
 62
     7
100
AcDbLine
 10
826.4843681287272
 20
199.047940255386
 30
0.0
 11
827.0343711287272
 21
198.0953071150708
 31
0.0
  0
LINE
  5
103
102
{ACAD_REACTORS
330
FB
102
}
330
A0
100
AcDbEntity
  8
0
  6
Continuous
 62
     7
100
AcDbLine
 10
830.0357698872007
 20
209.2966879716204
 30
0.0
 11
830.4455698121836
 21
209.1868816806122
 31
0.0
  0
LINE
  5
104
102
{ACAD_REACTORS
330
FB
102
}
330
A0
100
AcDbEntity
  8
0
  6
CENTER
 62
     2
100
AcDbLine
 10
821.6254012436091
 20
196.0116777727053
 30
0.0
 11
828.8401471652602
 21
200.1771132727053
 31
0.0
  0
LINE
  5
105
102
{ACAD_REACTORS
330
FB
102
}
330
A0
100
AcDbEntity
  8
0
  6
Continuous
 62
     7
100
AcDbLine
 10
807.0557291778952
 20
197.299342040139
 30
0.0
 11
805.9557306778951
 21
199.2045953303886
 31
0.0
  0
ARC
  5
106
102
{ACAD_REACTORS
330
107
330
FB
102
}
330
A0
100
AcDbEntity
  8
新しいレイヤ 1
100
AcDbCircle
 10
832.6747737073257
 20
204.1258312737957
 30
0.0
 40
2.5
100
AcDbArc
 50
120.0
 51
300.0
  0
LWPOLYLINE
  5
108
102
{ACAD_REACTORS
330
107
330
FB
102
}
330
A0
100
AcDbEntity
  8
新しいレイヤ 1
100
AcDbPolyline
 90
        2
 70
     0
 43
0.0
 10
833.9247737073257
 20
201.9607677643346
 10
841.7190023413856
 20
206.4607677643346
  0
ARC
  5
109
102
{ACAD_REACTORS
330
107
330
FB
102
}
330
A0
100
AcDbEntity
  8
新しいレイヤ 1
100
AcDbCircle
 10
840.4690023413856
 20
208.6258312737957
 30
0.0
 40
2.5
100
AcDbArc
 50
300.0
 51
120.0
  0
LWPOLYLINE
  5
10A
102
{ACAD_REACTORS
330
107
330
FB
102
}
330
A0
100
AcDbEntity
  8
新しいレイヤ 1
100
AcDbPolyline
 90
        2
 70
     0
 43
0.0
 10
839.2190023413856
 20
210.7908947832568
 10
831.4247737073257
 20
206.2908947832568
  0
LINE
  5
10B
102
{ACAD_REACTORS
330
FB
102
}
330
A0
100
AcDbEntity
  8
0
  6
Continuous
 62
     7
100
AcDbLine
 10
810.7037959610452
 20
196.9806890223187
 30
0.0
 11
810.8403937693728
 21
196.9440906780926
 31
0.0
  0
LINE
  5
10C
102
{ACAD_REACTORS
330
FB
102
}
330
A0
100
AcDbEntity
  8
0
  6
Continuous
 62
     7
100
AcDbLine
 10
827.2582794630765
 20
206.3074925037396
 30
0.0
 11
827.1582809630765
 21
206.4806949864202
 31
0.0
  0
ARC
  5
10D
102
{ACAD_REACTORS
330
FB
102
}
330
A0
100
AcDbEntity
  8
0
  6
Continuous
 62
     7
100
AcDbCircle
 10
825.6487252865196
 20
197.2953041150708
 30
0.0
 40
1.600000399999999
100
AcDbArc
 50
210.000018
 51
30.00004000000013
  0
LINE
  5
10E
102
{ACAD_REACTORS
330
FB
102
}
330
A0
100
AcDbEntity
  8
0
  6
Continuous
 62
     7
100
AcDbLine
 10
823.7130894346932
 20
197.447941755386
 30
0.0
 11
824.2630924346932
 21
196.4953086150707
 31
0.0
  0
LINE
  5
10F
102
{ACAD_REACTORS
330
FB
102
}
330
A0
100
AcDbEntity
  8
0
  6
Continuous
 62
     7
100
AcDbLine
 10
827.5046504835741
 20
206.6806853787251
 30
0.0
 11
827.7876651495679
 21
207.1904975979366
 31
0.0
  0
LINE
  5
110
102
{ACAD_REACTORS
330
FB
102
}
330
A0
100
AcDbEntity
  8
0
  6
Continuous
 62
     7
100
AcDbLine
 10
805.9557306778951
 20
199.2045953303886
 30
0.0
 11
806.1289366246773
 21
199.3045958303885
 31
0.0
  0
LINE
  5
111
102
{ACAD_REACTORS
330
FB
102
}
330
A0
100
AcDbEntity
  8
0
  6
Continuous
 62
     7
100
AcDbLine
 10
808.2789306246774
 20
195.5806969864202
 30
0.0
 11
805.0789354246773
 21
201.1232512567969
 31
0.0
  0
LINE
  5
112
102
{ACAD_REACTORS
330
FB
102
}
330
A0
100
AcDbEntity
  8
0
  6
Continuous
 62
     7
100
AcDbLine
 10
823.5252730611843
 20
211.7732492567968
 30
0.0
 11
823.4252726611843
 21
211.9464550303741
 31
0.0
  0
LINE
  5
113
102
{ACAD_REACTORS
330
FB
102
}
330
A0
100
AcDbEntity
  8
0
  6
Continuous
 62
     7
100
AcDbLine
 10
807.6770055738529
 20
202.6232477567969
 30
0.0
 11
821.5334120344038
 21
210.6232477567969
 31
0.0
  0
ARC
  5
114
102
{ACAD_REACTORS
330
FB
102
}
330
A0
100
AcDbEntity
  8
0
  6
Continuous
 62
     7
100
AcDbCircle
 10
815.2487315365197
 20
215.3086216884695
 30
0.0
 40
1.600000399999999
100
AcDbArc
 50
30.0
 51
210.000018
  0
LINE
  5
115
102
{ACAD_REACTORS
330
FB
102
}
330
A0
100
AcDbEntity
  8
0
  6
Continuous
 62
     7
100
AcDbLine
 10
817.1843727787273
 20
215.1560047117403
 30
0.0
 11
816.6343773787272
 21
216.1086246884695
 31
0.0
  0
LINE
  5
116
102
{ACAD_REACTORS
330
FB
102
}
330
A0
100
AcDbEntity
  8
0
  6
Continuous
 62
     7
100
AcDbLine
 10
807.0557291778952
 20
197.299342040139
 30
0.0
 11
807.2289351246774
 21
197.399342540139
 31
0.0
  0
LINE
  5
117
102
{ACAD_REACTORS
330
FB
102
}
330
A0
100
AcDbEntity
  8
0
  6
CENTER
 62
     2
100
AcDbLine
 10
804.7890447590655
 20
197.2608406182765
 30
0.0
 11
832.1274246686381
 21
213.0446616182765
 31
0.0
  0
LINE
  5
118
102
{ACAD_REACTORS
330
FB
102
}
330
A0
100
AcDbEntity
  8
0
  6
Continuous
 62
     7
100
AcDbLine
 10
822.3994374381883
 20
211.1232477567969
 30
0.0
 11
822.2994370381883
 21
211.2964535303741
 31
0.0
  0
LINE
  5
119
102
{ACAD_REACTORS
330
FB
102
}
330
A0
100
AcDbEntity
  8
0
  6
Continuous
 62
     7
100
AcDbLine
 10
807.5037921687402
 20
202.5232341750038
 30
0.0
 11
807.5403946430934
 21
202.6598348297416
 31
0.0
  0
ARC
  5
11A
102
{ACAD_REACTORS
330
FB
102
}
330
A0
100
AcDbEntity
  8
0
  6
Continuous
 62
     7
100
AcDbCircle
 10
815.7987269365198
 20
214.3560017117403
 30
0.0
 40
1.600000399999999
100
AcDbArc
 50
210.000018
 51
29.99998
  0
LINE
  5
11B
102
{ACAD_REACTORS
330
FB
102
}
330
A0
100
AcDbEntity
  8
0
  6
Continuous
 62
     7
100
AcDbLine
 10
814.4130940846932
 20
213.5560062117403
 30
0.0
 11
813.8630986846932
 21
214.5086261884694
 31
0.0
  0
LINE
  5
11C
102
{ACAD_REACTORS
330
FB
102
}
330
A0
100
AcDbEntity
  8
0
  6
Continuous
 62
     7
100
AcDbLine
 10
805.0789354246773
 20
201.1232512567969
 30
0.0
 11
807.5038030911722
 21
202.5232492567968
 31
0.0
  0
LWPOLYLINE
  5
11D
102
{ACAD_REACTORS
330
11E
330
FB
102
}
330
A0
100
AcDbEntity
  8
新しいレイヤ 1
100
AcDbPolyline
 90
        2
 70
     0
 43
0.0
 10
833.7190023413856
 20
220.3171742248856
 10
825.9247737073257
 20
215.8171742248856
  0
ARC
  5
11F
102
{ACAD_REACTORS
330
11E
330
FB
102
}
330
A0
100
AcDbEntity
  8
新しいレイヤ 1
100
AcDbCircle
 10
832.4690023413856
 20
222.4822377343467
 30
0.0
 40
2.5
100
AcDbArc
 50
300.0
 51
120.0
  0
LWPOLYLINE
  5
120
102
{ACAD_REACTORS
330
11E
330
FB
102
}
330
A0
100
AcDbEntity
  8
新しいレイヤ 1
100
AcDbPolyline
 90
        2
 70
     0
 43
0.0
 10
823.4247737073257
 20
220.1473012438078
 10
831.2190023413856
 20
224.6473012438078
  0
ARC
  5
121
102
{ACAD_REACTORS
330
11E
330
FB
102
}
330
A0
100
AcDbEntity
  8
新しいレイヤ 1
100
AcDbCircle
 10
824.6747737073257
 20
217.9822377343467
 30
0.0
 40
2.5
100
AcDbArc
 50
120.0
 51
300.0
  0
LINE
  5
122
102
{ACAD_REACTORS
330
FB
102
}
330
A0
100
AcDbEntity
  8
0
  6
Continuous
 62
     7
100
AcDbLine
 10
826.3922540592921
 20
205.8074925037396
 30
0.0
 11
827.2582794630765
 21
206.3074925037396
 31
0.0
  0
LINE
  5
123
102
{ACAD_REACTORS
330
FB
102
}
330
A0
100
AcDbEntity
  8
0
  6
Continuous
 62
     7
100
AcDbLine
 10
807.5403963751442
 20
202.6598358297416
 30
0.0
 11
807.6769963834718
 21
202.6232336750038
 31
0.0
  0
LINE
  5
124
102
{ACAD_REACTORS
330
FB
102
}
330
A0
100
AcDbEntity
  8
0
  6
Continuous
 62
     7
100
AcDbLine
 10
821.5334120344038
 20
210.6232477567969
 30
0.0
 11
817.133412419404
 21
218.2442706432603
 31
0.0
  0
ARC
  5
125
102
{ACAD_REACTORS
330
FB
102
}
330
A0
100
AcDbEntity
  8
0
  6
Continuous
 62
     7
100
AcDbCircle
 10
828.2673793306195
 20
196.9596742632442
 30
0.0
 40
1.0
100
AcDbArc
 50
300.0
 51
29.99998
  0
LINE
  5
126
102
{ACAD_REACTORS
330
FB
102
}
330
A0
100
AcDbEntity
  8
0
  6
Continuous
 62
     7
100
AcDbLine
 10
821.5334120344038
 20
210.6232477567969
 30
0.0
 11
824.3046907284378
 21
212.2232462567969
 31
0.0
  0
LINE
  5
127
102
{ACAD_REACTORS
330
FB
102
}
330
A0
100
AcDbEntity
  8
0
  6
Continuous
 62
     7
100
AcDbLine
 10
808.2789306246774
 20
195.5806969864202
 30
0.0
 11
810.7037982911722
 21
196.9806949864202
 31
0.0
  0
LINE
  5
128
102
{ACAD_REACTORS
330
FB
102
}
330
A0
100
AcDbEntity
  8
0
  6
Continuous
 62
     7
100
AcDbLine
 10
830.6455835608949
 20
208.8405037056318
 30
0.0
 11
830.4455900608949
 21
209.1869026088154
 31
0.0
  0
LINE
  5
129
102
{ACAD_REACTORS
330
FB
102
}
330
A0
100
AcDbEntity
  8
0
  6
Continuous
 62
     7
100
AcDbLine
 10
822.2994370381883
 20
211.2964535303741
 30
0.0
 11
823.4252726611843
 21
211.9464550303741
 31
0.0
  0
LINE
  5
12A
102
{ACAD_REACTORS
330
FB
102
}
330
A0
100
AcDbEntity
  8
0
  6
Continuous
 62
     7
100
AcDbLine
 10
810.877000773853
 20
197.0806934864202
 30
0.0
 11
824.7334072344039
 21
205.0806934864202
 31
0.0
  0
LINE
  5
12B
102
{ACAD_REACTORS
330
FB
102
}
330
A0
100
AcDbEntity
  8
0
  6
Continuous
 62
     7
100
AcDbLine
 10
816.1640571290166
 20
207.5232492567968
 30
0.0
 11
811.7640575140166
 21
215.1442721432602
 31
0.0
  0
ARC
  5
12C
102
{ACAD_REACTORS
330
FB
102
}
330
A0
100
AcDbEntity
  8
0
  6
Continuous
 62
     7
100
AcDbCircle
 10
824.630075232801
 20
194.8596757632443
 30
0.0
 40
1.0
100
AcDbArc
 50
210.000018
 51
300.0
  0
LINE
  5
12D
102
{ACAD_REACTORS
330
FB
102
}
330
A0
100
AcDbEntity
  8
0
  6
Continuous
 62
     7
100
AcDbLine
 10
824.7334072344039
 20
205.0806934864202
 30
0.0
 11
827.5046859284379
 21
206.6806919864203
 31
0.0
  0
ARC
  5
12E
102
{ACAD_REACTORS
330
FB
102
}
330
A0
100
AcDbEntity
  8
0
  6
Continuous
 62
     7
100
AcDbCircle
 10
816.2673870156194
 20
217.7442706432603
 30
0.0
 40
1.0
100
AcDbArc
 50
29.99997000000008
 51
120.0000200000001
  0
LINE
  5
12F
102
{ACAD_REACTORS
330
FB
102
}
330
A0
100
AcDbEntity
  8
0
  6
Continuous
 62
     7
100
AcDbLine
 10
827.5046859284379
 20
206.6806919864203
 30
0.0
 11
824.3046907284378
 21
212.2232462567969
 31
0.0
  0
CIRCLE
  5
130
102
{ACAD_REACTORS
330
FB
102
}
330
A0
100
AcDbEntity
  8
新しいレイヤ 1
100
AcDbCircle
 10
825.4448858024019
 20
197.6191584581511
 30
0.0
 40
1.5
  0
LINE
  5
131
102
{ACAD_REACTORS
330
FB
102
}
330
A0
100
AcDbEntity
  8
0
  6
Continuous
 62
     7
100
AcDbLine
 10
825.8296904284379
 20
209.5818692948696
 30
0.0
 11
831.1990314774187
 21
212.6818597948696
 31
0.0
  0
LINE
  5
132
102
{ACAD_REACTORS
330
FB
102
}
330
A0
100
AcDbEntity
  8
0
  6
Continuous
 62
     7
100
AcDbLine
 10
810.840400367449
 20
196.9440852498894
 30
0.0
 11
810.8770016757767
 21
197.0806859242424
 31
0.0
  0
LINE
  5
133
102
{ACAD_REACTORS
330
FB
102
}
330
A0
100
AcDbEntity
  8
0
  6
Continuous
 62
     7
100
AcDbLine
 10
812.130082932801
 20
216.5102975210639
 30
0.0
 11
815.7673870306195
 21
218.6102960210639
 31
0.0
  0
ARC
  5
134
102
{ACAD_REACTORS
330
FB
102
}
330
A0
100
AcDbEntity
  8
0
  6
Continuous
 62
     7
100
AcDbCircle
 10
812.630082917801
 20
215.6442721432602
 30
0.0
 40
1.0
100
AcDbArc
 50
120.00004
 51
210.000018
  0
LINE
  5
135
102
{ACAD_REACTORS
330
FB
102
}
330
A0
100
AcDbEntity
  8
0
  6
Continuous
 62
     7
100
AcDbLine
 10
827.78769713033
 20
207.1905022056318
 30
0.0
 11
830.6455835608949
 21
208.8405037056318
 31
0.0
  0
CIRCLE
  5
136
102
{ACAD_REACTORS
330
FB
102
}
330
A0
100
AcDbEntity
  8
新しいレイヤ 1
100
AcDbCircle
 10
815.4448858024019
 20
214.9396665338399
 30
0.0
 40
1.5
  0
LINE
  5
137
102
{ACAD_REACTORS
330
FB
102
}
330
A0
100
AcDbEntity
  8
0
  6
Continuous
 62
     7
100
AcDbLine
 10
825.9796919284378
 20
209.322059075658
 30
0.0
 11
831.3490329774187
 21
212.422049575658
 31
0.0
  0
LINE
  5
138
102
{ACAD_REACTORS
330
FB
102
}
330
A0
100
AcDbEntity
  8
0
  6
Continuous
 62
     7
100
AcDbLine
 10
825.130075232801
 20
193.9936503594598
 30
0.0
 11
828.7673793306195
 21
196.0936488594598
 31
0.0
  0
LINE
  5
139
102
{ACAD_REACTORS
330
FB
102
}
330
A0
100
AcDbEntity
  8
0
  6
Continuous
 62
     7
100
AcDbLine
 10
829.1334047344038
 20
197.4596742632442
 30
0.0
 11
824.7334072344039
 21
205.0806934864202
 31
0.0
  0
LINE
  5
13A
102
{ACAD_REACTORS
330
FB
102
}
330
A0
100
AcDbEntity
  8
0
  6
CENTER
 62
     2
100
AcDbLine
 10
806.6675596373219
 20
204.1716474063623
 30
0.0
 11
811.428921537322
 21
195.9247266823395
 31
0.0
  0
LWPOLYLINE
  5
13B
102
{ACAD_REACTORS
330
FB
102
}
330
A0
100
AcDbEntity
  8
新しいレイヤ 1
100
AcDbPolyline
 90
        6
 70
     0
 43
0.0
 10
849.0981674659845
 20
206.6796788510891
 10
835.0981674659845
 20
230.9283901570533
 10
832.3661166584155
 20
231.6604409646223
 10
809.8494561600202
 20
218.6604409646223
 10
809.1174053524513
 20
215.9283901570533
 10
814.5174103524513
 20
206.5753071359274
  0
LWPOLYLINE
  5
13C
330
A0
100
AcDbEntity
  8
新しいレイヤ 1
100
AcDbPolyline
 90
        6
 70
     0
 43
0.0
 10
811.2567423910742
 20
204.6900097718476
 10
810.0372088085066
 20
206.802303898391
 10
801.3769547706622
 20
201.802303898391
 10
800.2519547706622
 20
203.750861056906
 10
796.7118912612012
 20
204.8824309173133
 10
783.8601056154262
 20
197.4624490151576
  0
LWPOLYLINE
  5
13D
330
A0
100
AcDbEntity
  8
新しいレイヤ 1
100
AcDbPolyline
 90
        6
 70
     0
 43
0.0
 10
793.9109977193472
 20
180.1713235093673
 10
806.7118912612011
 20
187.5619228416245
 10
807.501954770662
 20
191.193492702032
 10
806.376954770662
 20
193.1420498605468
 10
815.0372088085065
 20
198.142049860547
 10
814.4567375910742
 20
199.1474555014709
  0
LWPOLYLINE
  5
13E
102
{ACAD_REACTORS
330
B3
102
}
330
A0
100
AcDbEntity
  8
新しいレイヤ 1
100
AcDbPolyline
 90
        2
 70
     0
 43
0.0
 10
848.4010224625243
 20
204.0778982779333
 10
854.3430765951326
 20
207.508544830934
  0
ENDBLK
  5
A2
330
A0
100
AcDbEntity
  8
0
100
AcDbBlockEnd
  0
BLOCK
  5
141
330
140
100
AcDbEntity
  8
0
100
AcDbBlockBegin
  2
用紙 1
 70
     0
 10
0.0
 20
0.0
 30
0.0
  3
用紙 1
  1

  0
ENDBLK
  5
142
330
140
100
AcDbEntity
  8
0
100
AcDbBlockEnd
  0
BLOCK
  5
145
330
144
100
AcDbEntity
  8
0
100
AcDbBlockBegin
  2
レイアウト (部分図 1)
 70
     0
 10
0.0
 20
0.0
 30
0.0
  3
レイアウト (部分図 1)
  1

  0
LINE
  5
147
330
144
100
AcDbEntity
  8
0
  6
Continuous
100
AcDbLine
 10
216.9773192295235
 20
211.726368
 30
0.0
 11
217.9773192295235
 21
212.726368
 31
0.0
  0
LINE
  5
148
330
144
100
AcDbEntity
  8
0
  6
Continuous
100
AcDbLine
 10
231.9773192295235
 20
212.726384
 30
0.0
 11
217.9773192295235
 21
212.726368
 31
0.0
  0
LINE
  5
149
330
144
100
AcDbEntity
  8
0
  6
Continuous
100
AcDbLine
 10
211.6773162295235
 20
182.37769
 30
0.0
 11
215.6773162295235
 21
182.37769
 31
0.0
  0
LINE
  5
14A
330
144
100
AcDbEntity
  8
0
  6
Continuous
100
AcDbLine
 10
211.6773162295235
 20
190.877705
 30
0.0
 11
215.6773162295235
 21
190.877705
 31
0.0
  0
LINE
  5
14B
330
144
100
AcDbEntity
  8
0
  6
Continuous
100
AcDbLine
 10
211.6773162295235
 20
190.877705
 30
0.0
 11
211.6773162295235
 21
182.37769
 31
0.0
  0
LINE
  5
14C
330
144
100
AcDbEntity
  8
0
  6
Continuous
100
AcDbLine
 10
215.6773162295235
 20
191.227696
 30
0.0
 11
215.6773162295235
 21
182.027699
 31
0.0
  0
LINE
  5
14D
330
144
100
AcDbEntity
  8
0
  6
Continuous
100
AcDbLine
 10
216.9773192295235
 20
191.227696
 30
0.0
 11
216.9773192295235
 21
182.027699
 31
0.0
  0
LINE
  5
14E
330
144
100
AcDbEntity
  8
0
  6
Continuous
100
AcDbLine
 10
215.6773162295235
 20
191.227696
 30
0.0
 11
216.9773192295235
 21
191.227696
 31
0.0
  0
LINE
  5
14F
330
144
100
AcDbEntity
  8
0
  6
Continuous
100
AcDbLine
 10
215.6773162295235
 20
182.027699
 30
0.0
 11
216.9773192295235
 21
182.027699
 31
0.0
  0
LINE
  5
150
330
144
100
AcDbEntity
  8
0
  6
Continuous
100
AcDbLine
 10
210.6773162295235
 20
189.87769
 30
0.0
 11
210.6773162295235
 21
183.37769
 31
0.0
  0
LINE
  5
151
330
144
100
AcDbEntity
  8
0
  6
CENTER
 62
     4
100
AcDbLine
 10
219.3165522295235
 20
186.62769
 30
0.0
 11
208.2662132295235
 21
186.627705
 31
0.0
  0
LINE
  5
152
330
144
100
AcDbEntity
  8
0
  6
Continuous
100
AcDbLine
 10
210.6773162295235
 20
189.87769
 30
0.0
 11
211.6773162295235
 21
190.877705
 31
0.0
  0
LINE
  5
153
330
144
100
AcDbEntity
  8
0
  6
Continuous
100
AcDbLine
 10
210.6773162295235
 20
183.37769
 30
0.0
 11
211.6773162295235
 21
182.37769
 31
0.0
  0
LINE
  5
154
330
144
100
AcDbEntity
  8
0
  6
Continuous
100
AcDbLine
 10
176.8726282295235
 20
187.827488
 30
0.0
 11
210.6773162295235
 21
189.007969
 31
0.0
  0
LINE
  5
155
330
144
100
AcDbEntity
  8
0
  6
Continuous
100
AcDbLine
 10
210.7983642295235
 20
183.256642
 30
0.0
 11
166.9773342295235
 21
181.726384
 31
0.0
  0
LINE
  5
156
330
144
100
AcDbEntity
  8
0
  6
Continuous
100
AcDbLine
 10
216.9773192295235
 20
71.72639100000002
 30
0.0
 11
216.9773192295235
 21
211.726368
 31
0.0
  0
LINE
  5
157
330
144
100
AcDbEntity
  8
0
  6
Continuous
100
AcDbLine
 10
211.6773162295235
 20
92.57512300000002
 30
0.0
 11
215.6773162295235
 21
92.57512300000002
 31
0.0
  0
LINE
  5
158
330
144
100
AcDbEntity
  8
0
  6
Continuous
100
AcDbLine
 10
211.6773162295235
 20
101.075131
 30
0.0
 11
215.6773162295235
 21
101.075131
 31
0.0
  0
LINE
  5
159
330
144
100
AcDbEntity
  8
0
  6
Continuous
100
AcDbLine
 10
211.6773162295235
 20
92.57512300000002
 30
0.0
 11
211.6773162295235
 21
101.075131
 31
0.0
  0
LINE
  5
15A
330
144
100
AcDbEntity
  8
0
  6
Continuous
100
AcDbLine
 10
216.9773192295235
 20
92.22512500000002
 30
0.0
 11
216.9773192295235
 21
101.425129
 31
0.0
  0
LINE
  5
15B
330
144
100
AcDbEntity
  8
0
  6
Continuous
100
AcDbLine
 10
215.6773162295235
 20
92.22512500000002
 30
0.0
 11
215.6773162295235
 21
101.425129
 31
0.0
  0
LINE
  5
15C
330
144
100
AcDbEntity
  8
0
  6
Continuous
100
AcDbLine
 10
215.6773162295235
 20
92.22512500000002
 30
0.0
 11
216.9773192295235
 21
92.22512500000002
 31
0.0
  0
LINE
  5
15D
330
144
100
AcDbEntity
  8
0
  6
Continuous
100
AcDbLine
 10
215.6773162295235
 20
101.425129
 30
0.0
 11
216.9773192295235
 21
101.425129
 31
0.0
  0
LINE
  5
15E
330
144
100
AcDbEntity
  8
0
  6
Continuous
100
AcDbLine
 10
210.6773162295235
 20
93.57513100000001
 30
0.0
 11
210.6773162295235
 21
100.075131
 31
0.0
  0
LINE
  5
15F
330
144
100
AcDbEntity
  8
0
  6
CENTER
100
AcDbLine
 10
219.3165522295235
 20
96.82513100000001
 30
0.0
 11
208.2662132295235
 21
96.82512300000002
 31
0.0
  0
LINE
  5
160
330
144
100
AcDbEntity
  8
0
  6
Continuous
100
AcDbLine
 10
210.6773162295235
 20
93.57513100000001
 30
0.0
 11
211.6773162295235
 21
92.57512300000002
 31
0.0
  0
LINE
  5
161
330
144
100
AcDbEntity
  8
0
  6
Continuous
100
AcDbLine
 10
210.6773162295235
 20
100.075131
 30
0.0
 11
211.6773162295235
 21
101.075131
 31
0.0
  0
LINE
  5
162
330
144
100
AcDbEntity
  8
0
  6
Continuous
100
AcDbLine
 10
216.9773192295235
 20
71.72639100000002
 30
0.0
 11
217.9773192295235
 21
70.72639100000002
 31
0.0
  0
LINE
  5
163
330
144
100
AcDbEntity
  8
0
  6
Continuous
100
AcDbLine
 10
231.9773192295235
 20
70.72638400000001
 30
0.0
 11
217.9773192295235
 21
70.72639100000002
 31
0.0
  0
LINE
  5
164
102
{ACAD_REACTORS
330
165
102
}
330
144
100
AcDbEntity
  8
0
  6
Continuous
100
AcDbLine
 10
176.9773342295235
 20
119.010754
 30
0.0
 11
212.1518182295235
 21
119.010754
 31
0.0
  0
LINE
  5
166
330
144
100
AcDbEntity
  8
0
  6
Continuous
100
AcDbLine
 10
176.8726282295235
 20
95.62527900000002
 30
0.0
 11
210.6773162295235
 21
94.44479000000001
 31
0.0
  0
LINE
  5
167
330
144
100
AcDbEntity
  8
0
  6
Continuous
100
AcDbLine
 10
210.7983032295235
 20
100.196125
 30
0.0
 11
166.9773342295235
 21
101.726384
 31
0.0
  0
LINE
  5
168
330
144
100
AcDbEntity
  8
0
  6
Continuous
100
AcDbLine
 10
231.9773192295235
 20
212.726384
 30
0.0
 11
231.9773192295235
 21
70.72638400000001
 31
0.0
  0
LINE
  5
169
330
144
100
AcDbEntity
  8
0
  6
Continuous
100
AcDbLine
 10
166.9773342295235
 20
181.726384
 30
0.0
 11
166.9773342295235
 21
101.726384
 31
0.0
  0
LINE
  5
16A
102
{ACAD_REACTORS
330
165
102
}
330
144
100
AcDbEntity
  8
0
  6
Continuous
100
AcDbLine
 10
173.9773342295235
 20
141.726384
 30
0.0
 11
173.9773342295235
 21
122.0024
 31
0.0
  0
LINE
  5
16B
330
144
100
AcDbEntity
  8
0
  6
Continuous
100
AcDbLine
 10
246.0053952295235
 20
76.49957700000002
 30
0.0
 11
241.3773132295235
 21
76.49957700000002
 31
0.0
  0
LINE
  5
16C
330
144
100
AcDbEntity
  8
0
  6
Continuous
100
AcDbLine
 10
241.3773132295235
 20
76.49957700000002
 30
0.0
 11
240.9773192295235
 21
75.80675900000001
 31
0.0
  0
LINE
  5
16D
330
144
100
AcDbEntity
  8
0
  6
CENTER
 62
     4
100
AcDbLine
 10
239.5546202295235
 20
71.49957700000002
 30
0.0
 11
251.6114132295235
 21
71.49957700000002
 31
0.0
  0
LINE
  5
16E
330
144
100
AcDbEntity
  8
0
  6
Continuous
100
AcDbLine
 10
240.9773192295235
 20
75.80675900000001
 30
0.0
 11
240.9773192295235
 21
69.20715000000001
 31
0.0
  0
LINE
  5
16F
330
144
100
AcDbEntity
  8
0
  6
Continuous
100
AcDbLine
 10
241.3773132295235
 20
69.72010500000002
 30
0.0
 11
241.3773132295235
 21
76.49957700000002
 31
0.0
  0
LINE
  5
170
330
144
100
AcDbEntity
  8
0
  6
Continuous
100
AcDbLine
 10
240.9796852020577
 20
213.547856
 30
0.0
 11
235.3796792020577
 21
213.547856
 31
0.0
  0
LINE
  5
171
330
144
100
AcDbEntity
  8
0
  6
Continuous
100
AcDbLine
 10
235.3796792020577
 20
213.547856
 30
0.0
 11
234.9796852020577
 21
212.855031
 31
0.0
  0
LINE
  5
172
330
144
100
AcDbEntity
  8
0
  6
CENTER
 62
     4
100
AcDbLine
 10
233.25483322952
 20
208.547856
 30
0.0
 11
245.3116262295201
 21
208.547856
 31
0.0
  0
LINE
  5
173
330
144
100
AcDbEntity
  8
0
  6
Continuous
100
AcDbLine
 10
235.3796792020577
 20
203.547856
 30
0.0
 11
240.9796852020577
 21
203.547856
 31
0.0
  0
LINE
  5
174
330
144
100
AcDbEntity
  8
0
  6
Continuous
100
AcDbLine
 10
235.3796792020577
 20
203.547856
 30
0.0
 11
234.9796852020577
 21
204.240681
 31
0.0
  0
LINE
  5
175
330
144
100
AcDbEntity
  8
0
  6
Continuous
100
AcDbLine
 10
240.9796852020577
 20
203.547856
 30
0.0
 11
240.9796852020577
 21
213.547856
 31
0.0
  0
LINE
  5
176
330
144
100
AcDbEntity
  8
0
  6
Continuous
100
AcDbLine
 10
234.9796852020577
 20
212.855031
 30
0.0
 11
234.9796852020577
 21
204.240681
 31
0.0
  0
LINE
  5
177
330
144
100
AcDbEntity
  8
0
  6
Continuous
100
AcDbLine
 10
235.3796792020577
 20
203.547856
 30
0.0
 11
235.3796792020577
 21
213.547856
 31
0.0
  0
LINE
  5
178
330
144
100
AcDbEntity
  8
0
  6
Continuous
100
AcDbLine
 10
237.3263182295235
 20
70.53958600000001
 30
0.0
 11
231.9773192295235
 21
70.72637600000002
 31
0.0
  0
LINE
  5
179
330
144
100
AcDbEntity
  8
0
  6
Continuous
100
AcDbLine
 10
231.9773192295235
 20
212.726384
 30
0.0
 11
231.9773192295235
 21
70.72637600000002
 31
0.0
  0
LINE
  5
17A
330
144
100
AcDbEntity
  8
0
  6
Continuous
100
AcDbLine
 10
637.974622
 20
150.07819
 30
0.0
 11
628.2498290000001
 21
40.22638000000005
 31
0.0
  0
LINE
  5
17B
330
144
100
AcDbEntity
  8
0
  6
Continuous
100
AcDbLine
 10
826.62544
 20
150.078618
 30
0.0
 11
836.3499879999999
 21
40.22638000000005
 31
0.0
  0
LINE
  5
17C
330
144
100
AcDbEntity
  8
0
  6
Continuous
100
AcDbLine
 10
737.3
 20
189.2263840000001
 30
0.0
 11
727.3
 21
189.2263840000001
 31
0.0
  0
LINE
  5
17D
330
144
100
AcDbEntity
  8
0
  6
Continuous
100
AcDbLine
 10
737.3
 20
181.2263840000001
 30
0.0
 11
727.3
 21
181.2263840000001
 31
0.0
  0
LINE
  5
17E
330
144
100
AcDbEntity
  8
0
  6
Continuous
100
AcDbLine
 10
727.3
 20
189.2263840000001
 30
0.0
 11
727.3
 21
181.2263840000001
 31
0.0
  0
LINE
  5
17F
330
144
100
AcDbEntity
  8
0
  6
Continuous
100
AcDbLine
 10
737.3
 20
189.2263840000001
 30
0.0
 11
737.3
 21
181.2263840000001
 31
0.0
  0
LINE
  5
180
330
144
100
AcDbEntity
  8
0
  6
Continuous
100
AcDbLine
 10
749.2421999999999
 20
86.72637600000004
 30
0.0
 11
754.560986
 21
86.72637600000004
 31
0.0
  0
LINE
  5
181
330
144
100
AcDbEntity
  8
0
  6
Continuous
100
AcDbLine
 10
738.741223
 20
86.72637600000004
 30
0.0
 11
743.2910279999999
 21
86.72637600000004
 31
0.0
  0
LINE
  5
182
330
144
100
AcDbEntity
  8
0
  6
Continuous
100
AcDbLine
 10
738.741223
 20
100.727002
 30
0.0
 11
738.741223
 21
86.72637600000004
 31
0.0
  0
LINE
  5
183
330
144
100
AcDbEntity
  8
0
  6
Continuous
100
AcDbLine
 10
750.0570190000001
 20
100.727002
 30
0.0
 11
738.741223
 21
100.727002
 31
0.0
  0
LINE
  5
184
330
144
100
AcDbEntity
  8
0
  6
Continuous
100
AcDbLine
 10
754.560986
 20
86.72637600000004
 30
0.0
 11
752.4619869999999
 21
90.22649800000005
 31
0.0
  0
LINE
  5
185
330
144
100
AcDbEntity
  8
0
  6
Continuous
100
AcDbLine
 10
745.0410279999999
 20
93.72674200000004
 30
0.0
 11
749.2421999999999
 21
86.72637600000004
 31
0.0
  0
LINE
  5
186
330
144
100
AcDbEntity
  8
0
  6
Continuous
100
AcDbLine
 10
745.0410279999999
 20
93.72674200000004
 30
0.0
 11
748.191235
 21
93.72674200000004
 31
0.0
  0
LINE
  5
187
330
144
100
AcDbEntity
  8
0
  6
Continuous
100
AcDbLine
 10
743.2910279999999
 20
95.82684000000005
 30
0.0
 11
743.2910279999999
 21
86.72637600000004
 31
0.0
  0
LINE
  5
188
330
144
100
AcDbEntity
  8
0
  6
Continuous
100
AcDbLine
 10
743.2910279999999
 20
95.82684000000005
 30
0.0
 11
748.191235
 21
95.82684000000005
 31
0.0
  0
LINE
  5
189
330
144
100
AcDbEntity
  8
0
  6
Continuous
100
AcDbLine
 10
729.6400269999999
 20
86.72637600000004
 30
0.0
 11
734.53999
 21
86.72637600000004
 31
0.0
  0
LINE
  5
18A
330
144
100
AcDbEntity
  8
0
  6
Continuous
100
AcDbLine
 10
727.190198
 20
100.727002
 30
0.0
 11
727.190198
 21
95.82684000000005
 31
0.0
  0
LINE
  5
18B
330
144
100
AcDbEntity
  8
0
  6
Continuous
100
AcDbLine
 10
736.991223
 20
100.727002
 30
0.0
 11
736.991223
 21
95.82684000000005
 31
0.0
  0
LINE
  5
18C
330
144
100
AcDbEntity
  8
0
  6
Continuous
100
AcDbLine
 10
727.190198
 20
100.727002
 30
0.0
 11
736.991223
 21
100.727002
 31
0.0
  0
LINE
  5
18D
330
144
100
AcDbEntity
  8
0
  6
Continuous
100
AcDbLine
 10
734.53999
 20
95.82684000000005
 30
0.0
 11
734.53999
 21
86.72637600000004
 31
0.0
  0
LINE
  5
18E
330
144
100
AcDbEntity
  8
0
  6
Continuous
100
AcDbLine
 10
729.6400269999999
 20
95.82684000000005
 30
0.0
 11
729.6400269999999
 21
86.72637600000004
 31
0.0
  0
LINE
  5
18F
330
144
100
AcDbEntity
  8
0
  6
Continuous
100
AcDbLine
 10
734.53999
 20
95.82684000000005
 30
0.0
 11
736.991223
 21
95.82684000000005
 31
0.0
  0
LINE
  5
190
330
144
100
AcDbEntity
  8
0
  6
Continuous
100
AcDbLine
 10
727.190198
 20
95.82684000000005
 30
0.0
 11
729.6400269999999
 21
95.82684000000005
 31
0.0
  0
LINE
  5
191
330
144
100
AcDbEntity
  8
0
  6
Continuous
100
AcDbLine
 10
717.2760129999999
 20
100.727002
 30
0.0
 11
725.440198
 21
100.727002
 31
0.0
  0
LINE
  5
192
330
144
100
AcDbEntity
  8
0
  6
Continuous
100
AcDbLine
 10
725.440198
 20
95.82684000000005
 30
0.0
 11
725.440198
 21
100.727002
 31
0.0
  0
LINE
  5
193
330
144
100
AcDbEntity
  8
0
  6
Continuous
100
AcDbLine
 10
725.440198
 20
93.72674200000004
 30
0.0
 11
725.440198
 21
86.72637600000004
 31
0.0
  0
LINE
  5
194
330
144
100
AcDbEntity
  8
0
  6
Continuous
100
AcDbLine
 10
720.8900269999999
 20
93.72674200000004
 30
0.0
 11
725.440198
 21
93.72674200000004
 31
0.0
  0
LINE
  5
195
330
144
100
AcDbEntity
  8
0
  6
Continuous
100
AcDbLine
 10
711.719006
 20
86.72637600000004
 30
0.0
 11
725.440198
 21
86.72637600000004
 31
0.0
  0
LINE
  5
196
330
144
100
AcDbEntity
  8
0
  6
Continuous
100
AcDbLine
 10
718.3410160000001
 20
95.82684000000005
 30
0.0
 11
725.440198
 21
95.82684000000005
 31
0.0
  0
LINE
  5
197
330
144
100
AcDbEntity
  8
0
  6
Continuous
100
AcDbLine
 10
716.6472289999999
 20
88.12640000000005
 30
0.0
 11
720.8900269999999
 21
88.12640000000005
 31
0.0
  0
LINE
  5
198
330
144
100
AcDbEntity
  8
0
  6
Continuous
100
AcDbLine
 10
720.8900269999999
 20
93.72674200000004
 30
0.0
 11
720.8900269999999
 21
88.12640000000005
 31
0.0
  0
LINE
  5
199
330
144
100
AcDbEntity
  8
0
  6
Continuous
100
AcDbLine
 10
686.195813
 20
52.74926000000004
 30
0.0
 11
687.291211
 21
40.22638000000005
 31
0.0
  0
LINE
  5
19A
330
144
100
AcDbEntity
  8
0
  6
Continuous
100
AcDbLine
 10
778.4041869999999
 20
52.74926000000004
 30
0.0
 11
777.3087889999999
 21
40.22638000000005
 31
0.0
  0
LINE
  5
19B
330
144
100
AcDbEntity
  8
0
  6
Continuous
100
AcDbLine
 10
780.404004
 20
81.08067700000005
 30
0.0
 11
787.2570309999999
 21
62.25238100000004
 31
0.0
  0
LINE
  5
19C
330
144
100
AcDbEntity
  8
0
  6
Continuous
100
AcDbLine
 10
787.2360349999999
 20
88.62440200000005
 30
0.0
 11
796.8629880000001
 21
62.17437800000005
 31
0.0
  0
LINE
  5
19D
330
144
100
AcDbEntity
  8
0
  6
Continuous
100
AcDbLine
 10
784.381421
 20
58.22638000000005
 30
0.0
 11
829.219983
 21
58.22638000000005
 31
0.0
  0
LINE
  5
19E
330
144
100
AcDbEntity
  8
0
  6
DASHED
100
AcDbLine
 10
823.8
 20
58.22638000000005
 30
0.0
 11
823.8
 21
40.22638000000005
 31
0.0
  0
LINE
  5
19F
330
144
100
AcDbEntity
  8
0
  6
DASHED
100
AcDbLine
 10
810.8
 20
58.22638000000005
 30
0.0
 11
810.8
 21
40.22638000000005
 31
0.0
  0
LINE
  5
1A0
330
144
100
AcDbEntity
  8
0
  6
CENTER
 62
     4
100
AcDbLine
 10
817.3
 20
64.88269900000004
 30
0.0
 11
817.3
 21
36.38269900000004
 31
0.0
  0
LINE
  5
1A1
330
144
100
AcDbEntity
  8
0
  6
Continuous
100
AcDbLine
 10
836.3499879999999
 20
40.22638000000005
 30
0.0
 11
777.3087889999999
 21
40.22638000000005
 31
0.0
  0
LINE
  5
1A2
330
144
100
AcDbEntity
  8
0
  6
Continuous
100
AcDbLine
 10
684.195813
 20
81.08055500000005
 30
0.0
 11
677.34303
 21
62.25238100000004
 31
0.0
  0
LINE
  5
1A3
330
144
100
AcDbEntity
  8
0
  6
Continuous
100
AcDbLine
 10
677.364026
 20
88.62440200000005
 30
0.0
 11
667.737012
 21
62.17437800000005
 31
0.0
  0
LINE
  5
1A4
330
144
100
AcDbEntity
  8
0
  6
Continuous
100
AcDbLine
 10
680.218396
 20
58.22638000000005
 30
0.0
 11
635.380017
 21
58.22638000000005
 31
0.0
  0
LINE
  5
1A5
330
144
100
AcDbEntity
  8
0
  6
DASHED
100
AcDbLine
 10
640.8
 20
58.22638000000005
 30
0.0
 11
640.8
 21
40.22638000000005
 31
0.0
  0
LINE
  5
1A6
330
144
100
AcDbEntity
  8
0
  6
DASHED
100
AcDbLine
 10
653.8
 20
58.22638000000005
 30
0.0
 11
653.8
 21
40.22638000000005
 31
0.0
  0
LINE
  5
1A7
330
144
100
AcDbEntity
  8
0
  6
CENTER
 62
     4
100
AcDbLine
 10
647.3
 20
64.63255700000005
 30
0.0
 11
647.3
 21
35.38269900000004
 31
0.0
  0
LINE
  5
1A8
330
144
100
AcDbEntity
  8
0
  6
Continuous
100
AcDbLine
 10
628.2498290000001
 20
40.22638000000005
 30
0.0
 11
687.291211
 21
40.22638000000005
 31
0.0
  0
LINE
  5
1A9
330
144
100
AcDbEntity
  8
0
  6
CENTER
 62
     4
100
AcDbLine
 10
844.5210079999999
 20
141.7263840000001
 30
0.0
 11
609.2160160000001
 21
141.7263840000001
 31
0.0
  0
LINE
  5
1AA
330
144
100
AcDbEntity
  8
0
  6
CENTER
 62
     4
100
AcDbLine
 10
732.3
 20
258.326375
 30
0.0
 11
732.3
 21
26.17138000000005
 31
0.0
  0
LINE
  5
1AB
330
144
100
AcDbEntity
  8
0
  6
CENTER
100
AcDbLine
 10
771.8
 20
170.2263840000001
 30
0.0
 11
689.094983
 21
170.2263840000001
 31
0.0
  0
LINE
  5
1AC
330
144
100
AcDbEntity
  8
0
  6
Continuous
100
AcDbLine
 10
249.8988272295235
 20
238.119618
 30
0.0
 11
253.9773192295235
 21
238.226368
 31
0.0
  0
LINE
  5
1AD
330
144
100
AcDbEntity
  8
0
  6
Continuous
100
AcDbLine
 10
250.3287292295235
 20
85.04887800000002
 30
0.0
 11
248.3499082295235
 21
85.04887800000002
 31
0.0
  0
LINE
  5
1AE
330
144
100
AcDbEntity
  8
0
  6
DASHED
100
AcDbLine
 10
348.4775322295234
 20
58.44447800000002
 30
0.0
 11
348.4775322295234
 21
40.22638000000002
 31
0.0
  0
LINE
  5
1AF
330
144
100
AcDbEntity
  8
0
  6
DASHED
100
AcDbLine
 10
335.4775322295234
 20
58.67125700000002
 30
0.0
 11
335.4775322295234
 21
40.22638000000002
 31
0.0
  0
LINE
  5
1B0
330
144
100
AcDbEntity
  8
0
  6
DASHED
100
AcDbLine
 10
218.4775632295235
 20
58.67147900000002
 30
0.0
 11
218.4775632295235
 21
40.22638000000002
 31
0.0
  0
LINE
  5
1B1
330
144
100
AcDbEntity
  8
0
  6
DASHED
100
AcDbLine
 10
205.4775022295235
 20
58.44455800000001
 30
0.0
 11
205.4775022295235
 21
40.22638000000002
 31
0.0
  0
LINE
  5
1B2
330
144
100
AcDbEntity
  8
0
  6
Continuous
100
AcDbLine
 10
411.9775322295234
 20
186.226384
 30
0.0
 11
411.9775322295234
 21
154.226384
 31
0.0
  0
LINE
  5
1B3
330
144
100
AcDbEntity
  8
0
  6
Continuous
100
AcDbLine
 10
353.9773192295234
 20
153.226384
 30
0.0
 11
356.9775322295234
 21
153.226384
 31
0.0
  0
LINE
  5
1B4
330
144
100
AcDbEntity
  8
0
  6
Continuous
100
AcDbLine
 10
353.9773192295234
 20
187.226384
 30
0.0
 11
356.9775322295234
 21
187.226384
 31
0.0
  0
LINE
  5
1B5
330
144
100
AcDbEntity
  8
0
  6
Continuous
100
AcDbLine
 10
356.9775322295234
 20
187.226384
 30
0.0
 11
356.9775322295234
 21
153.226384
 31
0.0
  0
LINE
  5
1B6
330
144
100
AcDbEntity
  8
0
  6
CENTER
 62
     4
100
AcDbLine
 10
287.7273192295235
 20
170.226384
 30
0.0
 11
427.4773192295234
 21
170.226384
 31
0.0
  0
LINE
  5
1B7
330
144
100
AcDbEntity
  8
0
  6
Continuous
100
AcDbLine
 10
353.9775322295234
 20
200.726384
 30
0.0
 11
353.9773192295234
 21
139.726384
 31
0.0
  0
LINE
  5
1B8
330
144
100
AcDbEntity
  8
0
  6
CENTER
 62
     4
100
AcDbLine
 10
147.1423122295235
 20
141.726384
 30
0.0
 11
315.9773192295235
 21
141.726384
 31
0.0
  0
LINE
  5
1B9
330
144
100
AcDbEntity
  8
0
  6
Continuous
100
AcDbLine
 10
255.9775322295235
 20
143.486363
 30
0.0
 11
255.9773192295235
 21
112.50858
 31
0.0
  0
LINE
  5
1BA
330
144
100
AcDbEntity
  8
0
  6
CENTER
 62
     4
100
AcDbLine
 10
341.9775322295234
 20
65.72638000000002
 30
0.0
 11
341.9775322295234
 21
32.97638000000002
 31
0.0
  0
LINE
  5
1BB
330
144
100
AcDbEntity
  8
0
  6
CENTER
 62
     4
100
AcDbLine
 10
211.9775022295235
 20
60.83387800000002
 30
0.0
 11
211.9775022295235
 21
32.97638000000002
 31
0.0
  0
LINE
  5
1BC
330
144
100
AcDbEntity
  8
0
  6
Continuous
100
AcDbLine
 10
199.9563232295235
 20
58.34819800000002
 30
0.0
 11
228.0471432295235
 21
58.83852100000001
 31
0.0
  0
LINE
  5
1BD
330
144
100
AcDbEntity
  8
0
  6
Continuous
100
AcDbLine
 10
353.9987122295234
 20
58.34816000000001
 30
0.0
 11
324.4207092295235
 21
58.86414000000002
 31
0.0
  0
LINE
  5
1BE
330
144
100
AcDbEntity
  8
0
  6
Continuous
100
AcDbLine
 10
360.9775322295234
 20
40.22638000000002
 30
0.0
 11
359.8711182295236
 21
52.87207800000002
 31
0.0
  0
LINE
  5
1BF
330
144
100
AcDbEntity
  8
0
  6
Continuous
100
AcDbLine
 10
192.9775022295235
 20
40.22638000000002
 30
0.0
 11
194.0838712295235
 21
52.87204000000002
 31
0.0
  0
LINE
  5
1C0
330
144
100
AcDbEntity
  8
0
  6
Continuous
100
AcDbLine
 10
192.9775022295235
 20
40.22638000000002
 30
0.0
 11
360.9775322295234
 21
40.22638000000002
 31
0.0
  0
ARC
  5
1C1
330
144
100
AcDbEntity
  8
0
  6
Continuous
100
AcDbCircle
 10
176.9773342295235
 20
184.829319
 30
0.0
 40
3.0
100
AcDbArc
 50
91.99999999999997
 51
179.631561
  0
ARC
  5
1C2
330
144
100
AcDbEntity
  8
0
  6
Continuous
100
AcDbCircle
 10
170.9774562295235
 20
184.867894
 30
0.0
 40
3.0
100
AcDbArc
 50
272.0000000000001
 51
359.631561
  0
ARC
  5
1C3
330
144
100
AcDbEntity
  8
0
  6
Continuous
100
AcDbCircle
 10
211.9773192295235
 20
194.056416
 30
0.0
 40
5.0
100
AcDbArc
 50
325.5460209999999
 51
0.0
  0
ARC
  5
1C4
330
144
100
AcDbEntity
  8
0
  6
Continuous
100
AcDbCircle
 10
211.9773192295235
 20
89.39634400000001
 30
0.0
 40
5.0
100
AcDbArc
 50
0.0
 51
34.454773
  0
ARC
  5
1C5
102
{ACAD_REACTORS
330
165
102
}
330
144
100
AcDbEntity
  8
0
  6
Continuous
100
AcDbCircle
 10
176.9773342295235
 20
122.010754
 30
0.0
 40
3.0
100
AcDbArc
 50
180.0
 51
270.0
  0
ARC
  5
1C6
330
144
100
AcDbEntity
  8
0
  6
Continuous
100
AcDbCircle
 10
176.9773342295235
 20
98.62344800000001
 30
0.0
 40
3.0
100
AcDbArc
 50
180.368439
 51
267.9999999999999
  0
ARC
  5
1C7
330
144
100
AcDbEntity
  8
0
  6
Continuous
100
AcDbCircle
 10
170.9774562295235
 20
98.58486600000002
 30
0.0
 40
3.0
100
AcDbArc
 50
0.368437
 51
88.0
  0
ARC
  5
1C8
330
144
100
AcDbEntity
  8
0
  6
Continuous
100
AcDbCircle
 10
249.9773192295235
 20
235.12064
 30
0.0
 40
3.0
100
AcDbArc
 50
91.49948899999998
 51
180.0
  0
ARC
  5
1C9
330
144
100
AcDbEntity
  8
0
  6
Continuous
100
AcDbCircle
 10
236.9773192295235
 20
60.54568100000002
 30
0.0
 40
10.0
100
AcDbArc
 50
66.421822
 51
88.0
  0
ARC
  5
1CA
330
144
100
AcDbEntity
  8
0
  6
Continuous
100
AcDbCircle
 10
732.3
 20
170.2263840000001
 30
0.0
 40
16.0
100
AcDbArc
 50
108.210007
 51
71.78999300000001
  0
ARC
  5
1CB
330
144
100
AcDbEntity
  8
0
  6
Continuous
100
AcDbCircle
 10
776.484021
 20
41.27488000000005
 30
0.0
 40
1.0
100
AcDbArc
 50
19.085211
 51
79.77983099999999
  0
ARC
  5
1CC
330
144
100
AcDbEntity
  8
0
  6
Continuous
100
AcDbCircle
 10
688.115186
 20
41.27465900000004
 30
0.0
 40
1.0
100
AcDbArc
 50
100.2202
 51
160.7677
  0
ARC
  5
1CD
330
144
100
AcDbEntity
  8
0
  6
Continuous
100
AcDbCircle
 10
732.3
 20
-203.7736159999999
 30
0.0
 40
250.0
100
AcDbArc
 50
79.778877
 51
100.2211
  0
ARC
  5
1CE
330
144
100
AcDbEntity
  8
0
  6
Continuous
100
AcDbCircle
 10
750.0570190000001
 20
97.92699900000005
 30
0.0
 40
2.800154
100
AcDbArc
 50
59.133099
 51
90.0
  0
ARC
  5
1CF
330
144
100
AcDbEntity
  8
0
  6
Continuous
100
AcDbCircle
 10
748.261182
 20
94.92253500000004
 30
0.0
 40
6.30035
100
AcDbArc
 50
311.810425
 51
59.132992
  0
ARC
  5
1D0
330
144
100
AcDbEntity
  8
0
  6
Continuous
100
AcDbCircle
 10
748.191235
 20
94.77679900000004
 30
0.0
 40
1.050058
100
AcDbArc
 50
270.0
 51
90.0
  0
ARC
  5
1D1
330
144
100
AcDbEntity
  8
0
  6
Continuous
100
AcDbCircle
 10
718.3410160000001
 20
93.02667700000005
 30
0.0
 40
2.800154
100
AcDbArc
 50
90.0
 51
135.546204
  0
ARC
  5
1D2
330
144
100
AcDbEntity
  8
0
  6
Continuous
100
AcDbCircle
 10
717.2760129999999
 20
96.52679900000004
 30
0.0
 40
4.200232
100
AcDbArc
 50
90.0
 51
112.352699
  0
ARC
  5
1D3
330
144
100
AcDbEntity
  8
0
  6
Continuous
100
AcDbCircle
 10
716.6472289999999
 20
88.82648100000004
 30
0.0
 40
0.700038
100
AcDbArc
 50
220.530197
 51
270.0
  0
ARC
  5
1D4
330
144
100
AcDbEntity
  8
0
  6
Continuous
100
AcDbCircle
 10
719.8400389999999
 20
91.55583600000004
 30
0.0
 40
4.90027
100
AcDbArc
 50
135.546097
 51
220.529007
  0
ARC
  5
1D5
330
144
100
AcDbEntity
  8
0
  6
Continuous
100
AcDbCircle
 10
719.1400269999999
 20
91.99481600000004
 30
0.0
 40
9.100504
100
AcDbArc
 50
112.352501
 51
215.374496
  0
ARC
  5
1D6
330
144
100
AcDbEntity
  8
0
  6
Continuous
100
AcDbCircle
 10
684.592236
 20
64.62698000000005
 30
0.0
 40
6.0
100
AcDbArc
 50
74.71732299999998
 51
160.000595
  0
ARC
  5
1D7
330
144
100
AcDbEntity
  8
0
  6
Continuous
100
AcDbCircle
 10
665.548779
 20
73.70428100000005
 30
0.0
 40
6.0
100
AcDbArc
 50
340.000427
 51
48.686741
  0
ARC
  5
1D8
330
144
100
AcDbEntity
  8
0
  6
Continuous
100
AcDbCircle
 10
689.314832
 20
100.744259
 30
0.0
 40
30.0
100
AcDbArc
 50
203.570694
 51
228.687103
  0
ARC
  5
1D9
330
144
100
AcDbEntity
  8
0
  6
Continuous
100
AcDbCircle
 10
826.8
 20
160.7263840000001
 30
0.0
 40
180.0
100
AcDbArc
 50
184.616394
 51
203.570908
  0
ARC
  5
1DA
330
144
100
AcDbEntity
  8
0
  6
Continuous
100
AcDbCircle
 10
780.0078249999999
 20
64.62698000000005
 30
0.0
 40
6.0
100
AcDbArc
 50
19.999399
 51
105.2827
  0
ARC
  5
1DB
330
144
100
AcDbEntity
  8
0
  6
Continuous
100
AcDbCircle
 10
799.0512209999999
 20
73.70428100000005
 30
0.0
 40
6.0
100
AcDbArc
 50
131.313293
 51
199.999603
  0
ARC
  5
1DC
330
144
100
AcDbEntity
  8
0
  6
Continuous
100
AcDbCircle
 10
775.284985
 20
100.744259
 30
0.0
 40
30.0
100
AcDbArc
 50
311.312927
 51
336.429321
  0
ARC
  5
1DD
330
144
100
AcDbEntity
  8
0
  6
Continuous
100
AcDbCircle
 10
637.8
 20
160.7263840000001
 30
0.0
 40
180.0
100
AcDbArc
 50
336.429138
 51
355.383606
  0
ARC
  5
1DE
330
144
100
AcDbEntity
  8
0
  6
Continuous
100
AcDbCircle
 10
680.218396
 20
52.22638000000005
 30
0.0
 40
6.0
100
AcDbArc
 50
5.00031
 51
90.0
  0
ARC
  5
1DF
330
144
100
AcDbEntity
  8
0
  6
Continuous
100
AcDbCircle
 10
784.3816039999999
 20
52.22638000000005
 30
0.0
 40
6.0
100
AcDbArc
 50
90.0
 51
175.000107
  0
ARC
  5
1E0
330
144
100
AcDbEntity
  8
0
  6
Continuous
100
AcDbCircle
 10
765.6850099999999
 20
108.419621
 30
0.0
 40
27.76
100
AcDbArc
 50
290.003387
 51
292.759247
  0
ARC
  5
1E1
330
144
100
AcDbEntity
  8
0
  6
Continuous
100
AcDbCircle
 10
777.585034
 20
80.05456200000005
 30
0.0
 40
3.0
100
AcDbArc
 50
19.999371
 51
112.759399
  0
ARC
  5
1E2
330
144
100
AcDbEntity
  8
0
  6
Continuous
100
AcDbCircle
 10
790.0550049999999
 20
89.65045600000005
 30
0.0
 40
3.0
100
AcDbArc
 50
142.3974
 51
199.999298
  0
ARC
  5
1E3
330
144
100
AcDbEntity
  8
0
  6
Continuous
100
AcDbCircle
 10
765.6850099999999
 20
108.419621
 30
0.0
 40
27.76
100
AcDbArc
 50
322.397522
 51
327.259003
  0
ARC
  5
1E4
330
144
100
AcDbEntity
  8
0
  6
Continuous
100
AcDbCircle
 10
698.9148069999999
 20
108.419621
 30
0.0
 40
27.76
100
AcDbArc
 50
247.240799
 51
249.996597
  0
ARC
  5
1E5
330
144
100
AcDbEntity
  8
0
  6
Continuous
100
AcDbCircle
 10
687.0147830000001
 20
80.05456200000005
 30
0.0
 40
3.0
100
AcDbArc
 50
67.240631
 51
160.000595
  0
ARC
  5
1E6
330
144
100
AcDbEntity
  8
0
  6
Continuous
100
AcDbCircle
 10
674.544629
 20
89.65045600000005
 30
0.0
 40
3.0
100
AcDbArc
 50
340.000732
 51
37.60263100000001
  0
ARC
  5
1E7
330
144
100
AcDbEntity
  8
0
  6
Continuous
100
AcDbCircle
 10
698.9148069999999
 20
108.419621
 30
0.0
 40
27.76
100
AcDbArc
 50
212.740997
 51
217.602493
  0
ARC
  5
1E8
330
144
100
AcDbEntity
  8
0
  6
Continuous
100
AcDbCircle
 10
829.219983
 20
52.22649800000004
 30
0.0
 40
6.0
100
AcDbArc
 50
5.032944000000001
 51
90.0
  0
ARC
  5
1E9
330
144
100
AcDbEntity
  8
0
  6
Continuous
100
AcDbCircle
 10
732.3
 20
88.22637600000004
 30
0.0
 40
143.0
100
AcDbArc
 50
70.4897
 51
90.0
  0
ARC
  5
1EA
330
144
100
AcDbEntity
  8
0
  6
Continuous
100
AcDbCircle
 10
652.3
 20
134.7263840000001
 30
0.0
 40
175.0
100
AcDbArc
 50
5.032852000000001
 51
20.960449
  0
ARC
  5
1EB
330
144
100
AcDbEntity
  8
0
  6
Continuous
100
AcDbCircle
 10
732.3001830000001
 20
88.22637600000004
 30
0.0
 40
150.0
100
AcDbArc
 50
70.27729799999999
 51
90.0
  0
ARC
  5
1EC
330
144
100
AcDbEntity
  8
0
  6
Continuous
100
AcDbCircle
 10
784.438001
 20
61.22649800000004
 30
0.0
 40
3.0
100
AcDbArc
 50
270.0
 51
19.999399
  0
ARC
  5
1ED
330
144
100
AcDbEntity
  8
0
  6
Continuous
100
AcDbCircle
 10
802.5009889999999
 20
64.22649800000005
 30
0.0
 40
6.0
100
AcDbArc
 50
199.999802
 51
270.0
  0
ARC
  5
1EE
330
144
100
AcDbEntity
  8
0
  6
Continuous
100
AcDbCircle
 10
732.3
 20
239.2263840000001
 30
0.0
 40
175.0
100
AcDbArc
 50
270.0
 51
285.282715
  0
ARC
  5
1EF
330
144
100
AcDbEntity
  8
0
  6
Continuous
100
AcDbCircle
 10
635.380017
 20
52.22649800000004
 30
0.0
 40
6.0
100
AcDbArc
 50
90.0
 51
174.967102
  0
ARC
  5
1F0
330
144
100
AcDbEntity
  8
0
  6
Continuous
100
AcDbCircle
 10
767.3
 20
150.7263840000001
 30
0.0
 40
120.0
100
AcDbArc
 50
157.936905
 51
182.1427
  0
ARC
  5
1F1
330
144
100
AcDbEntity
  8
0
  6
Continuous
100
AcDbCircle
 10
732.3
 20
88.22637600000004
 30
0.0
 40
143.0
100
AcDbArc
 50
90.0
 51
109.5103
  0
ARC
  5
1F2
330
144
100
AcDbEntity
  8
0
  6
Continuous
100
AcDbCircle
 10
812.3
 20
134.7263840000001
 30
0.0
 40
175.0
100
AcDbArc
 50
159.039597
 51
174.967102
  0
ARC
  5
1F3
330
144
100
AcDbEntity
  8
0
  6
Continuous
100
AcDbCircle
 10
732.2998170000001
 20
88.22637600000004
 30
0.0
 40
150.0
100
AcDbArc
 50
90.0
 51
109.722702
  0
ARC
  5
1F4
330
144
100
AcDbEntity
  8
0
  6
Continuous
100
AcDbCircle
 10
680.1616329999999
 20
61.22649800000004
 30
0.0
 40
3.0
100
AcDbArc
 50
160.000595
 51
270.0
  0
ARC
  5
1F5
330
144
100
AcDbEntity
  8
0
  6
Continuous
100
AcDbCircle
 10
662.099011
 20
64.22649800000005
 30
0.0
 40
6.0
100
AcDbArc
 50
270.0
 51
339.999603
  0
ARC
  5
1F6
330
144
100
AcDbEntity
  8
0
  6
Continuous
100
AcDbCircle
 10
732.3
 20
239.2263840000001
 30
0.0
 40
175.0
100
AcDbArc
 50
254.717499
 51
270.0
  0
ARC
  5
1F7
330
144
100
AcDbEntity
  8
0
  6
Continuous
100
AcDbCircle
 10
319.1481262295235
 20
137.689488
 30
0.0
 40
50.0
100
AcDbArc
 50
267.920807
 51
290.922302
  0
ARC
  5
1F8
330
144
100
AcDbEntity
  8
0
  6
Continuous
100
AcDbCircle
 10
325.4683162295235
 20
88.90871900000002
 30
0.0
 40
25.0
100
AcDbArc
 50
321.575806
 51
356.7268069999999
  0
ARC
  5
1F9
330
144
100
AcDbEntity
  8
0
  6
Continuous
100
AcDbCircle
 10
459.3477112295234
 20
109.936062
 30
0.0
 40
120.0
100
AcDbArc
 50
189.453506
 51
205.433304
  0
ARC
  5
1FA
330
144
100
AcDbEntity
  8
0
  6
Continuous
100
AcDbCircle
 10
324.5603272295235
 20
66.86311800000001
 30
0.0
 40
8.0
100
AcDbArc
 50
199.111694
 51
269.0006100000001
  0
ARC
  5
1FB
330
144
100
AcDbEntity
  8
0
  6
Continuous
100
AcDbCircle
 10
253.9771052295235
 20
-531.773601
 30
0.0
 40
770.0
100
AcDbArc
 50
84.173958
 51
89.999893
  0
ARC
  5
1FC
330
144
100
AcDbEntity
  8
0
  6
Continuous
100
AcDbCircle
 10
350.4775322295234
 20
139.726384
 30
0.0
 40
3.5
100
AcDbArc
 50
295.122986
 51
0.0
  0
ARC
  5
1FD
330
144
100
AcDbEntity
  8
0
  6
Continuous
100
AcDbCircle
 10
227.9074942295235
 20
66.83731900000001
 30
0.0
 40
8.0
100
AcDbArc
 50
271.000092
 51
312.554688
  0
ARC
  5
1FE
330
144
100
AcDbEntity
  8
0
  6
Continuous
100
AcDbCircle
 10
185.9775022295235
 20
112.508656
 30
0.0
 40
70.0
100
AcDbArc
 50
312.554901
 51
359.999908
  0
ARC
  5
1FF
330
144
100
AcDbEntity
  8
0
  6
Continuous
100
AcDbCircle
 10
245.9775322295235
 20
143.486363
 30
0.0
 40
10.0
100
AcDbArc
 50
0.0
 51
36.871052
  0
ARC
  5
200
330
144
100
AcDbEntity
  8
0
  6
Continuous
100
AcDbCircle
 10
353.8939142295235
 20
52.34909900000002
 30
0.0
 40
6.0
100
AcDbArc
 50
5.000614
 51
89.00026699999998
  0
ARC
  5
201
330
144
100
AcDbEntity
  8
0
  6
Continuous
100
AcDbCircle
 10
200.0609372295235
 20
52.34909900000002
 30
0.0
 40
6.0
100
AcDbArc
 50
91.000008
 51
174.999893
  0
LINE
  5
202
102
{ACAD_REACTORS
330
203
102
}
330
144
100
AcDbEntity
  8
0
  6
Continuous
100
AcDbLine
 10
173.9773342295235
 20
141.726384
 30
0.0
 11
173.9773342295235
 21
161.450368
 31
0.0
  0
ARC
  5
204
102
{ACAD_REACTORS
330
203
102
}
330
144
100
AcDbEntity
  8
0
  6
Continuous
100
AcDbCircle
 10
176.9773342295235
 20
161.442014
 30
0.0
 40
3.0
100
AcDbArc
 50
90.0
 51
180.0
  0
LINE
  5
205
102
{ACAD_REACTORS
330
203
102
}
330
144
100
AcDbEntity
  8
0
  6
Continuous
100
AcDbLine
 10
176.9773342295235
 20
164.442014
 30
0.0
 11
212.1518182295235
 21
164.442014
 31
0.0
  0
LINE
  5
206
330
144
100
AcDbEntity
  8
0
  6
Continuous
100
AcDbLine
 10
253.9775322295235
 20
238.226384
 30
0.0
 11
253.9775171781482
 21
233.2093155447217
 31
0.0
  0
LINE
  5
207
330
144
100
AcDbEntity
  8
0
  6
Continuous
100
AcDbLine
 10
246.9773192295235
 20
235.12064
 30
0.0
 11
246.9773192295235
 21
233.2093155447217
 31
0.0
  0
LINE
  5
208
330
144
100
AcDbEntity
  8
0
  6
Continuous
100
AcDbLine
 10
246.9773192295235
 20
201.2575356272106
 30
0.0
 11
246.9773192295235
 21
78.20892
 31
0.0
  0
LINE
  5
209
330
144
100
AcDbEntity
  8
0
  6
Continuous
100
AcDbLine
 10
253.9774257017062
 20
202.7175125709735
 30
0.0
 11
253.9771052295235
 21
95.89465800000002
 31
0.0
  0
ARC
  5
20A
330
144
100
AcDbEntity
  8
0
  6
Continuous
100
AcDbCircle
 10
505.9775022295235
 20
129.726376
 30
0.0
 40
200.0
100
AcDbArc
 50
158.5949741152959
 51
199.111801
  0
ARC
  5
20B
330
144
100
AcDbEntity
  8
0
  6
Continuous
100
AcDbCircle
 10
350.4775322295234
 20
200.726384
 30
0.0
 40
3.5
100
AcDbArc
 50
0.0
 51
34.68979002436318
  0
ARC
  5
20C
330
144
100
AcDbEntity
  8
0
  6
Continuous
100
AcDbCircle
 10
331.9345332295234
 20
232.259572
 30
0.0
 40
2.0
100
AcDbArc
 50
28.35100146878917
 51
84.1742709999997
  0
ARC
  5
20D
330
144
100
AcDbEntity
  8
0
  6
Continuous
100
AcDbCircle
 10
-598.0224977704765
 20
141.726384
 30
0.0
 40
950.0
100
AcDbArc
 50
356.7266240000001
 51
3.681037665698049
  0
ARC
  5
20E
330
144
100
AcDbEntity
  8
0
  6
Continuous
100
AcDbCircle
 10
236.9773192295235
 20
222.907078
 30
0.0
 40
10.0
100
AcDbArc
 50
290.622352887927
 51
293.5929701465248
  0
LINE
  5
20F
330
144
100
AcDbEntity
  8
0
  6
Continuous
100
AcDbLine
 10
234.9796852020577
 20
212.8312237879831
 30
0.0
 11
231.9773192295235
 21
212.726384
 31
0.0
  0
LINE
  5
210
330
144
100
AcDbEntity
  8
0
  6
Continuous
100
AcDbLine
 10
379.4588918219496
 20
175.226384
 30
0.0
 11
411.9775322295234
 21
175.226384
 31
0.0
  0
LINE
  5
211
330
144
100
AcDbEntity
  8
0
  6
Continuous
100
AcDbLine
 10
379.4588918219496
 20
165.226384
 30
0.0
 11
411.9775322295234
 21
165.226384
 31
0.0
  0
LINE
  5
212
330
144
100
AcDbEntity
  8
0
  6
Continuous
100
AcDbLine
 10
379.4588918219496
 20
186.226384
 30
0.0
 11
411.9775322295234
 21
186.226384
 31
0.0
  0
LINE
  5
213
330
144
100
AcDbEntity
  8
0
  6
Continuous
100
AcDbLine
 10
356.9775322295234
 20
186.226384
 30
0.0
 11
359.4588918219496
 21
186.226384
 31
0.0
  0
LINE
  5
214
330
144
100
AcDbEntity
  8
0
  6
Continuous
100
AcDbLine
 10
356.9775322295234
 20
154.226353
 30
0.0
 11
359.4588918219496
 21
154.2263543985845
 31
0.0
  0
LINE
  5
215
330
144
100
AcDbEntity
  8
0
  6
Continuous
100
AcDbLine
 10
379.4588918219496
 20
154.2263656713118
 30
0.0
 11
411.9775322295234
 21
154.226384
 31
0.0
  0
ARC
  5
216
330
144
100
AcDbEntity
  8
0
  6
Continuous
100
AcDbCircle
 10
732.3
 20
170.2263840000001
 30
0.0
 40
34.0
100
AcDbArc
 50
167.1046351766439
 51
13.03357302150597
  0
ARC
  5
217
330
144
100
AcDbEntity
  8
0
  6
Continuous
100
AcDbCircle
 10
732.3
 20
170.2263840000001
 30
0.0
 40
34.0
100
AcDbArc
 50
47.24294604316862
 51
132.895364823356
  0
ARC
  5
218
330
144
100
AcDbEntity
  8
0
  6
Continuous
100
AcDbCircle
 10
700.240796
 20
177.6534920000001
 30
0.0
 40
55.0
100
AcDbArc
 50
156.8973911430602
 51
159.039795
  0
ARC
  5
219
330
144
100
AcDbEntity
  8
0
  6
Continuous
100
AcDbCircle
 10
700.240796
 20
177.6534920000001
 30
0.0
 40
55.0
100
AcDbArc
 50
109.7228999999999
 51
122.958294581684
  0
ARC
  5
21A
330
144
100
AcDbEntity
  8
0
  6
Continuous
100
AcDbCircle
 10
700.240796
 20
177.6534920000001
 30
0.0
 40
55.0
100
AcDbArc
 50
130.6397494177526
 51
131.5914637646303
  0
ARC
  5
21B
330
144
100
AcDbEntity
  8
0
  6
Continuous
100
AcDbCircle
 10
700.5725829999999
 20
177.771656
 30
0.0
 40
48.0
100
AcDbArc
 50
109.510597
 51
118.9789872143092
  0
ARC
  5
21C
330
144
100
AcDbEntity
  8
0
  6
Continuous
100
AcDbCircle
 10
764.0269900000001
 20
177.771656
 30
0.0
 40
48.0
100
AcDbArc
 50
61.06827452599212
 51
70.48943299999998
  0
ARC
  5
21D
330
144
100
AcDbEntity
  8
0
  6
Continuous
100
AcDbCircle
 10
764.359021
 20
177.6534920000001
 30
0.0
 40
55.0
100
AcDbArc
 50
20.960171
 51
23.05331556257986
  0
ARC
  5
21E
330
144
100
AcDbEntity
  8
0
  6
Continuous
100
AcDbCircle
 10
764.359021
 20
177.6534920000001
 30
0.0
 40
55.0
100
AcDbArc
 50
48.0697885290477
 51
49.71606140516974
  0
ARC
  5
21F
330
144
100
AcDbEntity
  8
0
  6
Continuous
100
AcDbCircle
 10
764.359021
 20
177.6534920000001
 30
0.0
 40
55.0
100
AcDbArc
 50
57.08153143336597
 51
70.27704599999994
  0
ARC
  5
220
330
144
100
AcDbEntity
  8
0
  6
Continuous
100
AcDbCircle
 10
700.5725829999999
 20
177.771656
 30
0.0
 40
48.0
100
AcDbArc
 50
152.1050009828541
 51
157.937103
  0
ARC
  5
221
330
144
100
AcDbEntity
  8
0
  6
Continuous
100
AcDbCircle
 10
697.3
 20
150.7263840000001
 30
0.0
 40
120.0
100
AcDbArc
 50
357.857056
 51
21.77332619993596
  0
LINE
  5
222
330
144
100
AcDbEntity
  8
AM_7
100
AcDbLine
 10
87.80728765435684
 20
250.2594474563184
 30
0.0
 11
87.80728765435684
 21
260.4894474563184
 31
0.0
  0
LINE
  5
223
330
144
100
AcDbEntity
  8
AM_7
100
AcDbLine
 10
83.66728765435683
 20
250.2594474563184
 30
0.0
 11
83.66728765435683
 21
260.4894474563184
 31
0.0
  0
LINE
  5
224
330
144
100
AcDbEntity
  8
AM_7
100
AcDbLine
 10
79.52728765435683
 20
250.2594474563184
 30
0.0
 11
79.52728765435683
 21
260.4894474563184
 31
0.0
  0
LINE
  5
225
330
144
100
AcDbEntity
  8
AM_0
100
AcDbLine
 10
73.33268765435683
 20
255.2244474563184
 30
0.0
 11
74.33268765435683
 21
255.7244474563184
 31
0.0
  0
LINE
  5
226
330
144
100
AcDbEntity
  8
AM_0
100
AcDbLine
 10
75.33268765435683
 20
255.7244474563184
 30
0.0
 11
76.08268765435683
 21
254.4744474563184
 31
0.0
  0
LINE
  5
227
330
144
100
AcDbEntity
  8
AM_0
100
AcDbLine
 10
76.08268765435683
 20
254.4744474563184
 30
0.0
 11
76.08268765435683
 21
253.7244474563184
 31
0.0
  0
LINE
  5
228
330
144
100
AcDbEntity
  8
AM_0
100
AcDbLine
 10
76.08268765435683
 20
253.7244474563184
 30
0.0
 11
73.33268765435683
 21
253.7244474563184
 31
0.0
  0
LINE
  5
229
330
144
100
AcDbEntity
  8
AM_0
100
AcDbLine
 10
74.33268765435683
 20
255.7244474563184
 30
0.0
 11
75.33268765435683
 21
255.7244474563184
 31
0.0
  0
LINE
  5
22A
330
144
100
AcDbEntity
  8
AM_0
100
AcDbLine
 10
75.08268765435683
 20
249.7394872483651
 30
0.0
 11
75.08268765435683
 21
253.7244474563184
 31
0.0
  0
LINE
  5
22B
330
144
100
AcDbEntity
  8
AM_0
100
AcDbLine
 10
76.31642532897578
 20
250.7244474563184
 30
0.0
 11
90.66728765435684
 21
250.7244474563184
 31
0.0
  0
LINE
  5
22C
330
144
100
AcDbEntity
  8
AM_0
100
AcDbLine
 10
72.66728765435684
 20
242.7244474563184
 30
0.0
 11
72.66728765435684
 21
243.7244474563184
 31
0.0
  0
ARC
  5
22D
330
144
100
AcDbEntity
  8
AM_0
100
AcDbCircle
 10
75.54318765435684
 20
247.4744474563184
 30
0.0
 40
0.7500000000000284
100
AcDbArc
 50
90.0
 51
162.0559656042445
  0
ARC
  5
22E
330
144
100
AcDbEntity
  8
AM_0
100
AcDbCircle
 10
75.66728765435687
 20
247.4744474563185
 30
0.0
 40
0.7499999999999574
100
AcDbArc
 50
0.0000000000032569
 51
90.00000000000217
  0
LINE
  5
22F
330
144
100
AcDbEntity
  8
AM_0
100
AcDbLine
 10
76.66728765435683
 20
247.4744474563184
 30
0.0
 11
76.41728765435683
 21
247.4744474563184
 31
0.0
  0
LINE
  5
230
330
144
100
AcDbEntity
  8
AM_0
100
AcDbLine
 10
73.33268765435683
 20
245.1445364239507
 30
0.0
 11
73.33268765435683
 21
255.2244474563184
 31
0.0
  0
LINE
  5
231
330
144
100
AcDbEntity
  8
AM_0
100
AcDbLine
 10
74.75484081272204
 20
247.4744474563184
 30
0.0
 11
73.91728765435684
 21
242.7244474563184
 31
0.0
  0
LINE
  5
232
330
144
100
AcDbEntity
  8
AM_0
100
AcDbLine
 10
74.82966922529387
 20
247.7055133590118
 30
0.0
 11
74.75484081272204
 21
247.4744474563184
 31
0.0
  0
LINE
  5
233
330
144
100
AcDbEntity
  8
AM_0
100
AcDbLine
 10
73.91728765435684
 20
242.7244474563184
 30
0.0
 11
72.66728765435684
 21
242.7244474563184
 31
0.0
  0
ARC
  5
234
330
144
100
AcDbEntity
  8
AM_0
100
AcDbCircle
 10
74.86728765435677
 20
251.2744474563185
 30
0.0
 40
1.550000000000081
100
AcDbArc
 50
277.9881183344293
 51
339.2164404041528
  0
LINE
  5
235
330
144
100
AcDbEntity
  8
AM_0
100
AcDbLine
 10
73.08228765435683
 20
243.7244474563184
 30
0.0
 11
73.33268765435683
 21
245.1445364239507
 31
0.0
  0
LINE
  5
236
330
144
100
AcDbEntity
  8
AM_0
100
AcDbLine
 10
75.66728765435684
 20
248.2244474563184
 30
0.0
 11
75.54318765435684
 21
248.2244474563184
 31
0.0
  0
LINE
  5
237
330
144
100
AcDbEntity
  8
AM_0
100
AcDbLine
 10
75.08268765435683
 20
250.0244474563184
 30
0.0
 11
73.33268765435683
 21
250.0244474563184
 31
0.0
  0
LINE
  5
238
330
144
100
AcDbEntity
  8
AM_0
100
AcDbLine
 10
72.66728765435684
 20
243.7244474563184
 30
0.0
 11
73.08228765435683
 21
243.7244474563184
 31
0.0
  0
LINE
  5
239
330
144
100
AcDbEntity
  8
AM_0
100
AcDbLine
 10
86.08228765435683
 20
260.0244474563184
 30
0.0
 11
86.08228765435683
 21
250.7244474563184
 31
0.0
  0
LINE
  5
23A
330
144
100
AcDbEntity
  8
AM_0
100
AcDbLine
 10
89.53228765435682
 20
260.0244474563184
 30
0.0
 11
86.08228765435683
 21
260.0244474563184
 31
0.0
  0
LINE
  5
23B
330
144
100
AcDbEntity
  8
AM_0
100
AcDbLine
 10
89.53228765435682
 20
260.0244474563184
 30
0.0
 11
89.53228765435682
 21
250.7244474563184
 31
0.0
  0
LINE
  5
23C
330
144
100
AcDbEntity
  8
AM_0
100
AcDbLine
 10
81.25228765435683
 20
260.0244474563184
 30
0.0
 11
81.25228765435683
 21
250.7244474563184
 31
0.0
  0
LINE
  5
23D
330
144
100
AcDbEntity
  8
AM_0
100
AcDbLine
 10
77.80228765435683
 20
260.0244474563184
 30
0.0
 11
77.80228765435683
 21
250.7244474563184
 31
0.0
  0
LINE
  5
23E
330
144
100
AcDbEntity
  8
AM_0
100
AcDbLine
 10
81.25228765435683
 20
260.0244474563184
 30
0.0
 11
77.80228765435683
 21
260.0244474563184
 31
0.0
  0
LINE
  5
23F
330
144
100
AcDbEntity
  8
AM_0
100
AcDbLine
 10
81.94228765435683
 20
260.0244474563184
 30
0.0
 11
81.94228765435683
 21
250.7244474563184
 31
0.0
  0
LINE
  5
240
330
144
100
AcDbEntity
  8
AM_0
100
AcDbLine
 10
85.39228765435683
 20
260.0244474563184
 30
0.0
 11
85.39228765435683
 21
250.7244474563184
 31
0.0
  0
LINE
  5
241
330
144
100
AcDbEntity
  8
AM_0
100
AcDbLine
 10
85.39228765435683
 20
260.0244474563184
 30
0.0
 11
81.94228765435683
 21
260.0244474563184
 31
0.0
  0
LINE
  5
242
330
144
100
AcDbEntity
  8
AM_0
100
AcDbLine
 10
90.16728765435684
 20
237.3244474563185
 30
0.0
 11
91.16728765435683
 21
237.3244474563184
 31
0.0
  0
LINE
  5
243
330
144
100
AcDbEntity
  8
AM_0
100
AcDbLine
 10
76.16728765435684
 20
237.3244474563185
 30
0.0
 11
77.16728765435683
 21
237.3244474563185
 31
0.0
  0
LINE
  5
244
330
144
100
AcDbEntity
  8
AM_4
100
AcDbLine
 10
77.16728765435683
 20
237.3244474563185
 30
0.0
 11
77.16728765435683
 21
250.7244474563184
 31
0.0
  0
LINE
  5
245
330
144
100
AcDbEntity
  8
AM_0
100
AcDbLine
 10
76.66728765435683
 20
237.3244474563185
 30
0.0
 11
76.66728765435683
 21
250.7244474563184
 31
0.0
  0
LINE
  5
246
330
144
100
AcDbEntity
  8
AM_0
100
AcDbLine
 10
75.66728765435684
 20
236.3244474563184
 30
0.0
 11
91.66728765435683
 21
236.3244474563185
 31
0.0
  0
LWPOLYLINE
  5
247
330
144
100
AcDbEntity
  8
AM_0
100
AcDbPolyline
 90
       19
 70
     0
 43
0.0
 10
75.66728765435684
 20
236.8244474563185
 10
75.66919030531096
 20
236.8680253276923
 10
75.67488377785074
 20
236.9112715451519
 10
75.68432474121231
 20
236.9538569788697
 10
75.69744134396387
 20
236.9954575279813
 10
75.71413376083851
 20
237.0357565871888
 10
75.73427495246462
 20
237.0744474563185
 10
75.75771163221233
 20
237.111235674494
 10
75.78426543279735
 20
237.1458412611617
 10
75.81373426376356
 20
237.1780008469117
 10
75.84589384951357
 20
237.207469677878
 10
75.88049943618131
 20
237.2340234784629
 10
75.91728765435684
 20
237.2574601582107
 10
75.9559785234865
 20
237.2776013498368
 10
75.99627758269399
 20
237.2942937667114
 10
76.03787813180557
 20
237.307410369463
 10
76.08046356552337
 20
237.3168513328246
 10
76.123709782983
 20
237.3225448053643
 10
76.16728765435684
 20
237.3244474563185
  0
LINE
  5
248
330
144
100
AcDbEntity
  8
AM_4
100
AcDbLine
 10
76.16728765435684
 20
236.3244474563185
 30
0.0
 11
76.16728765435684
 21
237.3244474563185
 31
0.0
  0
LINE
  5
249
330
144
100
AcDbEntity
  8
AM_0
100
AcDbLine
 10
75.66728765435684
 20
236.3244474563184
 30
0.0
 11
75.66728765435684
 21
236.8244474563185
 31
0.0
  0
LINE
  5
24A
330
144
100
AcDbEntity
  8
AM_0
100
AcDbLine
 10
90.66728765435684
 20
237.3244474563185
 30
0.0
 11
90.66728765435684
 21
250.7244474563184
 31
0.0
  0
LINE
  5
24B
330
144
100
AcDbEntity
  8
AM_4
100
AcDbLine
 10
90.16728765435684
 20
237.3244474563185
 30
0.0
 11
90.16728765435684
 21
250.7244474563184
 31
0.0
  0
LINE
  5
24C
330
144
100
AcDbEntity
  8
AM_0
100
AcDbLine
 10
91.66728765435683
 20
236.8244474563185
 30
0.0
 11
91.66728765435683
 21
236.3244474563185
 31
0.0
  0
LWPOLYLINE
  5
24D
330
144
100
AcDbEntity
  8
AM_0
100
AcDbPolyline
 90
       19
 70
     0
 43
0.0
 10
91.16728769516533
 20
237.3244474563184
 10
91.21086556638387
 20
237.3225448018076
 10
91.25411178337882
 20
237.3168513257382
 10
91.29669721632608
 20
237.3074103589009
 10
91.33829776436711
 20
237.2942937527541
 10
91.37859682221224
 20
237.2776013325903
 10
91.41728768969803
 20
237.2574601378064
 10
91.45407590596072
 20
237.2340234550561
 10
91.48868149046122
 20
237.2074696516467
 10
91.52084107380607
 20
237.1780008180558
 10
91.55030990214752
 20
237.1458412299006
 10
91.57686369990812
 20
237.1112356410656
 10
91.6003003766533
 20
237.0744474209772
 10
91.62044156512158
 20
237.0357565502037
 10
91.63713397870711
 20
236.9954574896338
 10
91.65025057806338
 20
236.9538569394517
 10
91.65969153794924
 20
236.9112715049634
 10
91.6653850069594
 20
236.868025287039
 10
91.66728765435683
 20
236.8244474563184
  0
LINE
  5
24E
330
144
100
AcDbEntity
  8
AM_4
100
AcDbLine
 10
91.16728765435683
 20
236.3244474563184
 30
0.0
 11
91.16728765435683
 21
237.3244474563184
 31
0.0
  0
LINE
  5
24F
330
144
100
AcDbEntity
  8
AM_0
100
AcDbLine
 10
77.91778765435683
 20
236.3244474563185
 30
0.0
 11
77.91778765435683
 21
250.7244474563184
 31
0.0
  0
LINE
  5
250
330
144
100
AcDbEntity
  8
AM_0
100
AcDbLine
 10
78.41778765435683
 20
236.3244474563185
 30
0.0
 11
78.41778765435683
 21
250.7244474563184
 31
0.0
  0
LINE
  5
251
330
144
100
AcDbEntity
  8
AM_7
100
AcDbLine
 10
83.66728765435695
 20
129.4630324563184
 30
0.0
 11
83.66728765435695
 21
228.6139474563184
 31
0.0
  0
LINE
  5
252
330
144
100
AcDbEntity
  8
AM_7
100
AcDbLine
 10
82.91728765435695
 20
225.6994474563184
 30
0.0
 11
82.91728765435695
 21
239.4494474563184
 31
0.0
  0
LINE
  5
253
330
144
100
AcDbEntity
  8
AM_7
100
AcDbLine
 10
84.41728765435695
 20
225.6994474563184
 30
0.0
 11
84.41728765435695
 21
239.4494474563184
 31
0.0
  0
LINE
  5
254
330
144
100
AcDbEntity
  8
AM_0
100
AcDbLine
 10
82.41728765435695
 20
236.3244474563184
 30
0.0
 11
82.41728765435695
 21
228.2514474563184
 31
0.0
  0
LINE
  5
255
330
144
100
AcDbEntity
  8
AM_0
100
AcDbLine
 10
83.41728765435695
 20
228.2514474563184
 30
0.0
 11
83.41728765435695
 21
236.3244474563185
 31
0.0
  0
LINE
  5
256
330
144
100
AcDbEntity
  8
AM_0
100
AcDbLine
 10
83.91728765435695
 20
236.3244474563184
 30
0.0
 11
83.91728765435695
 21
228.2514474563184
 31
0.0
  0
LINE
  5
257
330
144
100
AcDbEntity
  8
AM_0
100
AcDbLine
 10
84.91728765435695
 20
228.2514474563184
 30
0.0
 11
84.91728765435695
 21
236.3244474563185
 31
0.0
  0
LINE
  5
258
330
144
100
AcDbEntity
  8
AM_0
100
AcDbLine
 10
81.41728765435695
 20
228.2514474563184
 30
0.0
 11
81.41728765435695
 21
225.7514474563184
 31
0.0
  0
LINE
  5
259
330
144
100
AcDbEntity
  8
AM_0
100
AcDbLine
 10
85.91728765435695
 20
225.7514474563184
 30
0.0
 11
85.91728765435695
 21
228.2514474563184
 31
0.0
  0
LINE
  5
25A
330
144
100
AcDbEntity
  8
AM_0
100
AcDbLine
 10
85.91728765435695
 20
228.2514474563184
 30
0.0
 11
81.41728765435695
 21
228.2514474563184
 31
0.0
  0
LINE
  5
25B
330
144
100
AcDbEntity
  8
AM_0
100
AcDbLine
 10
81.11728765435696
 20
221.0014474563184
 30
0.0
 11
81.11728765435696
 21
212.6138474563184
 31
0.0
  0
LINE
  5
25C
330
144
100
AcDbEntity
  8
AM_0
100
AcDbLine
 10
86.21728765435695
 20
212.6138474563184
 30
0.0
 11
86.21728765435695
 21
221.0014474563184
 31
0.0
  0
ARC
  5
25D
330
144
100
AcDbEntity
  8
AM_0
100
AcDbCircle
 10
81.0822876543566
 20
212.6138474563185
 30
0.0
 40
5.13500000000035
100
AcDbArc
 50
335.0000000000077
 51
0.0000000000007928
  0
LINE
  5
25E
330
144
100
AcDbEntity
  8
AM_0
100
AcDbLine
 10
81.11400842690324
 20
212.5990558171575
 30
0.0
 11
85.73617814079014
 21
210.4437026822799
 31
0.0
  0
LINE
  5
25F
330
144
100
AcDbEntity
  8
AM_4
100
AcDbLine
 10
81.11728765435696
 20
212.6138474563184
 30
0.0
 11
86.21728765435695
 21
212.6138474563184
 31
0.0
  0
LINE
  5
260
330
144
100
AcDbEntity
  8
AM_0
100
AcDbLine
 10
81.41728765435695
 20
225.7514474563184
 30
0.0
 11
80.16728765435695
 21
224.2514474563184
 31
0.0
  0
LINE
  5
261
330
144
100
AcDbEntity
  8
AM_0
100
AcDbLine
 10
87.16728765435695
 20
224.2514474563184
 30
0.0
 11
85.91728765435695
 21
225.7514474563184
 31
0.0
  0
LINE
  5
262
330
144
100
AcDbEntity
  8
AM_0
100
AcDbLine
 10
85.91728765435695
 20
225.7514474563184
 30
0.0
 11
81.41728765435695
 21
225.7514474563184
 31
0.0
  0
LINE
  5
263
330
144
100
AcDbEntity
  8
AM_0
100
AcDbLine
 10
80.16728765435695
 20
224.2514474563184
 30
0.0
 11
80.16728765435695
 21
221.0014474563184
 31
0.0
  0
LINE
  5
264
330
144
100
AcDbEntity
  8
AM_0
100
AcDbLine
 10
87.16728765435695
 20
221.0014474563184
 30
0.0
 11
87.16728765435695
 21
224.2514474563184
 31
0.0
  0
LINE
  5
265
330
144
100
AcDbEntity
  8
AM_0
100
AcDbLine
 10
87.16728765435695
 20
221.0014474563184
 30
0.0
 11
80.16728765435695
 21
221.0014474563184
 31
0.0
  0
LINE
  5
266
330
144
100
AcDbEntity
  8
AM_0
100
AcDbLine
 10
87.16728765435695
 20
224.2514474563184
 30
0.0
 11
80.16728765435695
 21
224.2514474563184
 31
0.0
  0
LINE
  5
267
330
144
100
AcDbEntity
  8
AM_7
100
AcDbLine
 10
72.27996591767061
 20
187.6283357961863
 30
0.0
 11
84.39167899697917
 21
213.6019883139897
 31
0.0
  0
LINE
  5
268
330
144
100
AcDbEntity
  8
AM_0
100
AcDbLine
 10
81.11728765435686
 20
212.6138474563184
 30
0.0
 11
85.73945736824378
 21
210.4584943214408
 31
0.0
  0
LINE
  5
269
330
144
100
AcDbEntity
  8
AM_0
100
AcDbLine
 10
75.59660093146528
 20
188.7070684990344
 30
0.0
 11
85.73320615141331
 21
210.4450885436863
 31
0.0
  0
LINE
  5
26A
330
144
100
AcDbEntity
  8
AM_0
100
AcDbLine
 10
81.11728765435686
 20
212.6138474563184
 30
0.0
 11
70.97443121757836
 21
190.862421633912
 31
0.0
  0
ARC
  5
26B
330
144
100
AcDbEntity
  8
AM_0
100
AcDbCircle
 10
71.46833422952366
 20
185.8875840000005
 30
0.0
 40
5.999999999999476
100
AcDbArc
 50
65.00081530989692
 51
80.44376213005367
  0
ARC
  5
26C
330
144
100
AcDbEntity
  8
AM_0
100
AcDbCircle
 10
71.46817947012244
 20
185.8876561654935
 30
0.0
 40
6.000000000000405
100
AcDbArc
 50
49.55623786994748
 51
64.9991846901018
  0
LINE
  5
26D
330
144
100
AcDbEntity
  8
AM_4
100
AcDbLine
 10
72.46442783564284
 20
191.8043227577828
 30
0.0
 11
75.36038768880731
 21
190.4539145005427
 31
0.0
  0
ARC
  5
26E
330
144
100
AcDbEntity
  8
AM_0
100
AcDbCircle
 10
74.84142656349756
 20
189.8450800810022
 30
0.0
 40
0.8000000000000113
100
AcDbArc
 50
340.0000000000014
 51
49.55623509518289
  0
ARC
  5
26F
330
144
100
AcDbEntity
  8
AM_0
100
AcDbCircle
 10
72.33161539303231
 20
191.0154242503131
 30
0.0
 40
0.7999999999999717
100
AcDbArc
 50
80.4437649048166
 51
150.0000000000012
  0
LINE
  5
270
330
144
100
AcDbEntity
  8
AM_4
100
AcDbLine
 10
71.63879507000478
 20
191.4154242503131
 30
0.0
 11
75.59318066012631
 21
189.5714639663417
 31
0.0
  0
LINE
  5
271
330
144
100
AcDbEntity
  8
AM_0
100
AcDbLine
 10
71.63879507000478
 20
191.4154242503131
 30
0.0
 11
71.24632014744714
 21
190.7356377437466
 31
0.0
  0
LINE
  5
272
330
144
100
AcDbEntity
  8
AM_0
100
AcDbLine
 10
75.32471200159651
 20
188.8338523891998
 30
0.0
 11
75.59318066012631
 21
189.5714639663417
 31
0.0
  0
LINE
  5
273
330
144
100
AcDbEntity
  8
AM_0
100
AcDbLine
 10
79.06164935766007
 20
187.0912898820219
 30
0.0
 11
67.50946584748579
 21
192.478161521228
 31
0.0
  0
LINE
  5
274
330
144
100
AcDbEntity
  8
AM_0
100
AcDbLine
 10
54.77733422952353
 20
181.726384
 30
0.0
 11
57.77733422952353
 21
181.726384
 31
0.0
  0
LINE
  5
275
330
144
100
AcDbEntity
  8
AM_0
100
AcDbLine
 10
80.27733422952353
 20
182.662584
 30
0.0
 11
80.06303429841233
 21
182.7625136990193
 31
0.0
  0
ARC
  5
276
330
144
100
AcDbEntity
  8
AM_0
100
AcDbCircle
 10
78.63903109591945
 20
186.1849820949853
 30
0.0
 40
0.9999999999999085
100
AcDbArc
 50
9.438999999997629
 51
65.00000000000244
  0
ARC
  5
277
330
144
100
AcDbEntity
  8
AM_0
100
AcDbCircle
 10
56.77733422952353
 20
184.3529765689016
 30
0.0
 40
1.999999999999947
100
AcDbArc
 50
120.1243999999993
 51
179.999999999999
  0
LINE
  5
278
330
144
100
AcDbEntity
  8
AM_0
100
AcDbLine
 10
62.97199469698934
 20
190.2597261210065
 30
0.0
 11
55.77357597882754
 21
186.0828521060891
 31
0.0
  0
LINE
  5
279
330
144
100
AcDbEntity
  8
AM_0
100
AcDbLine
 10
54.77733422952353
 20
184.3529765689016
 30
0.0
 11
54.77733422952353
 21
181.726384
 31
0.0
  0
LINE
  5
27A
330
144
100
AcDbEntity
  8
AM_0
100
AcDbLine
 10
80.27733422952353
 20
181.726384
 30
0.0
 11
80.27733422952353
 21
182.662584
 31
0.0
  0
ARC
  5
27B
330
144
100
AcDbEntity
  8
AM_0
100
AcDbCircle
 10
80.10529612458639
 20
182.8531444777229
 30
0.0
 40
0.0999999999999915
100
AcDbArc
 50
245.000000000007
 51
9.438999999998837
  0
LINE
  5
27C
330
144
100
AcDbEntity
  8
AM_0
100
AcDbLine
 10
80.20394220064726
 20
182.8695442239951
 30
0.0
 11
79.62549185652809
 21
186.3489795577073
 31
0.0
  0
LWPOLYLINE
  5
27D
330
144
100
AcDbEntity
  8
AM_0
100
AcDbPolyline
 90
        7
 70
     0
 43
0.0
 10
67.07503811836342
 20
192.571784
 10
66.98793339193978
 20
192.5669497005503
 10
66.90158146225704
 20
192.5545421199412
 10
66.81663951964073
 20
192.5346556873532
 10
66.73375402356353
 20
192.5074417505458
 10
66.65355578269833
 20
192.4731074240105
 10
66.57839217638764
 20
192.4329420552684
  0
LINE
  5
27E
330
144
100
AcDbEntity
  8
AM_0
100
AcDbLine
 10
66.57839217638764
 20
192.4329420552684
 30
0.0
 11
63.54116935978693
 21
190.6395228057854
 31
0.0
  0
LWPOLYLINE
  5
27F
330
144
100
AcDbEntity
  8
AM_0
100
AcDbPolyline
 90
       26
 70
     0
 43
0.0
 10
63.54116935978693
 20
190.6395228057854
 10
63.53385796320144
 20
190.6347636547966
 10
63.52698917602653
 20
190.6293853836142
 10
63.52061527388024
 20
190.6234289241294
 10
63.51478476600643
 20
190.6169396085955
 10
63.50954202609064
 20
190.609966824622
 10
63.50492695454933
 20
190.6025636393053
 10
63.50097467486354
 20
190.5947863953558
 10
63.49771526626813
 20
190.586694282296
 10
63.49517353483054
 20
190.5783488859924
 10
63.49336882466183
 20
190.5698137199499
 10
63.49231487069603
 20
190.5611537419359
 10
63.49201969415934
 20
190.552434859612
 10
63.49248554152334
 20
190.5437234289375
 10
63.49370886740833
 20
190.5350857491596
 10
63.49568036156553
 20
190.5265875582373
 10
63.49838501973423
 20
190.5182935325346
 10
63.50180225783244
 20
190.5102667945954
 10
63.50590606861503
 20
190.502568432742
 10
63.51066521960384
 20
190.4952570361565
 10
63.51604349078623
 20
190.4883882489816
 10
63.52199995027104
 20
190.4820143468352
 10
63.52848926580494
 20
190.4761838389614
 10
63.53546204977843
 20
190.4709410990457
 10
63.54286523509514
 20
190.4663260275044
 10
63.54975307454863
 20
190.4627831949741
  0
LINE
  5
280
330
144
100
AcDbEntity
  8
AM_0
100
AcDbLine
 10
63.54975307454863
 20
190.4627831949741
 30
0.0
 11
63.89649208407803
 21
190.3010961394494
 31
0.0
  0
LWPOLYLINE
  5
281
330
144
100
AcDbEntity
  8
AM_0
100
AcDbPolyline
 90
       13
 70
     0
 43
0.0
 10
63.89649208407803
 20
190.3010961394494
 10
63.81589396566304
 20
190.3344809731987
 10
63.73269286743994
 20
190.3607141787018
 10
63.64752200000433
 20
190.379596105425
 10
63.56102956508504
 20
190.3909830505045
 10
63.47387382233734
 20
190.3947883524127
 10
63.38671807958974
 20
190.3909830505045
 10
63.30022564467043
 20
190.379596105425
 10
63.21505477723484
 20
190.3607141787018
 10
63.13185367901174
 20
190.3344809731987
 10
63.05125556059663
 20
190.3010961394494
 10
62.97387382233734
 20
190.2608137561972
 10
62.97199469698934
 20
190.2597261210065
  0
LINE
  5
282
330
144
100
AcDbEntity
  8
AM_0
100
AcDbLine
 10
73.67642036566502
 20
189.6024634019075
 30
0.0
 11
61.83926906461093
 21
189.6024634019075
 31
0.0
  0
LWPOLYLINE
  5
283
330
144
100
AcDbEntity
  8
AM_0
100
AcDbPolyline
 90
        6
 70
     0
 43
0.0
 10
67.50946584748579
 20
192.478161521228
 10
67.42886772907076
 20
192.5115463549773
 10
67.34566663084762
 20
192.5377795604804
 10
67.26049576341202
 20
192.5566614872036
 10
67.17400332849274
 20
192.5680484322831
 10
67.09865705312674
 20
192.571784
  0
LINE
  5
284
330
144
100
AcDbEntity
  8
AM_0
100
AcDbLine
 10
67.09865705312679
 20
192.571784
 30
0.0
 11
67.07503811836338
 21
192.571784
 31
0.0
  0
LINE
  5
285
330
144
100
AcDbEntity
  8
AM_7
100
AcDbLine
 10
123.9783342295235
 20
267.076584
 30
0.0
 11
123.9783342295235
 21
249.553584
 31
0.0
  0
LINE
  5
286
330
144
100
AcDbEntity
  8
AM_7
100
AcDbLine
 10
128.1183342295236
 20
267.076584
 30
0.0
 11
128.1183342295236
 21
249.553584
 31
0.0
  0
LINE
  5
287
330
144
100
AcDbEntity
  8
AM_0
100
AcDbLine
 10
119.8135342295235
 20
256.0811783013024
 30
0.0
 11
119.8135342295235
 21
260.0800840000001
 31
0.0
  0
LINE
  5
288
330
144
100
AcDbEntity
  8
AM_0
100
AcDbLine
 10
118.0635342295235
 20
251.580084
 30
0.0
 11
118.0635342295235
 21
261.5800840000001
 31
0.0
  0
LINE
  5
289
330
144
100
AcDbEntity
  8
AM_0
100
AcDbLine
 10
118.0782247005862
 20
251.580084
 30
0.0
 11
118.0635342295235
 21
251.580084
 31
0.0
  0
LINE
  5
28A
330
144
100
AcDbEntity
  8
AM_0
100
AcDbLine
 10
120.8135342295236
 20
260.0800840000001
 30
0.0
 11
119.8135342295235
 21
260.0800840000001
 31
0.0
  0
LINE
  5
28B
330
144
100
AcDbEntity
  8
AM_0
100
AcDbLine
 10
119.8135342295235
 20
257.880084
 30
0.0
 11
118.0635342295235
 21
257.880084
 31
0.0
  0
LINE
  5
28C
330
144
100
AcDbEntity
  8
AM_0
100
AcDbLine
 10
118.0635342295235
 20
261.5800840000001
 30
0.0
 11
119.0635342295235
 21
262.0800840000001
 31
0.0
  0
LINE
  5
28D
330
144
100
AcDbEntity
  8
AM_0
100
AcDbLine
 10
120.8135342295236
 20
260.8300840000001
 30
0.0
 11
120.8135342295236
 21
260.0800840000001
 31
0.0
  0
LINE
  5
28E
330
144
100
AcDbEntity
  8
AM_0
100
AcDbLine
 10
120.0635342295235
 20
262.0800840000001
 30
0.0
 11
120.8135342295236
 21
260.8300840000001
 31
0.0
  0
LINE
  5
28F
330
144
100
AcDbEntity
  8
AM_0
100
AcDbLine
 10
119.0635342295235
 20
262.0800840000001
 30
0.0
 11
120.0635342295235
 21
262.0800840000001
 31
0.0
  0
LWPOLYLINE
  5
290
330
144
100
AcDbEntity
  8
AM_0
100
AcDbPolyline
 90
        5
 70
     0
 43
0.0
 10
130.1433342295235
 20
257.0941112030311
 10
130.1773735320241
 20
257.0864285930634
 10
130.2119528882799
 20
257.0817419384382
 10
130.2468091285102
 20
257.0800869074269
 10
130.2483342295236
 20
257.0800840000001
  0
LINE
  5
291
330
144
100
AcDbEntity
  8
AM_0
100
AcDbLine
 10
117.3983342295235
 20
249.080084
 30
0.0
 11
117.3983342295235
 21
250.080084
 31
0.0
  0
LINE
  5
292
330
144
100
AcDbEntity
  8
AM_0
100
AcDbLine
 10
120.3981342295235
 20
254.580084
 30
0.0
 11
120.2740342295235
 21
254.580084
 31
0.0
  0
ARC
  5
293
330
144
100
AcDbEntity
  8
AM_0
100
AcDbCircle
 10
120.3981342295235
 20
253.830084
 30
0.0
 40
0.7499999999999858
100
AcDbArc
 50
0.0000000000010856
 51
90.0000000000011
  0
LINE
  5
294
330
144
100
AcDbEntity
  8
AM_0
100
AcDbLine
 10
118.6481342295235
 20
249.080084
 30
0.0
 11
117.3983342295235
 21
249.080084
 31
0.0
  0
LINE
  5
295
330
144
100
AcDbEntity
  8
AM_0
100
AcDbLine
 10
118.8716961137743
 20
256.0800840000001
 30
0.0
 11
119.5981342295235
 21
256.0800840000001
 31
0.0
  0
ARC
  5
296
330
144
100
AcDbEntity
  8
AM_0
100
AcDbCircle
 10
120.2740342306797
 20
253.830084
 30
0.0
 40
0.75
100
AcDbArc
 50
90.00000008832191
 51
169.6955199216099
  0
ARC
  5
297
330
144
100
AcDbEntity
  8
AM_0
100
AcDbCircle
 10
119.6979788647646
 20
257.6268648664493
 30
0.0
 40
1.550000000000033
100
AcDbArc
 50
266.3066839691334
 51
339.3436645001296
  0
LINE
  5
298
330
144
100
AcDbEntity
  8
AM_0
100
AcDbLine
 10
119.5361309401783
 20
253.964243359969
 30
0.0
 11
118.6481342295235
 21
249.080084
 31
0.0
  0
LINE
  5
299
330
144
100
AcDbEntity
  8
AM_0
100
AcDbLine
 10
117.3983342295235
 20
250.080084
 30
0.0
 11
117.8137342295235
 21
250.080084
 31
0.0
  0
LINE
  5
29A
330
144
100
AcDbEntity
  8
AM_0
100
AcDbLine
 10
117.8137342295235
 20
250.080084
 30
0.0
 11
118.8716961137743
 21
256.0800840000001
 31
0.0
  0
LINE
  5
29B
330
144
100
AcDbEntity
  8
AM_0
100
AcDbLine
 10
125.7033342295235
 20
266.280084
 30
0.0
 11
125.7033342295235
 21
257.380084
 31
0.0
  0
LINE
  5
29C
330
144
100
AcDbEntity
  8
AM_0
100
AcDbLine
 10
125.7033342295235
 20
266.280084
 30
0.0
 11
122.2483342295235
 21
266.280084
 31
0.0
  0
LINE
  5
29D
330
144
100
AcDbEntity
  8
AM_0
100
AcDbLine
 10
122.2483342295235
 20
257.480084
 30
0.0
 11
122.2483342295235
 21
266.280084
 31
0.0
  0
LINE
  5
29E
330
144
100
AcDbEntity
  8
AM_0
100
AcDbLine
 10
126.3933342295235
 20
257.380084
 30
0.0
 11
126.3933342295235
 21
266.280084
 31
0.0
  0
LINE
  5
29F
330
144
100
AcDbEntity
  8
AM_0
100
AcDbLine
 10
129.8483342295235
 20
266.280084
 30
0.0
 11
129.8483342295235
 21
257.480084
 31
0.0
  0
LINE
  5
2A0
330
144
100
AcDbEntity
  8
AM_0
100
AcDbLine
 10
129.8483342295235
 20
266.280084
 30
0.0
 11
126.3933342295235
 21
266.280084
 31
0.0
  0
LINE
  5
2A1
330
144
100
AcDbEntity
  8
AM_0
100
AcDbLine
 10
121.9533342295235
 20
257.0941112030311
 30
0.0
 11
121.9533342295235
 21
257.0800840000001
 31
0.0
  0
ARC
  5
2A2
330
144
100
AcDbEntity
  8
AM_0
100
AcDbCircle
 10
126.0033342295236
 20
257.3800840000007
 30
0.0
 40
0.3000000000006949
100
AcDbArc
 50
252.4098539732932
 51
269.9999999999797
  0
LINE
  5
2A3
330
144
100
AcDbEntity
  8
AM_0
100
AcDbLine
 10
130.1433342295235
 20
257.0941112030311
 30
0.0
 11
130.1433342295235
 21
257.0800840000001
 31
0.0
  0
ARC
  5
2A4
330
144
100
AcDbEntity
  8
AM_0
100
AcDbCircle
 10
126.0933342295234
 20
257.3800840000007
 30
0.0
 40
0.3000000000007361
100
AcDbArc
 50
270.0000000000217
 51
287.5901460267056
  0
LINE
  5
2A5
330
144
100
AcDbEntity
  8
AM_4
100
AcDbLine
 10
122.2483342295235
 20
257.480084
 30
0.0
 11
125.7033342295235
 21
257.480084
 31
0.0
  0
LWPOLYLINE
  5
2A6
330
144
100
AcDbEntity
  8
AM_0
100
AcDbPolyline
 90
       16
 70
     0
 43
0.0
 10
121.9533342295235
 20
257.0941112030311
 10
121.9865744186234
 20
257.1047312990404
 10
122.0187625164125
 20
257.1182080557483
 10
122.0496535520309
 20
257.1344389068985
 10
122.0790124260452
 20
257.1533003259134
 10
122.1066156996966
 20
257.1746487660056
 10
122.1322532954053
 20
257.1983217526552
 10
122.1557300955877
 20
257.2241391201399
 10
122.1768674276187
 20
257.251904382704
 10
122.1955044236384
 20
257.2814062299343
 10
122.2114992448537
 20
257.3124201349598
 10
122.2247301610174
 20
257.3447100632365
 10
122.2350964768683
 20
257.3780302689129
 10
122.2425192984835
 20
257.4121271651047
 10
122.2469421337085
 20
257.4467412538434
 10
122.2483342295235
 20
257.480084
  0
LINE
  5
2A7
330
144
100
AcDbEntity
  8
AM_0
100
AcDbLine
 10
125.9126724437824
 20
257.0941112030311
 30
0.0
 11
121.9533342295235
 21
257.0941112030311
 31
0.0
  0
LWPOLYLINE
  5
2A8
330
144
100
AcDbEntity
  8
AM_0
100
AcDbPolyline
 90
        5
 70
     0
 43
0.0
 10
125.7033342295235
 20
257.380084
 10
125.717156199486
 20
257.2900721389825
 10
125.7522826750193
 20
257.215849055542
 10
125.8321169772949
 20
257.1337414487846
 10
125.912672443782
 20
257.0941112030309
  0
LWPOLYLINE
  5
2A9
330
144
100
AcDbEntity
  8
AM_0
100
AcDbPolyline
 90
        5
 70
     0
 43
0.0
 10
126.1839960152647
 20
257.0941112030311
 10
126.3045342994081
 20
257.1670240777228
 10
126.3623463640115
 20
257.2472966832177
 10
126.3893688872832
 20
257.331468350204
 10
126.3933342295235
 20
257.380084
  0
LINE
  5
2AA
330
144
100
AcDbEntity
  8
AM_0
100
AcDbLine
 10
130.1433342295235
 20
257.0941112030311
 30
0.0
 11
126.1839960152647
 21
257.0941112030311
 31
0.0
  0
LWPOLYLINE
  5
2AB
330
144
100
AcDbEntity
  8
AM_0
100
AcDbPolyline
 90
       16
 70
     0
 43
0.0
 10
129.8483342295235
 20
257.480084
 10
129.8498563502868
 20
257.4452217029009
 10
129.8544111283186
 20
257.4106247289332
 10
129.8619638990079
 20
257.376556381959
 10
129.8724571812092
 20
257.3432759426697
 10
129.8858111147089
 20
257.3110366953038
 10
129.9019240680097
 20
257.280084
 10
129.9206734118079
 20
257.2506534254596
 10
129.941916452276
 20
257.2229689561254
 10
129.9654915170489
 20
257.1972412875255
 10
129.9912191856489
 20
257.1736662227524
 10
130.0189036549831
 20
257.1524231822845
 10
130.0483342295236
 20
257.1336738384862
 10
130.0792869248273
 20
257.1175608851853
 10
130.1115261721933
 20
257.1042069516856
 10
130.1433342295235
 20
257.0941112030311
  0
LINE
  5
2AC
330
144
100
AcDbEntity
  8
AM_4
100
AcDbLine
 10
126.3933342295235
 20
257.480084
 30
0.0
 11
129.8483342295235
 21
257.480084
 31
0.0
  0
LINE
  5
2AD
330
144
100
AcDbEntity
  8
AM_0
100
AcDbLine
 10
130.9483342295235
 20
243.580084
 30
0.0
 11
130.9483342295235
 21
257.0800840000001
 31
0.0
  0
LINE
  5
2AE
330
144
100
AcDbEntity
  8
AM_0
100
AcDbLine
 10
130.9483342295235
 20
257.0800840000001
 30
0.0
 11
121.1483342295235
 21
257.0800840000001
 31
0.0
  0
LINE
  5
2AF
330
144
100
AcDbEntity
  8
AM_0
100
AcDbLine
 10
121.1483342295235
 20
243.580084
 30
0.0
 11
121.1483342295235
 21
257.0800840000001
 31
0.0
  0
LINE
  5
2B0
330
144
100
AcDbEntity
  8
AM_0
100
AcDbLine
 10
121.1483342295235
 20
243.580084
 30
0.0
 11
120.1483342295235
 21
243.580084
 31
0.0
  0
LINE
  5
2B1
330
144
100
AcDbEntity
  8
AM_0
100
AcDbLine
 10
120.1483342295235
 20
243.580084
 30
0.0
 11
120.1483342295235
 21
242.580084
 31
0.0
  0
LINE
  5
2B2
330
144
100
AcDbEntity
  8
AM_0
100
AcDbLine
 10
131.9483342295235
 20
242.580084
 30
0.0
 11
120.1483342295235
 21
242.580084
 31
0.0
  0
LINE
  5
2B3
330
144
100
AcDbEntity
  8
AM_0
100
AcDbLine
 10
131.9483342295235
 20
243.580084
 30
0.0
 11
131.9483342295235
 21
242.580084
 31
0.0
  0
LINE
  5
2B4
330
144
100
AcDbEntity
  8
AM_0
100
AcDbLine
 10
131.9483342295235
 20
243.580084
 30
0.0
 11
130.9483342295235
 21
243.580084
 31
0.0
  0
LINE
  5
2B5
330
144
100
AcDbEntity
  8
AM_7
100
AcDbLine
 10
126.0483342295235
 20
146.219189
 30
0.0
 11
126.0483342295235
 21
234.869684
 31
0.0
  0
LINE
  5
2B6
330
144
100
AcDbEntity
  8
AM_7
100
AcDbLine
 10
125.2983342295235
 20
231.955084
 30
0.0
 11
125.2983342295235
 21
245.705084
 31
0.0
  0
LINE
  5
2B7
330
144
100
AcDbEntity
  8
AM_7
100
AcDbLine
 10
126.7983342295235
 20
231.955084
 30
0.0
 11
126.7983342295235
 21
245.705084
 31
0.0
  0
LINE
  5
2B8
330
144
100
AcDbEntity
  8
AM_0
100
AcDbLine
 10
124.7983342295235
 20
242.580084
 30
0.0
 11
124.7983342295235
 21
234.5071840000001
 31
0.0
  0
LINE
  5
2B9
330
144
100
AcDbEntity
  8
AM_0
100
AcDbLine
 10
125.7983342295235
 20
234.5071840000001
 30
0.0
 11
125.7983342295235
 21
242.580084
 31
0.0
  0
LINE
  5
2BA
330
144
100
AcDbEntity
  8
AM_0
100
AcDbLine
 10
126.2983342295235
 20
242.580084
 30
0.0
 11
126.2983342295235
 21
234.5071840000001
 31
0.0
  0
LINE
  5
2BB
330
144
100
AcDbEntity
  8
AM_0
100
AcDbLine
 10
127.2983342295235
 20
234.5071840000001
 30
0.0
 11
127.2983342295235
 21
242.580084
 31
0.0
  0
LINE
  5
2BC
330
144
100
AcDbEntity
  8
AM_0
100
AcDbLine
 10
123.6483342295235
 20
234.5071840000001
 30
0.0
 11
123.6483342295235
 21
232.0071840000001
 31
0.0
  0
LINE
  5
2BD
330
144
100
AcDbEntity
  8
AM_0
100
AcDbLine
 10
128.4483342295235
 20
232.0071840000001
 30
0.0
 11
128.4483342295235
 21
234.5071840000001
 31
0.0
  0
LINE
  5
2BE
330
144
100
AcDbEntity
  8
AM_0
100
AcDbLine
 10
128.4483342295235
 20
234.5071840000001
 30
0.0
 11
123.6483342295235
 21
234.5071840000001
 31
0.0
  0
LINE
  5
2BF
330
144
100
AcDbEntity
  8
AM_0
100
AcDbLine
 10
122.6487342295235
 20
227.257184
 30
0.0
 11
122.6487342295235
 21
210.447384
 31
0.0
  0
LINE
  5
2C0
330
144
100
AcDbEntity
  8
AM_0
100
AcDbLine
 10
129.4479342295235
 20
210.447384
 30
0.0
 11
129.4479342295235
 21
227.257184
 31
0.0
  0
LINE
  5
2C1
330
144
100
AcDbEntity
  8
AM_0
100
AcDbLine
 10
122.6487342295235
 20
210.447384
 30
0.0
 11
129.4479342295235
 21
210.447384
 31
0.0
  0
LINE
  5
2C2
330
144
100
AcDbEntity
  8
AM_0
100
AcDbLine
 10
122.1483342295235
 20
230.5071840000001
 30
0.0
 11
122.1483342295235
 21
227.257184
 31
0.0
  0
LINE
  5
2C3
330
144
100
AcDbEntity
  8
AM_0
100
AcDbLine
 10
129.9483342295235
 20
227.257184
 30
0.0
 11
129.9483342295235
 21
230.5071840000001
 31
0.0
  0
LINE
  5
2C4
330
144
100
AcDbEntity
  8
AM_0
100
AcDbLine
 10
129.9483342295235
 20
227.257184
 30
0.0
 11
122.1483342295235
 21
227.257184
 31
0.0
  0
LINE
  5
2C5
330
144
100
AcDbEntity
  8
AM_0
100
AcDbLine
 10
123.6483342295235
 20
232.0071840000001
 30
0.0
 11
122.1483342295235
 21
230.5071840000001
 31
0.0
  0
LINE
  5
2C6
330
144
100
AcDbEntity
  8
AM_0
100
AcDbLine
 10
129.9483342295235
 20
230.5071840000001
 30
0.0
 11
128.4483342295235
 21
232.0071840000001
 31
0.0
  0
LINE
  5
2C7
330
144
100
AcDbEntity
  8
AM_0
100
AcDbLine
 10
129.9483342295235
 20
230.5071840000001
 30
0.0
 11
122.1483342295235
 21
230.5071840000001
 31
0.0
  0
LINE
  5
2C8
330
144
100
AcDbEntity
  8
AM_0
100
AcDbLine
 10
128.4483342295235
 20
232.0071840000001
 30
0.0
 11
123.6483342295235
 21
232.0071840000001
 31
0.0
  0
LINE
  5
2C9
330
144
100
AcDbEntity
  8
AM_7
100
AcDbLine
 10
102.2773342295235
 20
186.883384
 30
0.0
 11
102.2773342295235
 21
184.309384
 31
0.0
  0
LINE
  5
2CA
330
144
100
AcDbEntity
  8
AM_7
100
AcDbLine
 10
114.6773342295235
 20
186.176384
 30
0.0
 11
116.8773342295235
 21
186.176384
 31
0.0
  0
LINE
  5
2CB
330
144
100
AcDbEntity
  8
AM_0
100
AcDbLine
 10
116.7773342295235
 20
189.575984
 30
0.0
 11
114.7773342295235
 21
189.575984
 31
0.0
  0
LINE
  5
2CC
330
144
100
AcDbEntity
  8
AM_0
100
AcDbLine
 10
114.7773342295235
 20
182.776784
 30
0.0
 11
116.7773342295235
 21
182.776784
 31
0.0
  0
ARC
  5
2CD
330
144
100
AcDbEntity
  8
AM_0
100
AcDbCircle
 10
116.7773342295235
 20
195.447384
 30
0.0
 40
12.67059999999999
100
AcDbArc
 50
269.9999999999999
 51
0.0000000000000321
  0
ARC
  5
2CE
330
144
100
AcDbEntity
  8
AM_0
100
AcDbCircle
 10
116.7773342295235
 20
195.4473840000001
 30
0.0
 40
5.871400000000015
100
AcDbArc
 50
270.0000000000001
 51
0.000000000000208
  0
LINE
  5
2CF
330
144
100
AcDbEntity
  8
AM_4
100
AcDbLine
 10
116.7773342295235
 20
189.575984
 30
0.0
 11
116.7773342295235
 21
182.776784
 31
0.0
  0
LINE
  5
2D0
330
144
100
AcDbEntity
  8
AM_0
100
AcDbLine
 10
122.6487342295235
 20
210.447384
 30
0.0
 11
122.6487342295235
 21
195.447384
 31
0.0
  0
LINE
  5
2D1
330
144
100
AcDbEntity
  8
AM_0
100
AcDbLine
 10
129.4479342295235
 20
195.447384
 30
0.0
 11
129.4479342295235
 21
210.447384
 31
0.0
  0
LINE
  5
2D2
330
144
100
AcDbEntity
  8
AM_0
100
AcDbLine
 10
122.6487342295235
 20
210.447384
 30
0.0
 11
129.4479342295235
 21
210.447384
 31
0.0
  0
LINE
  5
2D3
330
144
100
AcDbEntity
  8
AM_4
100
AcDbLine
 10
122.6487342295235
 20
195.447384
 30
0.0
 11
129.4479342295235
 21
195.447384
 31
0.0
  0
LWPOLYLINE
  5
2D4
330
144
100
AcDbEntity
  8
AM_0
100
AcDbPolyline
 90
       15
 70
     0
 43
0.0
 10
114.6964792595416
 20
193.8203032985792
 10
114.6586493061546
 20
193.8989130845047
 10
114.6141120128818
 20
193.9739266387762
 10
114.5632063354175
 20
194.0447730629513
 10
114.5063196967047
 20
194.1109131729639
 10
114.4438850384133
 20
194.1718436026402
 10
114.3763775259918
 20
194.2271006346196
 10
114.3043109323719
 20
194.2762637295236
 10
114.2282337278462
 20
194.3189587265145
 10
114.1487249058776
 20
194.3548606908853
 10
114.0663895766102
 20
194.3836963870089
 10
113.981854361615
 20
194.4052463578263
 10
113.895762624922
 20
194.4193465950474
 10
113.8087695766311
 20
194.4258897873531
 10
113.7773342295235
 20
194.426384
  0
LINE
  5
2D5
330
144
100
AcDbEntity
  8
AM_0
100
AcDbLine
 10
83.1188299522052
 20
187.7251924925147
 30
0.0
 11
90.49457190803554
 21
194.1789609839382
 31
0.0
  0
LINE
  5
2D6
330
144
100
AcDbEntity
  8
AM_0
100
AcDbLine
 10
91.15307618535387
 20
194.426384
 30
0.0
 11
113.7773342295235
 21
194.426384
 31
0.0
  0
LWPOLYLINE
  5
2D7
330
144
100
AcDbEntity
  8
AM_0
100
AcDbPolyline
 90
       10
 70
     0
 43
0.0
 10
91.15307618535387
 20
194.426384
 10
91.0659204426062
 20
194.4225786980918
 10
90.97942800768693
 20
194.4111917530122
 10
90.89425714025136
 20
194.3923098262891
 10
90.8110560420282
 20
194.3660766207859
 10
90.73045792361316
 20
194.3326917870367
 10
90.65307618535387
 20
194.2924094037845
 10
90.57949974900282
 20
194.245536044289
 10
90.51028857566733
 20
194.192428443119
 10
90.49457190803554
 20
194.1789609839382
  0
ARC
  5
2D8
330
144
100
AcDbEntity
  8
AM_0
100
AcDbCircle
 10
102.2773342295235
 20
180.7663840000001
 30
0.0
 40
5.99999999999991
100
AcDbArc
 50
74.55728417241971
 51
105.4427158275801
  0
ARC
  5
2D9
330
144
100
AcDbEntity
  8
AM_0
100
AcDbCircle
 10
100.8927052308632
 20
185.7786492100691
 30
0.0
 40
0.8000000000000345
100
AcDbArc
 50
105.4427158275819
 51
174.9999999999986
  0
ARC
  5
2DA
330
144
100
AcDbEntity
  8
AM_0
100
AcDbCircle
 10
103.6619632281839
 20
185.7786492100691
 30
0.0
 40
0.8000000000000127
100
AcDbArc
 50
5.00000000000002
 51
74.5572841724182
  0
LINE
  5
2DB
330
144
100
AcDbEntity
  8
AM_4
100
AcDbLine
 10
103.8749830741316
 20
186.5497669346951
 30
0.0
 11
100.6796853849154
 21
186.5497669346951
 31
0.0
  0
LINE
  5
2DC
330
144
100
AcDbEntity
  8
AM_0
100
AcDbLine
 10
100.0957494723898
 20
185.8483738042672
 30
0.0
 11
100.0273342295235
 21
185.066384
 31
0.0
  0
LINE
  5
2DD
330
144
100
AcDbEntity
  8
AM_0
100
AcDbLine
 10
104.5273342295235
 20
185.066384
 30
0.0
 11
104.4589189866573
 21
185.8483738042672
 31
0.0
  0
LINE
  5
2DE
330
144
100
AcDbEntity
  8
AM_4
100
AcDbLine
 10
104.4589189866573
 20
185.8483738042672
 30
0.0
 11
100.0957494723898
 21
185.8483738042672
 31
0.0
  0
LINE
  5
2DF
330
144
100
AcDbEntity
  8
AM_0
100
AcDbLine
 10
99.77733422952353
 20
185.066384
 30
0.0
 11
99.77733422952353
 21
184.426384
 31
0.0
  0
LINE
  5
2E0
330
144
100
AcDbEntity
  8
AM_0
100
AcDbLine
 10
104.7773342295235
 20
184.426384
 30
0.0
 11
104.7773342295235
 21
185.066384
 31
0.0
  0
LINE
  5
2E1
330
144
100
AcDbEntity
  8
AM_0
100
AcDbLine
 10
104.7773342295235
 20
185.066384
 30
0.0
 11
99.77733422952353
 21
185.066384
 31
0.0
  0
LWPOLYLINE
  5
2E2
330
144
100
AcDbEntity
  8
AM_0
100
AcDbPolyline
 90
        3
 70
     0
 43
0.0
 10
83.0109899322455
 20
187.6150455966246
 10
83.06989757514958
 20
187.6793922626143
 10
83.11882995220519
 20
187.7251924925147
  0
LINE
  5
2E3
330
144
100
AcDbEntity
  8
AM_4
100
AcDbLine
 10
90.08467704719591
 20
193.8203032985792
 30
0.0
 11
99.27733422952352
 21
193.8203032985792
 31
0.0
  0
LINE
  5
2E4
330
144
100
AcDbEntity
  8
AM_4
100
AcDbLine
 10
105.2773342295235
 20
193.8203032985792
 30
0.0
 11
114.6964792595416
 21
193.8203032985792
 31
0.0
  0
LWPOLYLINE
  5
2E5
330
144
100
AcDbEntity
  8
AM_0
100
AcDbPolyline
 90
        6
 70
     0
 43
0.0
 10
114.6964792595416
 20
193.8203032985792
 10
114.7273139642552
 20
193.7386955489366
 10
114.7509187495741
 20
193.6547109198277
 10
114.7671139688289
 20
193.5689885849913
 10
114.7757763666223
 20
193.4821809431562
 10
114.7773342295235
 20
193.426384
  0
LINE
  5
2E6
330
144
100
AcDbEntity
  8
AM_4
100
AcDbLine
 10
105.2773342295235
 20
187.6150455966246
 30
0.0
 11
114.7773342295235
 21
187.6150455966246
 31
0.0
  0
LWPOLYLINE
  5
2E7
330
144
100
AcDbEntity
  8
AM_0
100
AcDbPolyline
 90
        3
 70
     0
 43
0.0
 10
83.0109899322455
 20
187.6150455966246
 10
82.86518816234292
 20
187.3824807939166
 10
82.80870510157128
 20
187.2211262980454
  0
LINE
  5
2E8
330
144
100
AcDbEntity
  8
AM_4
100
AcDbLine
 10
83.0109899322455
 20
187.6150455966246
 30
0.0
 11
99.27733422952352
 21
187.6150455966246
 31
0.0
  0
LINE
  5
2E9
330
144
100
AcDbEntity
  8
AM_0
100
AcDbLine
 10
99.27733422952352
 20
184.426384
 30
0.0
 11
105.2773342295235
 21
184.426384
 31
0.0
  0
LINE
  5
2EA
330
144
100
AcDbEntity
  8
AM_4
100
AcDbLine
 10
82.80870510157128
 20
187.2211262980454
 30
0.0
 11
99.27733422952352
 21
187.2211262980454
 31
0.0
  0
ARC
  5
2EB
330
144
100
AcDbEntity
  8
AM_0
100
AcDbCircle
 10
83.77733422952262
 20
186.9726155085766
 30
0.0
 40
0.9999999999990905
100
AcDbArc
 50
165.6105941327351
 51
179.9999999999939
  0
LINE
  5
2EC
330
144
100
AcDbEntity
  8
AM_0
100
AcDbLine
 10
82.77733422952353
 20
186.9726155085765
 30
0.0
 11
82.77733422952353
 21
181.726384
 31
0.0
  0
LINE
  5
2ED
330
144
100
AcDbEntity
  8
AM_0
100
AcDbLine
 10
85.27733422952353
 20
181.726384
 30
0.0
 11
85.37733422952353
 21
181.726384
 31
0.0
  0
LINE
  5
2EE
330
144
100
AcDbEntity
  8
AM_0
100
AcDbLine
 10
114.7773342295235
 20
193.426384
 30
0.0
 11
114.7773342295235
 21
181.726384
 31
0.0
  0
LINE
  5
2EF
330
144
100
AcDbEntity
  8
AM_4
100
AcDbLine
 10
105.2773342295235
 20
187.2211262980454
 30
0.0
 11
114.7773342295235
 21
187.2211262980454
 31
0.0
  0
LINE
  5
2F0
330
144
100
AcDbEntity
  8
AM_0
100
AcDbLine
 10
105.2773342295235
 20
184.426384
 30
0.0
 11
105.2773342295235
 21
194.426384
 31
0.0
  0
LINE
  5
2F1
330
144
100
AcDbEntity
  8
AM_0
100
AcDbLine
 10
99.27733422952352
 20
194.426384
 30
0.0
 11
99.27733422952352
 21
184.426384
 31
0.0
  0
LINE
  5
2F2
330
144
100
AcDbEntity
  8
AM_7
100
AcDbLine
 10
172.5873342295235
 20
173.5461891533947
 30
0.0
 11
49.16733422952353
 21
173.5461891533947
 31
0.0
  0
LINE
  5
2F3
330
144
100
AcDbEntity
  8
AM_7
100
AcDbLine
 10
172.5873342295235
 20
109.9065788466054
 30
0.0
 11
49.16733422952353
 21
109.9065788466054
 31
0.0
  0
LINE
  5
2F4
330
144
100
AcDbEntity
  8
AM_7
100
AcDbLine
 10
161.6453342295235
 20
163.226384
 30
0.0
 11
166.7493342295235
 21
163.226384
 31
0.0
  0
LINE
  5
2F5
330
144
100
AcDbEntity
  8
AM_7
100
AcDbLine
 10
161.6453342295235
 20
177.226384
 30
0.0
 11
166.7493342295235
 21
177.226384
 31
0.0
  0
LINE
  5
2F6
330
144
100
AcDbEntity
  8
AM_7
100
AcDbLine
 10
161.6453342295235
 20
106.226384
 30
0.0
 11
166.7493342295235
 21
106.226384
 31
0.0
  0
LINE
  5
2F7
330
144
100
AcDbEntity
  8
AM_7
100
AcDbLine
 10
161.6453342295235
 20
120.226384
 30
0.0
 11
166.7493342295235
 21
120.226384
 31
0.0
  0
LINE
  5
2F8
330
144
100
AcDbEntity
  8
AM_7
100
AcDbLine
 10
49.37733422952354
 20
141.726384
 30
0.0
 11
58.17733422952354
 21
141.726384
 31
0.0
  0
LINE
  5
2F9
330
144
100
AcDbEntity
  8
AM_7
100
AcDbLine
 10
76.40533422952353
 20
163.226384
 30
0.0
 11
81.50933422952353
 21
163.226384
 31
0.0
  0
LINE
  5
2FA
330
144
100
AcDbEntity
  8
AM_7
100
AcDbLine
 10
76.40533422952353
 20
177.226384
 30
0.0
 11
81.50933422952353
 21
177.226384
 31
0.0
  0
LINE
  5
2FB
330
144
100
AcDbEntity
  8
AM_7
100
AcDbLine
 10
76.40533422952353
 20
106.226384
 30
0.0
 11
81.50933422952353
 21
106.226384
 31
0.0
  0
LINE
  5
2FC
330
144
100
AcDbEntity
  8
AM_7
100
AcDbLine
 10
76.40533422952353
 20
120.226384
 30
0.0
 11
81.50933422952353
 21
120.226384
 31
0.0
  0
LINE
  5
2FD
330
144
100
AcDbEntity
  8
AM_7
100
AcDbLine
 10
55.27833422952354
 20
177.226384
 30
0.0
 11
57.89633422952353
 21
177.226384
 31
0.0
  0
LINE
  5
2FE
330
144
100
AcDbEntity
  8
AM_7
100
AcDbLine
 10
55.27833422952354
 20
120.226384
 30
0.0
 11
57.89633422952353
 21
120.226384
 31
0.0
  0
LINE
  5
2FF
330
144
100
AcDbEntity
  8
AM_7
100
AcDbLine
 10
55.27833422952354
 20
163.226384
 30
0.0
 11
57.89633422952353
 21
163.226384
 31
0.0
  0
LINE
  5
300
330
144
100
AcDbEntity
  8
AM_7
100
AcDbLine
 10
55.27833422952354
 20
106.226384
 30
0.0
 11
57.89633422952353
 21
106.226384
 31
0.0
  0
ARC
  5
301
330
144
100
AcDbEntity
  8
AM_0
100
AcDbCircle
 10
62.39733422952334
 20
106.2263840000001
 30
0.0
 40
6.999999999999785
100
AcDbArc
 50
162.4732217527708
 51
197.5267782472292
  0
ARC
  5
302
330
144
100
AcDbEntity
  8
AM_0
100
AcDbCircle
 10
56.48516113140343
 20
104.3592446752935
 30
0.0
 40
0.7999999999999915
100
AcDbArc
 50
197.5267782472299
 51
265.0000000000024
  0
ARC
  5
303
330
144
100
AcDbEntity
  8
AM_0
100
AcDbCircle
 10
56.48516113140343
 20
108.0935233247065
 30
0.0
 40
0.7999999999999954
100
AcDbArc
 50
94.99999999999758
 51
162.4732217527705
  0
LINE
  5
304
330
144
100
AcDbEntity
  8
AM_4
100
AcDbLine
 10
55.72230008648474
 20
108.3344445278944
 30
0.0
 11
55.72230008648474
 21
104.1183234721056
 31
0.0
  0
LINE
  5
305
330
144
100
AcDbEntity
  8
AM_0
100
AcDbLine
 10
56.41543653720534
 20
103.5622889168201
 30
0.0
 11
57.39733422952354
 21
103.476384
 31
0.0
  0
LINE
  5
306
330
144
100
AcDbEntity
  8
AM_0
100
AcDbLine
 10
56.84365438717424
 20
108.9279432905716
 30
0.0
 11
56.41543653720534
 21
108.8904790831799
 31
0.0
  0
LINE
  5
307
330
144
100
AcDbEntity
  8
AM_4
100
AcDbLine
 10
56.41543653720534
 20
108.8904790831799
 30
0.0
 11
56.41543653720534
 21
103.5622889168201
 31
0.0
  0
LINE
  5
308
330
144
100
AcDbEntity
  8
AM_0
100
AcDbLine
 10
57.39733422952354
 20
103.226384
 30
0.0
 11
57.77733422952353
 21
103.226384
 31
0.0
  0
LINE
  5
309
330
144
100
AcDbEntity
  8
AM_0
100
AcDbLine
 10
57.39733422952354
 20
106.436384
 30
0.0
 11
57.39733422952354
 21
103.226384
 31
0.0
  0
LINE
  5
30A
330
144
100
AcDbEntity
  8
AM_0
100
AcDbLine
 10
80.27733422952353
 20
181.726384
 30
0.0
 11
54.77733422952353
 21
181.726384
 31
0.0
  0
LINE
  5
30B
330
144
100
AcDbEntity
  8
AM_0
100
AcDbLine
 10
54.77733422952353
 20
181.726384
 30
0.0
 11
54.77733422952353
 21
119.8729674296967
 31
0.0
  0
LINE
  5
30C
330
144
100
AcDbEntity
  8
AM_0
100
AcDbLine
 10
80.37733422952354
 20
102.526384
 30
0.0
 11
80.27733422952353
 21
102.526384
 31
0.0
  0
LINE
  5
30D
330
144
100
AcDbEntity
  8
AM_0
100
AcDbLine
 10
80.37733422952354
 20
102.726384
 30
0.0
 11
80.37733422952354
 21
101.726384
 31
0.0
  0
LINE
  5
30E
330
144
100
AcDbEntity
  8
AM_0
100
AcDbLine
 10
80.37733422952354
 20
101.726384
 30
0.0
 11
85.27733422952353
 21
101.726384
 31
0.0
  0
LINE
  5
30F
330
144
100
AcDbEntity
  8
AM_0
100
AcDbLine
 10
80.27733422952353
 20
102.726384
 30
0.0
 11
80.27733422952353
 21
101.726384
 31
0.0
  0
LINE
  5
310
330
144
100
AcDbEntity
  8
AM_0
100
AcDbLine
 10
57.77733422952353
 20
101.726384
 30
0.0
 11
80.27733422952353
 21
101.726384
 31
0.0
  0
LINE
  5
311
330
144
100
AcDbEntity
  8
AM_4
100
AcDbLine
 10
76.27733422952353
 20
106.226384
 30
0.0
 11
76.63733422952353
 21
106.226384
 31
0.0
  0
ARC
  5
312
330
144
100
AcDbEntity
  8
AM_0
100
AcDbCircle
 10
62.39733422952334
 20
177.2263840000001
 30
0.0
 40
6.999999999999758
100
AcDbArc
 50
162.4732217527707
 51
197.5267782472293
  0
ARC
  5
313
330
144
100
AcDbEntity
  8
AM_0
100
AcDbCircle
 10
56.48516113140353
 20
175.3592446752936
 30
0.0
 40
0.8000000000000365
100
AcDbArc
 50
197.52677824723
 51
264.9999999999996
  0
ARC
  5
314
330
144
100
AcDbEntity
  8
AM_0
100
AcDbCircle
 10
56.48516113140353
 20
179.0935233247065
 30
0.0
 40
0.8000000000000345
100
AcDbArc
 50
95.0000000000004
 51
162.47322175277
  0
LINE
  5
315
330
144
100
AcDbEntity
  8
AM_4
100
AcDbLine
 10
55.72230008648474
 20
179.3344445278944
 30
0.0
 11
55.72230008648474
 21
175.1183234721056
 31
0.0
  0
LINE
  5
316
330
144
100
AcDbEntity
  8
AM_0
100
AcDbLine
 10
56.41543653720534
 20
174.5622889168201
 30
0.0
 11
57.39733422952354
 21
174.476384
 31
0.0
  0
LINE
  5
317
330
144
100
AcDbEntity
  8
AM_0
100
AcDbLine
 10
57.39733422952354
 20
179.976384
 30
0.0
 11
56.41543653720534
 21
179.8904790831799
 31
0.0
  0
LINE
  5
318
330
144
100
AcDbEntity
  8
AM_4
100
AcDbLine
 10
56.41543653720534
 20
179.8904790831799
 30
0.0
 11
56.41543653720534
 21
174.5622889168201
 31
0.0
  0
LINE
  5
319
330
144
100
AcDbEntity
  8
AM_0
100
AcDbLine
 10
57.39733422952354
 20
174.226384
 30
0.0
 11
57.77733422952353
 21
174.226384
 31
0.0
  0
LINE
  5
31A
330
144
100
AcDbEntity
  8
AM_0
100
AcDbLine
 10
57.77733422952353
 20
180.226384
 30
0.0
 11
57.39733422952354
 21
180.226384
 31
0.0
  0
LINE
  5
31B
330
144
100
AcDbEntity
  8
AM_0
100
AcDbLine
 10
57.39733422952354
 20
180.226384
 30
0.0
 11
57.39733422952354
 21
174.226384
 31
0.0
  0
LINE
  5
31C
330
144
100
AcDbEntity
  8
AM_0
100
AcDbLine
 10
77.03733422952352
 20
102.726384
 30
0.0
 11
80.63733422952353
 21
102.726384
 31
0.0
  0
LINE
  5
31D
330
144
100
AcDbEntity
  8
AM_0
100
AcDbLine
 10
80.63733422952353
 20
109.726384
 30
0.0
 11
77.03733422952352
 21
109.726384
 31
0.0
  0
LINE
  5
31E
330
144
100
AcDbEntity
  8
AM_0
100
AcDbLine
 10
76.63733422952353
 20
103.126384
 30
0.0
 11
77.03733422952352
 21
102.726384
 31
0.0
  0
LINE
  5
31F
330
144
100
AcDbEntity
  8
AM_0
100
AcDbLine
 10
77.03733422952352
 20
109.726384
 30
0.0
 11
76.63733422952353
 21
109.326384
 31
0.0
  0
LINE
  5
320
330
144
100
AcDbEntity
  8
AM_0
100
AcDbLine
 10
77.03733422952352
 20
109.726384
 30
0.0
 11
77.03733422952352
 21
102.726384
 31
0.0
  0
LINE
  5
321
330
144
100
AcDbEntity
  8
AM_0
100
AcDbLine
 10
76.63733422952353
 20
109.326384
 30
0.0
 11
76.63733422952353
 21
103.126384
 31
0.0
  0
LWPOLYLINE
  5
322
330
144
100
AcDbEntity
  8
AM_0
100
AcDbPolyline
 90
        4
 70
     0
 43
0.0
 10
55.13452832676424
 20
164.0709068397086
 10
55.00444321674433
 20
163.3338592428241
 10
54.83343004233363
 20
161.8459014326736
 10
54.77733422952353
 20
160.3400702495103
  0
ARC
  5
323
330
144
100
AcDbEntity
  8
AM_0
100
AcDbCircle
 10
69.77733422952272
 20
119.8729674296966
 30
0.0
 40
14.99999999999919
100
AcDbArc
 50
179.9999999999996
 51
192.5288077091518
  0
LINE
  5
324
330
144
100
AcDbEntity
  8
AM_0
100
AcDbLine
 10
157.0773342295235
 20
180.926384
 30
0.0
 11
157.1773342295235
 21
180.926384
 31
0.0
  0
LINE
  5
325
330
144
100
AcDbEntity
  8
AM_0
100
AcDbLine
 10
80.37733422952354
 20
180.926384
 30
0.0
 11
80.27733422952353
 21
180.926384
 31
0.0
  0
LINE
  5
326
330
144
100
AcDbEntity
  8
AM_0
100
AcDbLine
 10
85.37733422952353
 20
180.926384
 30
0.0
 11
85.27733422952353
 21
180.926384
 31
0.0
  0
LINE
  5
327
330
144
100
AcDbEntity
  8
AM_4
100
AcDbLine
 10
80.37733422952354
 20
177.006384
 30
0.0
 11
80.27733422952353
 21
177.006384
 31
0.0
  0
LINE
  5
328
330
144
100
AcDbEntity
  8
AM_4
100
AcDbLine
 10
85.37733422952353
 20
177.006384
 30
0.0
 11
85.27733422952353
 21
177.006384
 31
0.0
  0
LINE
  5
329
330
144
100
AcDbEntity
  8
AM_4
100
AcDbLine
 10
157.0773342295235
 20
177.006384
 30
0.0
 11
157.1773342295235
 21
177.006384
 31
0.0
  0
LINE
  5
32A
330
144
100
AcDbEntity
  8
AM_0
100
AcDbLine
 10
85.37733422952353
 20
102.526384
 30
0.0
 11
85.27733422952353
 21
102.526384
 31
0.0
  0
LINE
  5
32B
330
144
100
AcDbEntity
  8
AM_0
100
AcDbLine
 10
157.0773342295235
 20
102.526384
 30
0.0
 11
157.1773342295235
 21
102.526384
 31
0.0
  0
LINE
  5
32C
330
144
100
AcDbEntity
  8
AM_4
100
AcDbLine
 10
85.37733422952353
 20
106.446384
 30
0.0
 11
85.27733422952353
 21
106.446384
 31
0.0
  0
LINE
  5
32D
330
144
100
AcDbEntity
  8
AM_4
100
AcDbLine
 10
157.0773342295235
 20
106.446384
 30
0.0
 11
157.1773342295235
 21
106.446384
 31
0.0
  0
LINE
  5
32E
330
144
100
AcDbEntity
  8
AM_0
100
AcDbLine
 10
80.63733422952353
 20
102.226384
 30
0.0
 11
81.27733422952353
 21
102.226384
 31
0.0
  0
LINE
  5
32F
330
144
100
AcDbEntity
  8
AM_0
100
AcDbLine
 10
81.27733422952353
 20
110.226384
 30
0.0
 11
80.63733422952353
 21
110.226384
 31
0.0
  0
LINE
  5
330
330
144
100
AcDbEntity
  8
AM_0
100
AcDbLine
 10
80.63733422952353
 20
110.226384
 30
0.0
 11
80.63733422952353
 21
102.226384
 31
0.0
  0
LINE
  5
331
330
144
100
AcDbEntity
  8
AM_0
100
AcDbLine
 10
85.27733422952353
 20
181.726384
 30
0.0
 11
80.37733422952354
 21
181.726384
 31
0.0
  0
LINE
  5
332
330
144
100
AcDbEntity
  8
AM_4
100
AcDbLine
 10
85.27733422952353
 20
177.726384
 30
0.0
 11
80.37733422952354
 21
177.726384
 31
0.0
  0
LINE
  5
333
330
144
100
AcDbEntity
  8
AM_0
100
AcDbLine
 10
166.9773342295235
 20
181.726384
 30
0.0
 11
157.1773342295235
 21
181.726384
 31
0.0
  0
LINE
  5
334
330
144
100
AcDbEntity
  8
AM_4
100
AcDbLine
 10
158.9773342295235
 20
177.726384
 30
0.0
 11
157.1773342295235
 21
177.726384
 31
0.0
  0
LINE
  5
335
330
144
100
AcDbEntity
  8
AM_0
100
AcDbLine
 10
157.0773342295235
 20
181.726384
 30
0.0
 11
85.37733422952353
 21
181.726384
 31
0.0
  0
LINE
  5
336
330
144
100
AcDbEntity
  8
AM_4
100
AcDbLine
 10
80.27733422952353
 20
177.726384
 30
0.0
 11
57.77733422952353
 21
177.726384
 31
0.0
  0
LINE
  5
337
330
144
100
AcDbEntity
  8
AM_4
100
AcDbLine
 10
157.0773342295235
 20
177.726384
 30
0.0
 11
85.37733422952353
 21
177.726384
 31
0.0
  0
LINE
  5
338
330
144
100
AcDbEntity
  8
AM_0
100
AcDbLine
 10
81.27733422952353
 20
110.476384
 30
0.0
 11
81.27733422952353
 21
101.726384
 31
0.0
  0
LINE
  5
339
330
144
100
AcDbEntity
  8
AM_0
100
AcDbLine
 10
157.0773342295235
 20
101.726384
 30
0.0
 11
85.37733422952353
 21
101.726384
 31
0.0
  0
LINE
  5
33A
330
144
100
AcDbEntity
  8
AM_0
100
AcDbLine
 10
166.9773342295235
 20
101.726384
 30
0.0
 11
157.1773342295235
 21
101.726384
 31
0.0
  0
LINE
  5
33B
330
144
100
AcDbEntity
  8
AM_4
100
AcDbLine
 10
158.9773342295235
 20
105.726384
 30
0.0
 11
157.1773342295235
 21
105.726384
 31
0.0
  0
LINE
  5
33C
330
144
100
AcDbEntity
  8
AM_0
100
AcDbLine
 10
76.27733422952353
 20
110.476384
 30
0.0
 11
76.27733422952353
 21
101.726384
 31
0.0
  0
LINE
  5
33D
330
144
100
AcDbEntity
  8
AM_4
100
AcDbLine
 10
157.0773342295235
 20
105.726384
 30
0.0
 11
85.37733422952353
 21
105.726384
 31
0.0
  0
LINE
  5
33E
330
144
100
AcDbEntity
  8
AM_4
100
AcDbLine
 10
85.27733422952353
 20
105.726384
 30
0.0
 11
81.27733422952353
 21
105.726384
 31
0.0
  0
LINE
  5
33F
330
144
100
AcDbEntity
  8
AM_4
100
AcDbLine
 10
76.27733422952353
 20
105.726384
 30
0.0
 11
57.77733422952353
 21
105.726384
 31
0.0
  0
LINE
  5
340
330
144
100
AcDbEntity
  8
AM_4
100
AcDbLine
 10
80.37733422952354
 20
174.556384
 30
0.0
 11
80.27733422952353
 21
174.556384
 31
0.0
  0
LINE
  5
341
330
144
100
AcDbEntity
  8
AM_0
100
AcDbLine
 10
80.37733422952354
 20
167.5449308695855
 30
0.0
 11
80.27733422952353
 21
167.5449308695855
 31
0.0
  0
LINE
  5
342
330
144
100
AcDbEntity
  8
AM_0
100
AcDbLine
 10
80.27733422952353
 20
181.726384
 30
0.0
 11
80.27733422952353
 21
166.726384
 31
0.0
  0
LINE
  5
343
330
144
100
AcDbEntity
  8
AM_0
100
AcDbLine
 10
80.37733422952354
 20
181.726384
 30
0.0
 11
80.37733422952356
 21
166.726384
 31
0.0
  0
LINE
  5
344
330
144
100
AcDbEntity
  8
AM_4
100
AcDbLine
 10
158.9773342295235
 20
173.526384
 30
0.0
 11
157.1773342295235
 21
173.526384
 31
0.0
  0
LINE
  5
345
330
144
100
AcDbEntity
  8
AM_4
100
AcDbLine
 10
158.9773342295235
 20
109.926384
 30
0.0
 11
157.1773342295235
 21
109.926384
 31
0.0
  0
LINE
  5
346
330
144
100
AcDbEntity
  8
AM_4
100
AcDbLine
 10
157.0773342295235
 20
174.556384
 30
0.0
 11
157.1773342295235
 21
174.556384
 31
0.0
  0
LINE
  5
347
330
144
100
AcDbEntity
  8
AM_4
100
AcDbLine
 10
85.37733422952353
 20
108.896384
 30
0.0
 11
85.27733422952353
 21
108.896384
 31
0.0
  0
LINE
  5
348
330
144
100
AcDbEntity
  8
AM_4
100
AcDbLine
 10
157.0773342295235
 20
108.896384
 30
0.0
 11
157.1773342295235
 21
108.896384
 31
0.0
  0
LINE
  5
349
330
144
100
AcDbEntity
  8
AM_0
100
AcDbLine
 10
80.37733422952354
 20
111.101384
 30
0.0
 11
80.27733422952353
 21
111.101384
 31
0.0
  0
LINE
  5
34A
330
144
100
AcDbEntity
  8
AM_4
100
AcDbLine
 10
85.37733422952353
 20
174.556384
 30
0.0
 11
85.27733422952353
 21
174.556384
 31
0.0
  0
LINE
  5
34B
330
144
100
AcDbEntity
  8
AM_0
100
AcDbLine
 10
76.27733422952353
 20
110.476384
 30
0.0
 11
80.27733422952353
 21
110.476384
 31
0.0
  0
LINE
  5
34C
330
144
100
AcDbEntity
  8
AM_4
100
AcDbLine
 10
76.27733422952353
 20
108.226384
 30
0.0
 11
57.77733422952353
 21
108.226384
 31
0.0
  0
LINE
  5
34D
330
144
100
AcDbEntity
  8
AM_4
100
AcDbLine
 10
157.0773342295235
 20
108.226384
 30
0.0
 11
85.37733422952353
 21
108.226384
 31
0.0
  0
LINE
  5
34E
330
144
100
AcDbEntity
  8
AM_0
100
AcDbLine
 10
76.27733422952353
 20
158.976384
 30
0.0
 11
76.27733422952353
 21
168.0718399893729
 31
0.0
  0
LINE
  5
34F
330
144
100
AcDbEntity
  8
AM_0
100
AcDbLine
 10
76.27733422952353
 20
168.0718399893729
 30
0.0
 11
80.27733422952353
 21
168.0718399893729
 31
0.0
  0
LINE
  5
350
330
144
100
AcDbEntity
  8
AM_4
100
AcDbLine
 10
80.27733422952353
 20
175.226384
 30
0.0
 11
57.77733422952353
 21
175.226384
 31
0.0
  0
LINE
  5
351
330
144
100
AcDbEntity
  8
AM_0
100
AcDbLine
 10
80.37733422952354
 20
110.476384
 30
0.0
 11
81.27733422952353
 21
110.476384
 31
0.0
  0
LINE
  5
352
330
144
100
AcDbEntity
  8
AM_4
100
AcDbLine
 10
85.27733422952353
 20
108.226384
 30
0.0
 11
81.27733422952353
 21
108.226384
 31
0.0
  0
LINE
  5
353
330
144
100
AcDbEntity
  8
AM_0
100
AcDbLine
 10
81.27733422952353
 20
158.976384
 30
0.0
 11
81.27733422952353
 21
168.0718399893729
 31
0.0
  0
LINE
  5
354
330
144
100
AcDbEntity
  8
AM_0
100
AcDbLine
 10
80.37733422952354
 20
168.0718399893729
 30
0.0
 11
81.27733422952353
 21
168.0718399893729
 31
0.0
  0
LINE
  5
355
330
144
100
AcDbEntity
  8
AM_4
100
AcDbLine
 10
85.27733422952353
 20
175.226384
 30
0.0
 11
80.37733422952354
 21
175.226384
 31
0.0
  0
LINE
  5
356
330
144
100
AcDbEntity
  8
AM_4
100
AcDbLine
 10
157.0773342295235
 20
175.226384
 30
0.0
 11
85.37733422952353
 21
175.226384
 31
0.0
  0
ARC
  5
357
330
144
100
AcDbEntity
  8
AM_0
100
AcDbCircle
 10
167.1773342295235
 20
106.526384
 30
0.0
 40
0.1999999999999957
100
AcDbArc
 50
90.00000000000004
 51
179.999999999996
  0
ARC
  5
358
330
144
100
AcDbEntity
  8
AM_0
100
AcDbCircle
 10
167.1773342295235
 20
176.926384
 30
0.0
 40
0.2000000000000002
100
AcDbArc
 50
179.999999999996
 51
269.9999999999999
  0
LINE
  5
359
330
144
100
AcDbEntity
  8
AM_4
100
AcDbLine
 10
76.27733422952353
 20
163.226384
 30
0.0
 11
76.63733422952353
 21
163.226384
 31
0.0
  0
LINE
  5
35A
330
144
100
AcDbEntity
  8
AM_0
100
AcDbLine
 10
57.26733011718663
 20
174.48814891785
 30
0.0
 11
55.13452832676424
 21
164.0709068397086
 31
0.0
  0
LINE
  5
35B
330
144
100
AcDbEntity
  8
AM_4
100
AcDbLine
 10
55.13452832676424
 20
164.0709068397086
 30
0.0
 11
55.13452832676424
 21
116.6190105624168
 31
0.0
  0
LINE
  5
35C
330
144
100
AcDbEntity
  8
AM_0
100
AcDbLine
 10
55.13452832676424
 20
116.6190105624168
 30
0.0
 11
57.72970834989144
 21
104.9407004583445
 31
0.0
  0
LINE
  5
35D
330
144
100
AcDbEntity
  8
AM_4
100
AcDbLine
 10
57.72970834989144
 20
117.226384
 30
0.0
 11
57.72970834989144
 21
104.9407004583445
 31
0.0
  0
LINE
  5
35E
330
144
100
AcDbEntity
  8
AM_4
100
AcDbLine
 10
57.72970834989144
 20
174.226384
 30
0.0
 11
57.72970834989144
 21
123.226384
 31
0.0
  0
ARC
  5
35F
330
144
100
AcDbEntity
  8
AM_0
100
AcDbCircle
 10
55.77733422952734
 20
104.5068395427075
 30
0.0
 40
1.99999999999622
100
AcDbArc
 50
0.0000000000099742
 51
12.52880770916531
  0
ARC
  5
360
330
144
100
AcDbEntity
  8
AM_0
100
AcDbCircle
 10
62.39733422952374
 20
120.226384
 30
0.0
 40
7.000000000000172
100
AcDbArc
 50
162.4732217527708
 51
197.5267782472292
  0
ARC
  5
361
330
144
100
AcDbEntity
  8
AM_0
100
AcDbCircle
 10
56.48516113140353
 20
118.3592446752936
 30
0.0
 40
0.8000000000000618
100
AcDbArc
 50
197.5267782472324
 51
264.9999999999977
  0
ARC
  5
362
330
144
100
AcDbEntity
  8
AM_0
100
AcDbCircle
 10
56.48516113140353
 20
122.0935233247065
 30
0.0
 40
0.8000000000000547
100
AcDbArc
 50
95.0000000000023
 51
162.4732217527676
  0
LINE
  5
363
330
144
100
AcDbEntity
  8
AM_4
100
AcDbLine
 10
55.72230008648474
 20
122.3344445278944
 30
0.0
 11
55.72230008648474
 21
118.1183234721056
 31
0.0
  0
LINE
  5
364
330
144
100
AcDbEntity
  8
AM_0
100
AcDbLine
 10
56.41543653720534
 20
117.5622889168201
 30
0.0
 11
57.39733422952354
 21
117.476384
 31
0.0
  0
LINE
  5
365
330
144
100
AcDbEntity
  8
AM_0
100
AcDbLine
 10
57.39733422952354
 20
122.976384
 30
0.0
 11
56.41543653720534
 21
122.8904790831799
 31
0.0
  0
LINE
  5
366
330
144
100
AcDbEntity
  8
AM_4
100
AcDbLine
 10
56.41543653720534
 20
122.8904790831799
 30
0.0
 11
56.41543653720534
 21
117.5622889168201
 31
0.0
  0
LINE
  5
367
330
144
100
AcDbEntity
  8
AM_0
100
AcDbLine
 10
57.39733422952354
 20
117.226384
 30
0.0
 11
57.77733422952353
 21
117.226384
 31
0.0
  0
LINE
  5
368
330
144
100
AcDbEntity
  8
AM_0
100
AcDbLine
 10
57.77733422952353
 20
123.226384
 30
0.0
 11
57.39733422952354
 21
123.226384
 31
0.0
  0
LINE
  5
369
330
144
100
AcDbEntity
  8
AM_0
100
AcDbLine
 10
57.39733422952354
 20
123.226384
 30
0.0
 11
57.39733422952354
 21
117.226384
 31
0.0
  0
LINE
  5
36A
330
144
100
AcDbEntity
  8
AM_0
100
AcDbLine
 10
162.5173342295235
 20
159.726384
 30
0.0
 11
166.1673342295235
 21
159.726384
 31
0.0
  0
LINE
  5
36B
330
144
100
AcDbEntity
  8
AM_0
100
AcDbLine
 10
166.1673342295235
 20
166.726384
 30
0.0
 11
162.5173342295235
 21
166.726384
 31
0.0
  0
LINE
  5
36C
330
144
100
AcDbEntity
  8
AM_0
100
AcDbLine
 10
76.63733422952353
 20
160.126384
 30
0.0
 11
77.03733422952352
 21
159.726384
 31
0.0
  0
LINE
  5
36D
330
144
100
AcDbEntity
  8
AM_0
100
AcDbLine
 10
77.03733422952352
 20
166.726384
 30
0.0
 11
76.63733422952353
 21
166.326384
 31
0.0
  0
LINE
  5
36E
330
144
100
AcDbEntity
  8
AM_0
100
AcDbLine
 10
76.63733422952353
 20
166.326384
 30
0.0
 11
76.63733422952353
 21
160.126384
 31
0.0
  0
LINE
  5
36F
330
144
100
AcDbEntity
  8
AM_0
100
AcDbLine
 10
77.03733422952352
 20
159.726384
 30
0.0
 11
80.63733422952353
 21
159.726384
 31
0.0
  0
LINE
  5
370
330
144
100
AcDbEntity
  8
AM_0
100
AcDbLine
 10
80.63733422952353
 20
166.726384
 30
0.0
 11
77.03733422952352
 21
166.726384
 31
0.0
  0
LINE
  5
371
330
144
100
AcDbEntity
  8
AM_0
100
AcDbLine
 10
77.03733422952352
 20
166.726384
 30
0.0
 11
77.03733422952352
 21
159.726384
 31
0.0
  0
LINE
  5
372
330
144
100
AcDbEntity
  8
AM_0
100
AcDbLine
 10
166.5173342295235
 20
166.376384
 30
0.0
 11
166.1673342295235
 21
166.726384
 31
0.0
  0
LINE
  5
373
330
144
100
AcDbEntity
  8
AM_0
100
AcDbLine
 10
166.1673342295235
 20
159.726384
 30
0.0
 11
166.5173342295235
 21
160.076384
 31
0.0
  0
LINE
  5
374
330
144
100
AcDbEntity
  8
AM_0
100
AcDbLine
 10
166.5173342295235
 20
166.376384
 30
0.0
 11
166.5173342295235
 21
160.076384
 31
0.0
  0
LINE
  5
375
330
144
100
AcDbEntity
  8
AM_0
100
AcDbLine
 10
166.1673342295235
 20
166.726384
 30
0.0
 11
166.1673342295235
 21
159.726384
 31
0.0
  0
LINE
  5
376
330
144
100
AcDbEntity
  8
AM_0
100
AcDbLine
 10
80.37733422952354
 20
158.631384
 30
0.0
 11
80.27733422952353
 21
158.631384
 31
0.0
  0
LINE
  5
377
330
144
100
AcDbEntity
  8
AM_4
100
AcDbLine
 10
157.0773342295235
 20
120.166384
 30
0.0
 11
157.1773342295235
 21
120.166384
 31
0.0
  0
LINE
  5
378
330
144
100
AcDbEntity
  8
AM_0
100
AcDbLine
 10
157.0773342295235
 20
116.246384
 30
0.0
 11
157.1773342295235
 21
116.246384
 31
0.0
  0
LINE
  5
379
330
144
100
AcDbEntity
  8
AM_0
100
AcDbLine
 10
80.37733422952354
 20
116.246384
 30
0.0
 11
80.27733422952353
 21
116.246384
 31
0.0
  0
LINE
  5
37A
330
144
100
AcDbEntity
  8
AM_4
100
AcDbLine
 10
80.37733422952354
 20
120.166384
 30
0.0
 11
80.27733422952353
 21
120.166384
 31
0.0
  0
LINE
  5
37B
330
144
100
AcDbEntity
  8
AM_0
100
AcDbLine
 10
85.37733422952353
 20
116.246384
 30
0.0
 11
85.27733422952353
 21
116.246384
 31
0.0
  0
LINE
  5
37C
330
144
100
AcDbEntity
  8
AM_4
100
AcDbLine
 10
85.37733422952353
 20
120.166384
 30
0.0
 11
85.27733422952353
 21
120.166384
 31
0.0
  0
LINE
  5
37D
330
144
100
AcDbEntity
  8
AM_4
100
AcDbLine
 10
85.37733422952353
 20
163.286384
 30
0.0
 11
85.27733422952353
 21
163.286384
 31
0.0
  0
LINE
  5
37E
330
144
100
AcDbEntity
  8
AM_0
100
AcDbLine
 10
85.37733422952353
 20
167.206384
 30
0.0
 11
85.27733422952353
 21
167.206384
 31
0.0
  0
LINE
  5
37F
330
144
100
AcDbEntity
  8
AM_0
100
AcDbLine
 10
157.0773342295235
 20
167.206384
 30
0.0
 11
157.1773342295235
 21
167.206384
 31
0.0
  0
LINE
  5
380
330
144
100
AcDbEntity
  8
AM_4
100
AcDbLine
 10
157.0773342295235
 20
163.286384
 30
0.0
 11
157.1773342295235
 21
163.286384
 31
0.0
  0
LINE
  5
381
330
144
100
AcDbEntity
  8
AM_0
100
AcDbLine
 10
161.8773342295235
 20
159.226384
 30
0.0
 11
162.5173342295235
 21
159.226384
 31
0.0
  0
LINE
  5
382
330
144
100
AcDbEntity
  8
AM_0
100
AcDbLine
 10
162.5173342295235
 20
167.226384
 30
0.0
 11
161.8773342295235
 21
167.226384
 31
0.0
  0
LINE
  5
383
330
144
100
AcDbEntity
  8
AM_0
100
AcDbLine
 10
162.5173342295235
 20
167.226384
 30
0.0
 11
162.5173342295235
 21
159.226384
 31
0.0
  0
LINE
  5
384
330
144
100
AcDbEntity
  8
AM_0
100
AcDbLine
 10
80.63733422952353
 20
159.226384
 30
0.0
 11
81.27733422952353
 21
159.226384
 31
0.0
  0
LINE
  5
385
330
144
100
AcDbEntity
  8
AM_0
100
AcDbLine
 10
81.27733422952353
 20
167.226384
 30
0.0
 11
80.63733422952353
 21
167.226384
 31
0.0
  0
LINE
  5
386
330
144
100
AcDbEntity
  8
AM_0
100
AcDbLine
 10
80.63733422952353
 20
167.226384
 30
0.0
 11
80.63733422952353
 21
159.226384
 31
0.0
  0
LINE
  5
387
330
144
100
AcDbEntity
  8
AM_0
100
AcDbLine
 10
161.8773342295235
 20
158.976384
 30
0.0
 11
166.9773342295235
 21
158.976384
 31
0.0
  0
LINE
  5
388
330
144
100
AcDbEntity
  8
AM_0
100
AcDbLine
 10
158.9773342295235
 20
115.726384
 30
0.0
 11
157.1773342295235
 21
115.726384
 31
0.0
  0
LINE
  5
389
330
144
100
AcDbEntity
  8
AM_0
100
AcDbLine
 10
166.9773342295235
 20
181.726384
 30
0.0
 11
166.9773342295235
 21
101.726384
 31
0.0
  0
LINE
  5
38A
330
144
100
AcDbEntity
  8
AM_0
100
AcDbLine
 10
158.9773342295235
 20
101.726384
 30
0.0
 11
158.9773342295235
 21
119.726384
 31
0.0
  0
LINE
  5
38B
330
144
100
AcDbEntity
  8
AM_0
100
AcDbLine
 10
157.1773342295235
 20
181.726384
 30
0.0
 11
157.1773342295235
 21
101.726384
 31
0.0
  0
LINE
  5
38C
330
144
100
AcDbEntity
  8
AM_0
100
AcDbLine
 10
158.9773342295235
 20
167.726384
 30
0.0
 11
157.1773342295235
 21
167.726384
 31
0.0
  0
LINE
  5
38D
330
144
100
AcDbEntity
  8
AM_0
100
AcDbLine
 10
80.37733422952354
 20
158.976384
 30
0.0
 11
81.27733422952353
 21
158.976384
 31
0.0
  0
LINE
  5
38E
330
144
100
AcDbEntity
  8
AM_0
100
AcDbLine
 10
85.27733422952353
 20
181.726384
 30
0.0
 11
85.27733422952353
 21
101.726384
 31
0.0
  0
LINE
  5
38F
330
144
100
AcDbEntity
  8
AM_0
100
AcDbLine
 10
85.27733422952353
 20
167.726384
 30
0.0
 11
81.27733422952353
 21
167.726384
 31
0.0
  0
LINE
  5
390
330
144
100
AcDbEntity
  8
AM_4
100
AcDbLine
 10
85.27733422952353
 20
163.726384
 30
0.0
 11
81.27733422952353
 21
163.726384
 31
0.0
  0
LINE
  5
391
330
144
100
AcDbEntity
  8
AM_0
100
AcDbLine
 10
157.0773342295235
 20
115.726384
 30
0.0
 11
85.37733422952353
 21
115.726384
 31
0.0
  0
LINE
  5
392
330
144
100
AcDbEntity
  8
AM_0
100
AcDbLine
 10
158.9773342295235
 20
163.726384
 30
0.0
 11
158.9773342295235
 21
181.726384
 31
0.0
  0
LINE
  5
393
330
144
100
AcDbEntity
  8
AM_4
100
AcDbLine
 10
158.9773342295235
 20
163.726384
 30
0.0
 11
157.1773342295235
 21
163.726384
 31
0.0
  0
LINE
  5
394
330
144
100
AcDbEntity
  8
AM_4
100
AcDbLine
 10
158.9773342295235
 20
119.726384
 30
0.0
 11
157.1773342295235
 21
119.726384
 31
0.0
  0
LINE
  5
395
330
144
100
AcDbEntity
  8
AM_4
100
AcDbLine
 10
158.9773342295235
 20
107.726384
 30
0.0
 11
166.9773342295235
 21
107.726384
 31
0.0
  0
LINE
  5
396
330
144
100
AcDbEntity
  8
AM_4
100
AcDbLine
 10
161.8773342295235
 20
158.476384
 30
0.0
 11
166.9773342295235
 21
158.476384
 31
0.0
  0
LINE
  5
397
330
144
100
AcDbEntity
  8
AM_0
100
AcDbLine
 10
161.8773342295235
 20
158.476384
 30
0.0
 11
161.8773342295235
 21
167.976384
 31
0.0
  0
LINE
  5
398
330
144
100
AcDbEntity
  8
AM_0
100
AcDbLine
 10
76.27733422952353
 20
158.976384
 30
0.0
 11
80.27733422952353
 21
158.976384
 31
0.0
  0
LINE
  5
399
330
144
100
AcDbEntity
  8
AM_0
100
AcDbLine
 10
76.27733422952353
 20
167.726384
 30
0.0
 11
57.77733422952353
 21
167.726384
 31
0.0
  0
LINE
  5
39A
330
144
100
AcDbEntity
  8
AM_4
100
AcDbLine
 10
76.27733422952353
 20
163.726384
 30
0.0
 11
57.77733422952353
 21
163.726384
 31
0.0
  0
LINE
  5
39B
330
144
100
AcDbEntity
  8
AM_4
100
AcDbLine
 10
157.0773342295235
 20
119.726384
 30
0.0
 11
85.37733422952353
 21
119.726384
 31
0.0
  0
LINE
  5
39C
330
144
100
AcDbEntity
  8
AM_0
100
AcDbLine
 10
157.0773342295235
 20
167.726384
 30
0.0
 11
85.37733422952353
 21
167.726384
 31
0.0
  0
LINE
  5
39D
330
144
100
AcDbEntity
  8
AM_0
100
AcDbLine
 10
85.37733422952353
 20
181.726384
 30
0.0
 11
85.37733422952353
 21
101.726384
 31
0.0
  0
LINE
  5
39E
330
144
100
AcDbEntity
  8
AM_4
100
AcDbLine
 10
157.0773342295235
 20
163.726384
 30
0.0
 11
85.37733422952353
 21
163.726384
 31
0.0
  0
LINE
  5
39F
330
144
100
AcDbEntity
  8
AM_0
100
AcDbLine
 10
157.0773342295235
 20
181.726384
 30
0.0
 11
157.0773342295235
 21
101.726384
 31
0.0
  0
LINE
  5
3A0
330
144
100
AcDbEntity
  8
AM_4
100
AcDbLine
 10
158.9773342295235
 20
175.726384
 30
0.0
 11
166.9773342295235
 21
175.726384
 31
0.0
  0
LINE
  5
3A1
330
144
100
AcDbEntity
  8
AM_4
100
AcDbLine
 10
161.8773342295235
 20
167.976384
 30
0.0
 11
166.9773342295235
 21
167.976384
 31
0.0
  0
LINE
  5
3A2
330
144
100
AcDbEntity
  8
AM_0
100
AcDbLine
 10
161.8773342295235
 20
167.476384
 30
0.0
 11
166.9773342295235
 21
167.476384
 31
0.0
  0
LINE
  5
3A3
330
144
100
AcDbEntity
  8
AM_0
100
AcDbLine
 10
57.77733422952353
 20
101.726384
 30
0.0
 11
57.77733422952353
 21
181.726384
 31
0.0
  0
LINE
  5
3A4
330
144
100
AcDbEntity
  8
AM_0
100
AcDbLine
 10
80.27733422952353
 20
115.726384
 30
0.0
 11
57.77733422952353
 21
115.726384
 31
0.0
  0
LINE
  5
3A5
330
144
100
AcDbEntity
  8
AM_0
100
AcDbLine
 10
80.27733422952353
 20
159.726384
 30
0.0
 11
80.27733422952353
 21
109.726384
 31
0.0
  0
LINE
  5
3A6
330
144
100
AcDbEntity
  8
AM_4
100
AcDbLine
 10
80.27733422952353
 20
119.726384
 30
0.0
 11
57.77733422952353
 21
119.726384
 31
0.0
  0
LINE
  5
3A7
330
144
100
AcDbEntity
  8
AM_4
100
AcDbLine
 10
85.27733422952353
 20
119.726384
 30
0.0
 11
80.37733422952354
 21
119.726384
 31
0.0
  0
LINE
  5
3A8
330
144
100
AcDbEntity
  8
AM_0
100
AcDbLine
 10
80.37733422952354
 20
159.726384
 30
0.0
 11
80.37733422952354
 21
109.726384
 31
0.0
  0
LINE
  5
3A9
330
144
100
AcDbEntity
  8
AM_0
100
AcDbLine
 10
85.27733422952353
 20
115.726384
 30
0.0
 11
80.37733422952354
 21
115.726384
 31
0.0
  0
POINT
  5
3AA
330
144
100
AcDbEntity
  8
ConnectionPoints
100
AcDbPoint
 10
83.66728765435695
 20
236.3244474563184
 30
0.0
  0
POINT
  5
3AB
330
144
100
AcDbEntity
  8
ConnectionPoints
100
AcDbPoint
 10
83.42837251130041
 20
211.5361708888796
 30
0.0
  0
POINT
  5
3AC
330
144
100
AcDbEntity
  8
ConnectionPoints
100
AcDbPoint
 10
80.27733422952353
 20
181.726384
 30
0.0
  0
POINT
  5
3AD
330
144
100
AcDbEntity
  8
ConnectionPoints
100
AcDbPoint
 10
83.42837251130032
 20
211.5361708888796
 30
0.0
  0
POINT
  5
3AE
330
144
100
AcDbEntity
  8
ConnectionPoints
100
AcDbPoint
 10
126.0483342295235
 20
242.580084
 30
0.0
  0
POINT
  5
3AF
330
144
100
AcDbEntity
  8
ConnectionPoints
100
AcDbPoint
 10
126.0483342295235
 20
242.580084
 30
0.0
  0
POINT
  5
3B0
330
144
100
AcDbEntity
  8
ConnectionPoints
100
AcDbPoint
 10
126.0483342295235
 20
210.447384
 30
0.0
  0
POINT
  5
3B1
330
144
100
AcDbEntity
  8
ConnectionPoints
100
AcDbPoint
 10
114.7773342295235
 20
181.726384
 30
0.0
  0
POINT
  5
3B2
330
144
100
AcDbEntity
  8
ConnectionPoints
100
AcDbPoint
 10
126.0483342295235
 20
210.447384
 30
0.0
  0
POINT
  5
3B3
330
144
100
AcDbEntity
  8
ConnectionPoints
100
AcDbPoint
 10
114.7773342295235
 20
181.726384
 30
0.0
  0
POINT
  5
3B4
330
144
100
AcDbEntity
  8
ConnectionPoints
100
AcDbPoint
 10
80.27733422952353
 20
181.726384
 30
0.0
  0
POINT
  5
3B5
330
144
100
AcDbEntity
  8
ConnectionPoints
100
AcDbPoint
 10
166.9773342295235
 20
141.726384
 30
0.0
  0
ENDBLK
  5
146
330
144
100
AcDbEntity
  8
0
100
AcDbBlockEnd
  0
ENDSEC
  0
SECTION
  2
ENTITIES
  0
INSERT
  5
9F
330
1F
100
AcDbEntity
  8
0
100
AcDbBlockReference
  2
レイアウト (部分図 2)
 10
217.0
 20
311.0
 30
0.0
  0
INSERT
  5
13F
330
1F
100
AcDbEntity
  8
0
100
AcDbBlockReference
  2
レイアウト (部分図 3)
 10
0.0
 20
0.0
 30
0.0
  0
INSERT
  5
143
330
1F
100
AcDbEntity
  8
0
100
AcDbBlockReference
  2
用紙 1
 10
0.0
 20
0.0
 30
0.0
  0
INSERT
  5
3B6
330
1F
100
AcDbEntity
  8
0
100
AcDbBlockReference
  2
レイアウト (部分図 1)
 10
33.51237675
 20
5.178651685393258
 30
0.0
  0
ENDSEC
  0
SECTION
  2
OBJECTS
  0
DICTIONARY
  5
C
330
0
100
AcDbDictionary
281
     1
  3
ACAD_GROUP
350
D
  3
ACAD_IMAGE_VARS
350
6F
  3
ACAD_LAYOUT
350
1A
  3
ACAD_MATERIAL
350
43
  3
ACAD_MLEADERSTYLE
350
6B
  3
ACAD_MLINESTYLE
350
17
  3
ACAD_PLOTSETTINGS
350
19
  3
ACAD_PLOTSTYLENAME
350
E
  3
ACAD_SCALELIST
350
47
  3
ACAD_TABLESTYLE
350
69
  3
ACAD_VISUALSTYLE
350
2A
  3
AcDbVariableDictionary
350
3B7
  0
DICTIONARY
  5
3BE
330
8
100
AcDbDictionary
280
     1
281
     1
  3
ACAD_XREC_ROUNDTRIP
360
3BF
  0
DICTIONARY
  5
D
102
{ACAD_REACTORS
330
C
102
}
330
C
100
AcDbDictionary
281
     1
  3
*A10
350
DC
  3
*A12
350
FB
  3
*A14
350
107
  3
*A16
350
11E
  3
*A18
350
165
  3
*A2
350
AA
  3
*A20
350
203
  3
*A4
350
B3
  3
*A6
350
B9
  3
*A8
350
C5
  0
RASTERVARIABLES
  5
6F
102
{ACAD_REACTORS
330
C
102
}
330
C
100
AcDbRasterVariables
 90
        0
 70
     0
 71
     1
 72
     0
  0
DICTIONARY
  5
1A
102
{ACAD_REACTORS
330
C
102
}
330
C
100
AcDbDictionary
281
     1
  3
Layout1
350
1E
  3
Layout2
350
26
  3
Model
350
22
  0
DICTIONARY
  5
43
102
{ACAD_REACTORS
330
C
102
}
330
C
100
AcDbDictionary
281
     1
  3
ByBlock
350
45
  3
ByLayer
350
44
  3
Global
350
46
  0
DICTIONARY
  5
6B
102
{ACAD_REACTORS
330
C
102
}
330
C
100
AcDbDictionary
281
     1
  3
Standard
350
6C
  0
DICTIONARY
  5
17
102
{ACAD_REACTORS
330
C
102
}
330
C
100
AcDbDictionary
281
     1
  3
Standard
350
18
  0
DICTIONARY
  5
19
102
{ACAD_REACTORS
330
C
102
}
330
C
100
AcDbDictionary
281
     1
  0
ACDBDICTIONARYWDFLT
  5
E
102
{ACAD_REACTORS
330
C
102
}
330
C
100
AcDbDictionary
281
     1
  3
Normal
350
F
100
AcDbDictionaryWithDefault
340
F
  0
DICTIONARY
  5
47
102
{ACAD_REACTORS
330
C
102
}
330
C
100
AcDbDictionary
281
     1
  3
A0
350
48
  3
A1
350
49
  3
A2
350
4A
  3
A3
350
4B
  3
A4
350
4C
  3
A5
350
4D
  3
A6
350
4E
  3
A7
350
4F
  3
A8
350
50
  3
A9
350
51
  3
B0
350
52
  3
B1
350
53
  3
B2
350
54
  3
B3
350
55
  3
B4
350
56
  3
B5
350
57
  3
B6
350
58
  3
B7
350
59
  3
B8
350
5A
  3
B9
350
5B
  3
C0
350
5C
  3
C1
350
5D
  3
C2
350
5E
  3
C3
350
5F
  3
C4
350
60
  3
C5
350
61
  3
C6
350
62
  3
C7
350
63
  3
C8
350
64
  3
C9
350
65
  3
D0
350
66
  3
D1
350
67
  3
D2
350
68
  0
DICTIONARY
  5
69
102
{ACAD_REACTORS
330
C
102
}
330
C
100
AcDbDictionary
281
     1
  3
Standard
350
6A
  0
DICTIONARY
  5
2A
102
{ACAD_REACTORS
330
C
102
}
330
C
100
AcDbDictionary
281
     1
  3
2dWireframe
350
2F
  3
Basic
350
32
  3
Brighten
350
36
  3
ColorChange
350
3A
  3
Conceptual
350
34
  3
Dim
350
35
  3
EdgeColorOff
350
3D
  3
Facepattern
350
39
  3
Flat
350
2B
  3
FlatWithEdges
350
2C
  3
Gouraud
350
2D
  3
GouraudWithEdges
350
2E
  3
Hidden
350
31
  3
JitterOff
350
3B
  3
Linepattern
350
38
  3
OverhangOff
350
3C
  3
Realistic
350
33
  3
Shaded
350
42
  3
Shaded with edges
350
41
  3
Shades of Gray
350
3E
  3
Sketchy
350
3F
  3
Thicken
350
37
  3
Wireframe
350
30
  3
X-Ray
350
40
  0
DICTIONARY
  5
3B7
102
{ACAD_REACTORS
330
C
102
}
330
C
100
AcDbDictionary
281
     1
  3
CANNOSCALE
350
3C0
  3
CMLEADERSTYLE
350
3B9
  3
CTABLESTYLE
350
3B8
  3
DIMASSOC
350
3BC
  3
HIDETEXT
350
3BD
  3
MSLTSCALE
350
3C1
  0
XRECORD
  5
3BF
102
{ACAD_REACTORS
330
3BE
102
}
330
3BE
100
AcDbXrecord
280
     1
102
VTR_0.000_0.000_1.000_1.000_VISUALSTYLE
340
2F
102
VTR_0.000_0.000_1.000_1.000_GRIDDISPLAY
 70
     3
102
VTR_0.000_0.000_1.000_1.000_GRIDMAJOR
 70
     5
102
VTR_0.000_0.000_1.000_1.000_DEFAULTLIGHTING
280
     1
102
VTR_0.000_0.000_1.000_1.000_DEFAULTLIGHTINGTYPE
 70
     1
102
VTR_0.000_0.000_1.000_1.000_BRIGHTNESS
141
0.0
102
VTR_0.000_0.000_1.000_1.000_CONTRAST
142
0.0
  0
GROUP
  5
DC
102
{ACAD_REACTORS
330
D
102
}
330
D
100
AcDbGroup
300

 70
     1
 71
     1
340
DB
340
DD
340
DE
340
DF
  0
GROUP
  5
FB
102
{ACAD_REACTORS
330
D
102
}
330
D
100
AcDbGroup
300

 70
     1
 71
     1
340
FA
340
FC
340
FD
340
FE
340
FF
340
100
340
101
340
102
340
103
340
104
340
105
340
106
340
108
340
109
340
10A
340
10B
340
10C
340
10D
340
10E
340
10F
340
110
340
111
340
112
340
113
340
114
340
115
340
116
340
117
340
118
340
119
340
11A
340
11B
340
11C
340
11D
340
11F
340
120
340
121
340
122
340
123
340
124
340
125
340
126
340
127
340
128
340
129
340
12A
340
12B
340
12C
340
12D
340
12E
340
12F
340
130
340
131
340
132
340
133
340
134
340
135
340
136
340
137
340
138
340
139
340
13A
340
13B
  0
GROUP
  5
107
102
{ACAD_REACTORS
330
D
102
}
330
D
100
AcDbGroup
300

 70
     1
 71
     1
340
106
340
108
340
109
340
10A
  0
GROUP
  5
11E
102
{ACAD_REACTORS
330
D
102
}
330
D
100
AcDbGroup
300

 70
     1
 71
     1
340
11D
340
11F
340
120
340
121
  0
GROUP
  5
165
102
{ACAD_REACTORS
330
D
102
}
330
D
100
AcDbGroup
300

 70
     1
 71
     1
340
164
340
16A
340
1C5
  0
GROUP
  5
AA
102
{ACAD_REACTORS
330
D
102
}
330
D
100
AcDbGroup
300

 70
     1
 71
     1
340
A9
340
AB
340
AC
340
AD
340
AE
340
AF
340
B0
340
B1
  0
GROUP
  5
203
102
{ACAD_REACTORS
330
D
102
}
330
D
100
AcDbGroup
300

 70
     1
 71
     1
340
202
340
204
340
205
  0
GROUP
  5
B3
102
{ACAD_REACTORS
330
D
102
}
330
D
100
AcDbGroup
300

 70
     1
 71
     1
340
B2
340
B4
340
B5
340
B6
340
B7
340
13E
  0
GROUP
  5
B9
102
{ACAD_REACTORS
330
D
102
}
330
D
100
AcDbGroup
300

 70
     1
 71
     1
340
B8
340
BA
340
BB
340
BC
340
BD
340
BE
340
BF
340
C0
340
C1
340
C2
340
C3
340
C4
340
C6
340
C7
340
C8
340
C9
340
CA
340
CB
340
CC
340
CD
340
CE
340
CF
340
D0
340
D1
340
D2
340
D3
340
D4
340
D5
340
D6
340
D7
340
D8
340
D9
340
DA
340
DB
340
DD
340
DE
340
DF
340
E0
340
E1
340
E2
340
E3
340
E4
340
E5
340
E6
340
E7
340
E8
340
E9
340
EA
340
EB
340
EC
340
ED
340
EE
340
EF
340
F0
340
F1
340
F2
340
F3
340
F4
340
F5
340
F6
340
F7
340
F8
340
F9
  0
GROUP
  5
C5
102
{ACAD_REACTORS
330
D
102
}
330
D
100
AcDbGroup
300

 70
     1
 71
     1
340
C4
340
C6
340
C7
340
C8
  0
LAYOUT
  5
1E
102
{ACAD_REACTORS
330
1A
102
}
330
1A
100
AcDbPlotSettings
  1

  2
none_device
  4

  6

 40
0.0
 41
0.0
 42
0.0
 43
0.0
 44
0.0
 45
0.0
 46
0.0
 47
0.0
 48
0.0
 49
0.0
140
0.0
141
0.0
142
1.0
143
1.0
 70
   688
 72
     0
 73
     0
 74
     5
  7

 75
    16
147
1.0
148
0.0
149
0.0
100
AcDbLayout
  1
Layout1
 70
     0
 71
     1
 10
0.0
 20
0.0
 11
12.0
 21
9.0
 12
0.0
 22
0.0
 32
0.0
 14
1.000000000000000E+20
 24
1.000000000000000E+20
 34
1.000000000000000E+20
 15
-1.000000000000000E+20
 25
-1.000000000000000E+20
 35
-1.000000000000000E+20
146
0.0
 13
0.0
 23
0.0
 33
0.0
 16
1.0
 26
0.0
 36
0.0
 17
0.0
 27
1.0
 37
0.0
 76
     0
330
1B
  0
LAYOUT
  5
26
102
{ACAD_REACTORS
330
1A
102
}
330
1A
100
AcDbPlotSettings
  1

  2
none_device
  4

  6

 40
0.0
 41
0.0
 42
0.0
 43
0.0
 44
0.0
 45
0.0
 46
0.0
 47
0.0
 48
0.0
 49
0.0
140
0.0
141
0.0
142
1.0
143
1.0
 70
   688
 72
     0
 73
     0
 74
     5
  7

 75
    16
147
1.0
148
0.0
149
0.0
100
AcDbLayout
  1
Layout2
 70
     1
 71
     2
 10
0.0
 20
0.0
 11
0.0
 21
0.0
 12
0.0
 22
0.0
 32
0.0
 14
0.0
 24
0.0
 34
0.0
 15
0.0
 25
0.0
 35
0.0
146
0.0
 13
0.0
 23
0.0
 33
0.0
 16
1.0
 26
0.0
 36
0.0
 17
0.0
 27
1.0
 37
0.0
 76
     0
330
23
  0
LAYOUT
  5
22
102
{ACAD_REACTORS
330
1A
102
}
330
1A
100
AcDbPlotSettings
  1

  2
none_device
  4
Letter_(8.50_x_11.00_Inches)
  6

 40
6.35
 41
6.35
 42
6.35000508
 43
6.35000508
 44
215.9
 45
279.4
 46
0.0
 47
0.0
 48
0.0
 49
0.0
140
0.0
141
0.0
142
1.0
143
1.0
 70
  1712
 72
     0
 73
     0
 74
     0
  7

 75
     0
147
1.0
148
0.0
149
0.0
100
AcDbLayout
  1
Model
 70
     1
 71
     0
 10
103.3496387244044
 20
39.18753960674163
 11
1097.5417309375
 21
390.3125
 12
0.0
 22
0.0
 32
0.0
 14
103.3496387244044
 24
39.18753960674163
 34
0.0
 15
1097.5417309375
 25
390.3125
 35
0.0
146
0.0
 13
0.0
 23
0.0
 33
0.0
 16
1.0
 26
0.0
 36
0.0
 17
0.0
 27
1.0
 37
0.0
 76
     0
330
1F
331
29
  0
MATERIAL
  5
45
102
{ACAD_REACTORS
330
43
102
}
102
{ACAD_XDICTIONARY
360
3F4
102
}
330
43
100
AcDbMaterial
  1
ByBlock
  0
MATERIAL
  5
44
102
{ACAD_REACTORS
330
43
102
}
102
{ACAD_XDICTIONARY
360
3F2
102
}
330
43
100
AcDbMaterial
  1
ByLayer
  0
MATERIAL
  5
46
102
{ACAD_REACTORS
330
43
102
}
102
{ACAD_XDICTIONARY
360
3F6
102
}
330
43
100
AcDbMaterial
  1
Global
  0
MLEADERSTYLE
  5
6C
102
{ACAD_REACTORS
330
6B
102
}
102
{ACAD_XDICTIONARY
360
3F9
102
}
330
6B
100
AcDbMLeaderStyle
170
     2
171
     1
172
     0
 90
        2
 40
0.0
 41
0.0
173
     1
 91
-1056964608
340
14
 92
       -2
290
     1
 42
0.09
291
     1
 43
0.36
  3
Standard
341
0
 44
0.18
300

342
11
174
     1
178
     6
175
     1
176
     0
 93
-1056964608
 45
0.18
292
     0
297
     0
 46
0.18
343
0
 94
-1056964608
 47
1.0
 49
1.0
140
1.0
293
     1
141
0.0
294
     1
177
     0
142
1.0
295
     0
296
     0
143
0.125
1001
ACAD_MLEADERVER
1070
     2
  0
MLINESTYLE
  5
18
102
{ACAD_REACTORS
330
17
102
}
330
17
100
AcDbMlineStyle
  2
Standard
 70
     0
  3

 62
   256
 51
90.0
 52
90.0
 71
     2
 49
0.5
 62
   256
  6
BYLAYER
 49
-0.5
 62
   256
  6
BYLAYER
  0
ACDBPLACEHOLDER
  5
F
102
{ACAD_REACTORS
330
E
102
}
330
E
  0
SCALE
  5
48
102
{ACAD_REACTORS
330
47
102
}
330
47
100
AcDbScale
 70
     0
300
1:1
140
1.0
141
1.0
290
     1
  0
SCALE
  5
49
102
{ACAD_REACTORS
330
47
102
}
330
47
100
AcDbScale
 70
     0
300
1:2
140
1.0
141
2.0
290
     0
  0
SCALE
  5
4A
102
{ACAD_REACTORS
330
47
102
}
330
47
100
AcDbScale
 70
     0
300
1:4
140
1.0
141
4.0
290
     0
  0
SCALE
  5
4B
102
{ACAD_REACTORS
330
47
102
}
330
47
100
AcDbScale
 70
     0
300
1:5
140
1.0
141
5.0
290
     0
  0
SCALE
  5
4C
102
{ACAD_REACTORS
330
47
102
}
330
47
100
AcDbScale
 70
     0
300
1:8
140
1.0
141
8.0
290
     0
  0
SCALE
  5
4D
102
{ACAD_REACTORS
330
47
102
}
330
47
100
AcDbScale
 70
     0
300
1:10
140
1.0
141
10.0
290
     0
  0
SCALE
  5
4E
102
{ACAD_REACTORS
330
47
102
}
330
47
100
AcDbScale
 70
     0
300
1:16
140
1.0
141
16.0
290
     0
  0
SCALE
  5
4F
102
{ACAD_REACTORS
330
47
102
}
330
47
100
AcDbScale
 70
     0
300
1:20
140
1.0
141
20.0
290
     0
  0
SCALE
  5
50
102
{ACAD_REACTORS
330
47
102
}
330
47
100
AcDbScale
 70
     0
300
1:30
140
1.0
141
30.0
290
     0
  0
SCALE
  5
51
102
{ACAD_REACTORS
330
47
102
}
330
47
100
AcDbScale
 70
     0
300
1:40
140
1.0
141
40.0
290
     0
  0
SCALE
  5
52
102
{ACAD_REACTORS
330
47
102
}
330
47
100
AcDbScale
 70
     0
300
1:50
140
1.0
141
50.0
290
     0
  0
SCALE
  5
53
102
{ACAD_REACTORS
330
47
102
}
330
47
100
AcDbScale
 70
     0
300
1:100
140
1.0
141
100.0
290
     0
  0
SCALE
  5
54
102
{ACAD_REACTORS
330
47
102
}
330
47
100
AcDbScale
 70
     0
300
2:1
140
2.0
141
1.0
290
     0
  0
SCALE
  5
55
102
{ACAD_REACTORS
330
47
102
}
330
47
100
AcDbScale
 70
     0
300
4:1
140
4.0
141
1.0
290
     0
  0
SCALE
  5
56
102
{ACAD_REACTORS
330
47
102
}
330
47
100
AcDbScale
 70
     0
300
8:1
140
8.0
141
1.0
290
     0
  0
SCALE
  5
57
102
{ACAD_REACTORS
330
47
102
}
330
47
100
AcDbScale
 70
     0
300
10:1
140
10.0
141
1.0
290
     0
  0
SCALE
  5
58
102
{ACAD_REACTORS
330
47
102
}
330
47
100
AcDbScale
 70
     0
300
100:1
140
100.0
141
1.0
290
     0
  0
SCALE
  5
59
102
{ACAD_REACTORS
330
47
102
}
330
47
100
AcDbScale
 70
     0
300
1/128" = 1'-0"
140
0.0078125
141
12.0
290
     0
  0
SCALE
  5
5A
102
{ACAD_REACTORS
330
47
102
}
330
47
100
AcDbScale
 70
     0
300
1/64" = 1'-0"
140
0.015625
141
12.0
290
     0
  0
SCALE
  5
5B
102
{ACAD_REACTORS
330
47
102
}
330
47
100
AcDbScale
 70
     0
300
1/32" = 1'-0"
140
0.03125
141
12.0
290
     0
  0
SCALE
  5
5C
102
{ACAD_REACTORS
330
47
102
}
330
47
100
AcDbScale
 70
     0
300
1/16" = 1'-0"
140
0.0625
141
12.0
290
     0
  0
SCALE
  5
5D
102
{ACAD_REACTORS
330
47
102
}
330
47
100
AcDbScale
 70
     0
300
3/32" = 1'-0"
140
0.09375
141
12.0
290
     0
  0
SCALE
  5
5E
102
{ACAD_REACTORS
330
47
102
}
330
47
100
AcDbScale
 70
     0
300
1/8" = 1'-0"
140
0.125
141
12.0
290
     0
  0
SCALE
  5
5F
102
{ACAD_REACTORS
330
47
102
}
330
47
100
AcDbScale
 70
     0
300
3/16" = 1'-0"
140
0.1875
141
12.0
290
     0
  0
SCALE
  5
60
102
{ACAD_REACTORS
330
47
102
}
330
47
100
AcDbScale
 70
     0
300
1/4" = 1'-0"
140
0.25
141
12.0
290
     0
  0
SCALE
  5
61
102
{ACAD_REACTORS
330
47
102
}
330
47
100
AcDbScale
 70
     0
300
3/8" = 1'-0"
140
0.375
141
12.0
290
     0
  0
SCALE
  5
62
102
{ACAD_REACTORS
330
47
102
}
330
47
100
AcDbScale
 70
     0
300
1/2" = 1'-0"
140
0.5
141
12.0
290
     0
  0
SCALE
  5
63
102
{ACAD_REACTORS
330
47
102
}
330
47
100
AcDbScale
 70
     0
300
3/4" = 1'-0"
140
0.75
141
12.0
290
     0
  0
SCALE
  5
64
102
{ACAD_REACTORS
330
47
102
}
330
47
100
AcDbScale
 70
     0
300
1" = 1'-0"
140
1.0
141
12.0
290
     0
  0
SCALE
  5
65
102
{ACAD_REACTORS
330
47
102
}
330
47
100
AcDbScale
 70
     0
300
1-1/2" = 1'-0"
140
1.5
141
12.0
290
     0
  0
SCALE
  5
66
102
{ACAD_REACTORS
330
47
102
}
330
47
100
AcDbScale
 70
     0
300
3" = 1'-0"
140
3.0
141
12.0
290
     0
  0
SCALE
  5
67
102
{ACAD_REACTORS
330
47
102
}
330
47
100
AcDbScale
 70
     0
300
6" = 1'-0"
140
6.0
141
12.0
290
     0
  0
SCALE
  5
68
102
{ACAD_REACTORS
330
47
102
}
330
47
100
AcDbScale
 70
     0
300
1'-0" = 1'-0"
140
12.0
141
12.0
290
     0
  0
TABLESTYLE
  5
6A
102
{ACAD_REACTORS
330
69
102
}
330
69
100
AcDbTableStyle
  3
Standard
 70
     0
 71
     0
 40
0.06
 41
0.06
280
     0
281
     0
  7
Standard
140
0.18
170
     2
 62
     0
 63
   257
283
     0
274
    -2
284
     1
 64
     0
275
    -2
285
     1
 65
     0
276
    -2
286
     1
 66
     0
277
    -2
287
     1
 67
     0
278
    -2
288
     1
 68
     0
279
    -2
289
     1
 69
     0
  7
Standard
140
0.25
170
     5
 62
     0
 63
   257
283
     0
274
    -2
284
     1
 64
     0
275
    -2
285
     1
 65
     0
276
    -2
286
     1
 66
     0
277
    -2
287
     1
 67
     0
278
    -2
288
     1
 68
     0
279
    -2
289
     1
 69
     0
  7
Standard
140
0.18
170
     5
 62
     0
 63
   257
283
     0
274
    -2
284
     1
 64
     0
275
    -2
285
     1
 65
     0
276
    -2
286
     1
 66
     0
277
    -2
287
     1
 67
     0
278
    -2
288
     1
 68
     0
279
    -2
289
     1
 69
     0
  0
VISUALSTYLE
  5
2F
102
{ACAD_REACTORS
330
2A
102
}
102
{ACAD_XDICTIONARY
360
3CA
102
}
330
2A
100
AcDbVisualStyle
  2
2dWireframe
 70
     4
 71
     0
 72
     2
 73
     0
 90
        0
 40
0.6
 41
30.0
 62
     5
 63
     7
 74
     1
 91
        4
 64
     7
 65
   257
 75
     1
175
     1
 42
1.0
 92
        0
 66
   257
 43
1.0
 76
     1
 77
     6
 78
     2
 67
     7
 79
     5
170
     0
171
     0
290
     0
174
     0
 93
        1
 44
0.0
173
     0
291
     0
 45
0.0
1001
ACAD
1000
AcDbSavedByObjectVersion
1070
     0
  0
VISUALSTYLE
  5
32
102
{ACAD_REACTORS
330
2A
102
}
102
{ACAD_XDICTIONARY
360
3D0
102
}
330
2A
100
AcDbVisualStyle
  2
Basic
 70
     7
 71
     1
 72
     0
 73
     1
 90
        0
 40
0.6
 41
30.0
 62
     5
 63
     7
 74
     0
 91
        4
 64
     7
 65
   257
 75
     1
175
     1
 42
1.0
 92
        8
 66
     7
 43
1.0
 76
     1
 77
     6
 78
     2
 67
     7
 79
     5
170
     0
171
     0
290
     0
174
     0
 93
        1
 44
0.0
173
     0
291
     1
 45
0.0
1001
ACAD
1000
AcDbSavedByObjectVersion
1070
     0
  0
VISUALSTYLE
  5
36
102
{ACAD_REACTORS
330
2A
102
}
102
{ACAD_XDICTIONARY
360
3D8
102
}
330
2A
100
AcDbVisualStyle
  2
Brighten
 70
    12
 71
     2
 72
     2
 73
     0
 90
        0
 40
0.6
 41
30.0
 62
     5
 63
     7
 74
     1
 91
        4
 64
     7
 65
   257
 75
     1
175
     1
 42
1.0
 92
        8
 66
     7
 43
1.0
 76
     1
 77
     6
 78
     2
 67
     7
 79
     5
170
     0
171
     0
290
     0
174
     0
 93
        1
 44
50.0
173
     0
291
     1
 45
0.0
1001
ACAD
1000
AcDbSavedByObjectVersion
1070
     0
  0
VISUALSTYLE
  5
3A
102
{ACAD_REACTORS
330
2A
102
}
102
{ACAD_XDICTIONARY
360
3E0
102
}
330
2A
100
AcDbVisualStyle
  2
ColorChange
 70
    16
 71
     2
 72
     2
 73
     3
 90
        0
 40
0.6
 41
30.0
 62
     5
 63
     8
 74
     1
 91
        4
 64
     7
 65
   257
 75
     1
175
     1
 42
1.0
 92
        8
 66
     8
 43
1.0
 76
     1
 77
     6
 78
     2
 67
     7
 79
     5
170
     0
171
     0
290
     0
174
     0
 93
        1
 44
0.0
173
     0
291
     1
 45
0.0
1001
ACAD
1000
AcDbSavedByObjectVersion
1070
     0
  0
VISUALSTYLE
  5
34
102
{ACAD_REACTORS
330
2A
102
}
102
{ACAD_XDICTIONARY
360
3D4
102
}
330
2A
100
AcDbVisualStyle
  2
Conceptual
 70
     9
 71
     3
 72
     2
 73
     0
 90
        0
 40
0.6
 41
30.0
 62
     5
 63
     7
 74
     2
 91
        2
 64
     7
 65
   257
 75
     1
175
     1
 42
179.0
 92
        8
 66
     7
 43
1.0
 76
     1
 77
     6
 78
     2
 67
     7
 79
     3
170
     0
171
     0
290
     0
174
     0
 93
        1
 44
0.0
173
     0
291
     0
 45
0.0
1001
ACAD
1000
AcDbSavedByObjectVersion
1070
     0
  0
VISUALSTYLE
  5
35
102
{ACAD_REACTORS
330
2A
102
}
102
{ACAD_XDICTIONARY
360
3D6
102
}
330
2A
100
AcDbVisualStyle
  2
Dim
 70
    11
 71
     2
 72
     2
 73
     0
 90
        0
 40
0.6
 41
30.0
 62
     5
 63
     7
 74
     1
 91
        4
 64
     7
 65
   257
 75
     1
175
     1
 42
1.0
 92
        8
 66
     7
 43
1.0
 76
     1
 77
     6
 78
     2
 67
     7
 79
     5
170
     0
171
     0
290
     0
174
     0
 93
        1
 44
-50.0
173
     0
291
     1
 45
0.0
1001
ACAD
1000
AcDbSavedByObjectVersion
1070
     0
  0
VISUALSTYLE
  5
3D
102
{ACAD_REACTORS
330
2A
102
}
102
{ACAD_XDICTIONARY
360
3E6
102
}
330
2A
100
AcDbVisualStyle
  2
EdgeColorOff
 70
    22
 71
     2
 72
     2
 73
     0
 90
        0
 40
0.6
 41
30.0
 62
     5
 63
     7
 74
     1
 91
        4
 64
     7
 65
   257
 75
     1
175
     1
 42
1.0
 92
        8
 66
     7
 43
1.0
 76
     1
 77
     6
 78
     2
 67
     7
 79
     5
170
     0
171
     0
290
     0
174
     0
 93
        1
 44
0.0
173
     0
291
     1
 45
0.0
1001
ACAD
1000
AcDbSavedByObjectVersion
1070
     0
  0
VISUALSTYLE
  5
39
102
{ACAD_REACTORS
330
2A
102
}
102
{ACAD_XDICTIONARY
360
3DE
102
}
330
2A
100
AcDbVisualStyle
  2
Facepattern
 70
    15
 71
     2
 72
     2
 73
     0
 90
        0
 40
0.6
 41
30.0
 62
     5
 63
     7
 74
     1
 91
        4
 64
     7
 65
   257
 75
     1
175
     1
 42
1.0
 92
        8
 66
     7
 43
1.0
 76
     1
 77
     6
 78
     2
 67
     7
 79
     5
170
     0
171
     0
290
     0
174
     0
 93
        1
 44
0.0
173
     0
291
     1
 45
0.0
1001
ACAD
1000
AcDbSavedByObjectVersion
1070
     0
  0
VISUALSTYLE
  5
2B
102
{ACAD_REACTORS
330
2A
102
}
102
{ACAD_XDICTIONARY
360
3C2
102
}
330
2A
100
AcDbVisualStyle
  2
Flat
 70
     0
 71
     2
 72
     1
 73
     1
 90
        2
 40
0.6
 41
30.0
 62
     5
 63
     7
 74
     0
 91
        0
 64
     7
 65
   257
 75
     1
175
     1
 42
1.0
 92
        8
 66
     7
 43
1.0
 76
     1
 77
     6
 78
     2
 67
     7
 79
     5
170
     0
171
     0
290
     0
174
     0
 93
       13
 44
0.0
173
     0
291
     1
 45
0.0
1001
ACAD
1000
AcDbSavedByObjectVersion
1070
     0
  0
VISUALSTYLE
  5
2C
102
{ACAD_REACTORS
330
2A
102
}
102
{ACAD_XDICTIONARY
360
3C4
102
}
330
2A
100
AcDbVisualStyle
  2
FlatWithEdges
 70
     1
 71
     2
 72
     1
 73
     1
 90
        2
 40
0.6
 41
30.0
 62
     5
 63
     7
 74
     1
 91
        0
 64
     7
 65
   257
 75
     1
175
     1
 42
1.0
 92
        0
 66
   257
 43
1.0
 76
     1
 77
     6
 78
     2
 67
     7
 79
     5
170
     0
171
     0
290
     0
174
     0
 93
       13
 44
0.0
173
     0
291
     1
 45
0.0
1001
ACAD
1000
AcDbSavedByObjectVersion
1070
     0
  0
VISUALSTYLE
  5
2D
102
{ACAD_REACTORS
330
2A
102
}
102
{ACAD_XDICTIONARY
360
3C6
102
}
330
2A
100
AcDbVisualStyle
  2
Gouraud
 70
     2
 71
     2
 72
     2
 73
     1
 90
        2
 40
0.6
 41
30.0
 62
     5
 63
     7
 74
     0
 91
        0
 64
     7
 65
   257
 75
     1
175
     1
 42
1.0
 92
        0
 66
     7
 43
1.0
 76
     1
 77
     6
 78
     2
 67
     7
 79
     5
170
     0
171
     0
290
     0
174
     0
 93
       13
 44
0.0
173
     0
291
     1
 45
0.0
1001
ACAD
1000
AcDbSavedByObjectVersion
1070
     0
  0
VISUALSTYLE
  5
2E
102
{ACAD_REACTORS
330
2A
102
}
102
{ACAD_XDICTIONARY
360
3C8
102
}
330
2A
100
AcDbVisualStyle
  2
GouraudWithEdges
 70
     3
 71
     2
 72
     2
 73
     1
 90
        2
 40
0.6
 41
30.0
 62
     5
 63
     7
 74
     1
 91
        0
 64
     7
 65
   257
 75
     1
175
     1
 42
1.0
 92
        0
 66
   257
 43
1.0
 76
     1
 77
     6
 78
     2
 67
     7
 79
     5
170
     0
171
     0
290
     0
174
     0
 93
       13
 44
0.0
173
     0
291
     1
 45
0.0
1001
ACAD
1000
AcDbSavedByObjectVersion
1070
     0
  0
VISUALSTYLE
  5
31
102
{ACAD_REACTORS
330
2A
102
}
102
{ACAD_XDICTIONARY
360
3CE
102
}
330
2A
100
AcDbVisualStyle
  2
Hidden
 70
     6
 71
     1
 72
     2
 73
     2
 90
        0
 40
0.6
 41
30.0
 62
     5
 63
     7
 74
     2
 91
        2
 64
     7
 65
   257
 75
     2
175
     1
 42
40.0
 92
        0
 66
   257
 43
1.0
 76
     1
 77
     6
 78
     2
 67
     7
 79
     3
170
     0
171
     0
290
     0
174
     0
 93
        1
 44
0.0
173
     0
291
     0
 45
0.0
1001
ACAD
1000
AcDbSavedByObjectVersion
1070
     0
  0
VISUALSTYLE
  5
3B
102
{ACAD_REACTORS
330
2A
102
}
102
{ACAD_XDICTIONARY
360
3E2
102
}
330
2A
100
AcDbVisualStyle
  2
JitterOff
 70
    20
 71
     2
 72
     2
 73
     0
 90
        0
 40
0.6
 41
30.0
 62
     5
 63
     7
 74
     1
 91
        4
 64
     7
 65
   257
 75
     1
175
     1
 42
1.0
 92
       10
 66
     7
 43
1.0
 76
     1
 77
     6
 78
     2
 67
     7
 79
     5
170
     0
171
     0
290
     0
174
     0
 93
        1
 44
0.0
173
     0
291
     1
 45
0.0
1001
ACAD
1000
AcDbSavedByObjectVersion
1070
     0
  0
VISUALSTYLE
  5
38
102
{ACAD_REACTORS
330
2A
102
}
102
{ACAD_XDICTIONARY
360
3DC
102
}
330
2A
100
AcDbVisualStyle
  2
Linepattern
 70
    14
 71
     2
 72
     2
 73
     0
 90
        0
 40
0.6
 41
30.0
 62
     5
 63
     7
 74
     1
 91
        4
 64
     7
 65
   257
 75
     7
175
     7
 42
1.0
 92
        8
 66
     7
 43
1.0
 76
     1
 77
     6
 78
     2
 67
     7
 79
     5
170
     0
171
     0
290
     0
174
     0
 93
        1
 44
0.0
173
     0
291
     1
 45
0.0
1001
ACAD
1000
AcDbSavedByObjectVersion
1070
     0
  0
VISUALSTYLE
  5
3C
102
{ACAD_REACTORS
330
2A
102
}
102
{ACAD_XDICTIONARY
360
3E4
102
}
330
2A
100
AcDbVisualStyle
  2
OverhangOff
 70
    21
 71
     2
 72
     2
 73
     0
 90
        0
 40
0.6
 41
30.0
 62
     5
 63
     7
 74
     1
 91
        4
 64
     7
 65
   257
 75
     1
175
     1
 42
1.0
 92
        9
 66
     7
 43
1.0
 76
     1
 77
     6
 78
     2
 67
     7
 79
     5
170
     0
171
     0
290
     0
174
     0
 93
        1
 44
0.0
173
     0
291
     1
 45
0.0
1001
ACAD
1000
AcDbSavedByObjectVersion
1070
     0
  0
VISUALSTYLE
  5
33
102
{ACAD_REACTORS
330
2A
102
}
102
{ACAD_XDICTIONARY
360
3D2
102
}
330
2A
100
AcDbVisualStyle
  2
Realistic
 70
     8
 71
     2
 72
     3
 73
     0
 90
        2
 40
0.6
 41
30.0
 62
     5
 63
     7
 74
     0
 91
        0
 64
     7
 65
   257
 75
     1
175
     1
 42
1.0
 92
        8
 66
   257
 43
1.0
 76
     1
 77
     6
 78
     2
 67
     7
 79
     3
170
     0
171
     0
290
     0
174
     0
 93
       13
 44
0.0
173
     0
291
     0
 45
0.0
1001
ACAD
1000
AcDbSavedByObjectVersion
1070
     0
  0
VISUALSTYLE
  5
42
102
{ACAD_REACTORS
330
2A
102
}
102
{ACAD_XDICTIONARY
360
3F0
102
}
330
2A
100
AcDbVisualStyle
  2
Shaded
 70
    27
 71
     2
 72
     2
 73
     1
 90
        2
 40
0.6
 41
30.0
 62
     5
 63
     7
 74
     0
 91
        4
 64
     7
 65
   257
 75
     1
175
     1
 42
1.0
 92
        8
 66
   257
 43
1.0
 76
     1
 77
     6
 78
     2
 67
     8
 79
     3
170
     0
171
     0
290
     0
174
     0
 93
        5
 44
0.0
173
     0
291
     0
 45
0.0
1001
ACAD
1000
AcDbSavedByObjectVersion
1070
     0
  0
VISUALSTYLE
  5
41
102
{ACAD_REACTORS
330
2A
102
}
102
{ACAD_XDICTIONARY
360
3EE
102
}
330
2A
100
AcDbVisualStyle
  2
Shaded with edges
 70
    26
 71
     2
 72
     2
 73
     1
 90
        2
 40
0.6
 41
30.0
 62
     5
 63
     7
 74
     1
 91
       10
 64
     7
 65
   257
 75
     2
175
     1
 42
1.0
 92
        8
 66
   257
 43
1.0
 76
     1
 77
     6
 78
     2
 67
     7
 79
     3
170
     0
171
     0
290
     0
174
     0
 93
        5
 44
0.0
173
     0
291
     0
 45
0.0
1001
ACAD
1000
AcDbSavedByObjectVersion
1070
     0
  0
VISUALSTYLE
  5
3E
102
{ACAD_REACTORS
330
2A
102
}
102
{ACAD_XDICTIONARY
360
3E8
102
}
330
2A
100
AcDbVisualStyle
  2
Shades of Gray
 70
    23
 71
     2
 72
     2
 73
     3
 90
        0
 40
0.6
 41
30.0
 62
     5
 63
     7
 74
     2
 91
        2
 64
     7
 65
     7
 75
     1
175
     1
 42
40.0
 92
        8
 66
     7
 43
1.0
 76
     1
 77
     6
 78
     2
 67
     7
 79
     3
170
     0
171
     0
290
     0
174
     0
 93
        1
 44
0.0
173
     0
291
     0
 45
0.0
1001
ACAD
1000
AcDbSavedByObjectVersion
1070
     0
  0
VISUALSTYLE
  5
3F
102
{ACAD_REACTORS
330
2A
102
}
102
{ACAD_XDICTIONARY
360
3EA
102
}
330
2A
100
AcDbVisualStyle
  2
Sketchy
 70
    24
 71
     1
 72
     2
 73
     2
 90
        0
 40
0.6
 41
30.0
 62
     5
 63
     7
 74
     2
 91
        2
 64
     7
 65
     7
 75
     1
175
     1
 42
40.0
 92
       11
 66
     7
 43
1.0
 76
     1
 77
     6
 78
     2
 67
     7
 79
     6
170
     0
171
     0
290
     0
174
     0
 93
        1
 44
0.0
173
     0
291
     0
 45
0.0
1001
ACAD
1000
AcDbSavedByObjectVersion
1070
     0
  0
VISUALSTYLE
  5
37
102
{ACAD_REACTORS
330
2A
102
}
102
{ACAD_XDICTIONARY
360
3DA
102
}
330
2A
100
AcDbVisualStyle
  2
Thicken
 70
    13
 71
     2
 72
     2
 73
     0
 90
        0
 40
0.6
 41
30.0
 62
     5
 63
     7
 74
     1
 91
        4
 64
     7
 65
   257
 75
     1
175
     1
 42
1.0
 92
       12
 66
     7
 43
1.0
 76
     1
 77
     6
 78
     2
 67
     7
 79
     5
170
     0
171
     0
290
     0
174
     0
 93
        1
 44
0.0
173
     0
291
     1
 45
0.0
1001
ACAD
1000
AcDbSavedByObjectVersion
1070
     0
  0
VISUALSTYLE
  5
30
102
{ACAD_REACTORS
330
2A
102
}
102
{ACAD_XDICTIONARY
360
3CC
102
}
330
2A
100
AcDbVisualStyle
  2
Wireframe
 70
     5
 71
     0
 72
     2
 73
     0
 90
        0
 40
0.6
 41
30.0
 62
     5
 63
     7
 74
     1
 91
        4
 64
     7
 65
   257
 75
     1
175
     1
 42
1.0
 92
        0
 66
   257
 43
1.0
 76
     1
 77
     6
 78
     2
 67
     7
 79
     3
170
     0
171
     0
290
     0
174
     0
 93
        1
 44
0.0
173
     0
291
     0
 45
0.0
1001
ACAD
1000
AcDbSavedByObjectVersion
1070
     0
  0
VISUALSTYLE
  5
40
102
{ACAD_REACTORS
330
2A
102
}
102
{ACAD_XDICTIONARY
360
3EC
102
}
330
2A
100
AcDbVisualStyle
  2
X-Ray
 70
    25
 71
     2
 72
     2
 73
     1
 90
        1
 40
0.5
 41
30.0
 62
     5
 63
     7
 74
     1
 91
        0
 64
     7
 65
   257
 75
     1
175
     1
 42
1.0
 92
        8
 66
     7
 43
1.0
 76
     1
 77
     6
 78
     2
 67
     7
 79
     3
170
     0
171
     0
290
     0
174
     0
 93
       13
 44
0.0
173
     0
291
     0
 45
0.0
1001
ACAD
1000
AcDbSavedByObjectVersion
1070
     0
  0
DICTIONARYVAR
  5
3C0
102
{ACAD_REACTORS
330
3B7
102
}
330
3B7
100
DictionaryVariables
280
     0
  1
1:1
  0
DICTIONARYVAR
  5
3B9
102
{ACAD_REACTORS
330
3B7
102
}
330
3B7
100
DictionaryVariables
280
     0
  1
Standard
  0
DICTIONARYVAR
  5
3B8
102
{ACAD_REACTORS
330
3B7
102
}
330
3B7
100
DictionaryVariables
280
     0
  1
Standard
  0
DICTIONARYVAR
  5
3BC
102
{ACAD_REACTORS
330
3B7
102
}
330
3B7
100
DictionaryVariables
280
     0
  1
2
  0
DICTIONARYVAR
  5
3BD
102
{ACAD_REACTORS
330
3B7
102
}
330
3B7
100
DictionaryVariables
280
     0
  1
1
  0
DICTIONARYVAR
  5
3C1
102
{ACAD_REACTORS
330
3B7
102
}
330
3B7
100
DictionaryVariables
280
     0
  1
1
  0
DICTIONARY
  5
3F4
330
45
100
AcDbDictionary
280
     1
281
     1
  3
ACAD_XREC_ROUNDTRIP
360
3F5
  0
DICTIONARY
  5
3F2
330
44
100
AcDbDictionary
280
     1
281
     1
  3
ACAD_XREC_ROUNDTRIP
360
3F3
  0
DICTIONARY
  5
3F6
330
46
100
AcDbDictionary
280
     1
281
     1
  3
ACAD_XREC_ROUNDTRIP
360
3F7
  0
DICTIONARY
  5
3F9
330
6C
100
AcDbDictionary
280
     1
281
     1
  3
ACAD_XREC_ROUNDTRIP
360
3FA
  0
DICTIONARY
  5
3CA
330
2F
100
AcDbDictionary
280
     1
281
     1
  3
ACAD_XREC_ROUNDTRIP
360
3CB
  0
DICTIONARY
  5
3D0
330
32
100
AcDbDictionary
280
     1
281
     1
  3
ACAD_XREC_ROUNDTRIP
360
3D1
  0
DICTIONARY
  5
3D8
330
36
100
AcDbDictionary
280
     1
281
     1
  3
ACAD_XREC_ROUNDTRIP
360
3D9
  0
DICTIONARY
  5
3E0
330
3A
100
AcDbDictionary
280
     1
281
     1
  3
ACAD_XREC_ROUNDTRIP
360
3E1
  0
DICTIONARY
  5
3D4
330
34
100
AcDbDictionary
280
     1
281
     1
  3
ACAD_XREC_ROUNDTRIP
360
3D5
  0
DICTIONARY
  5
3D6
330
35
100
AcDbDictionary
280
     1
281
     1
  3
ACAD_XREC_ROUNDTRIP
360
3D7
  0
DICTIONARY
  5
3E6
330
3D
100
AcDbDictionary
280
     1
281
     1
  3
ACAD_XREC_ROUNDTRIP
360
3E7
  0
DICTIONARY
  5
3DE
330
39
100
AcDbDictionary
280
     1
281
     1
  3
ACAD_XREC_ROUNDTRIP
360
3DF
  0
DICTIONARY
  5
3C2
330
2B
100
AcDbDictionary
280
     1
281
     1
  3
ACAD_XREC_ROUNDTRIP
360
3C3
  0
DICTIONARY
  5
3C4
330
2C
100
AcDbDictionary
280
     1
281
     1
  3
ACAD_XREC_ROUNDTRIP
360
3C5
  0
DICTIONARY
  5
3C6
330
2D
100
AcDbDictionary
280
     1
281
     1
  3
ACAD_XREC_ROUNDTRIP
360
3C7
  0
DICTIONARY
  5
3C8
330
2E
100
AcDbDictionary
280
     1
281
     1
  3
ACAD_XREC_ROUNDTRIP
360
3C9
  0
DICTIONARY
  5
3CE
330
31
100
AcDbDictionary
280
     1
281
     1
  3
ACAD_XREC_ROUNDTRIP
360
3CF
  0
DICTIONARY
  5
3E2
330
3B
100
AcDbDictionary
280
     1
281
     1
  3
ACAD_XREC_ROUNDTRIP
360
3E3
  0
DICTIONARY
  5
3DC
330
38
100
AcDbDictionary
280
     1
281
     1
  3
ACAD_XREC_ROUNDTRIP
360
3DD
  0
DICTIONARY
  5
3E4
330
3C
100
AcDbDictionary
280
     1
281
     1
  3
ACAD_XREC_ROUNDTRIP
360
3E5
  0
DICTIONARY
  5
3D2
330
33
100
AcDbDictionary
280
     1
281
     1
  3
ACAD_XREC_ROUNDTRIP
360
3D3
  0
DICTIONARY
  5
3F0
330
42
100
AcDbDictionary
280
     1
281
     1
  3
ACAD_XREC_ROUNDTRIP
360
3F1
  0
DICTIONARY
  5
3EE
330
41
100
AcDbDictionary
280
     1
281
     1
  3
ACAD_XREC_ROUNDTRIP
360
3EF
  0
DICTIONARY
  5
3E8
330
3E
100
AcDbDictionary
280
     1
281
     1
  3
ACAD_XREC_ROUNDTRIP
360
3E9
  0
DICTIONARY
  5
3EA
330
3F
100
AcDbDictionary
280
     1
281
     1
  3
ACAD_XREC_ROUNDTRIP
360
3EB
  0
DICTIONARY
  5
3DA
330
37
100
AcDbDictionary
280
     1
281
     1
  3
ACAD_XREC_ROUNDTRIP
360
3DB
  0
DICTIONARY
  5
3CC
330
30
100
AcDbDictionary
280
     1
281
     1
  3
ACAD_XREC_ROUNDTRIP
360
3CD
  0
DICTIONARY
  5
3EC
330
40
100
AcDbDictionary
280
     1
281
     1
  3
ACAD_XREC_ROUNDTRIP
360
3ED
  0
XRECORD
  5
3F5
102
{ACAD_REACTORS
330
3F4
102
}
330
3F4
100
AcDbXrecord
280
     1
102
MATERIAL
148
0.0
149
0.0
149
0.0
 93
        0
 94
      127
282
     0
 72
     1
 77
     1
171
     1
175
     1
179
     1
273
     0
  0
XRECORD
  5
3F3
102
{ACAD_REACTORS
330
3F2
102
}
330
3F2
100
AcDbXrecord
280
     1
102
MATERIAL
148
0.0
149
0.0
149
0.0
 93
        0
 94
      127
282
     0
 72
     1
 77
     1
171
     1
175
     1
179
     1
273
     0
  0
XRECORD
  5
3F7
102
{ACAD_REACTORS
330
3F6
102
}
330
3F6
100
AcDbXrecord
280
     1
102
MATERIAL
148
0.0
149
0.0
149
0.0
 93
        0
 94
      127
282
     0
 72
     1
 77
     1
171
     1
175
     1
179
     1
273
     0
  0
XRECORD
  5
3FA
102
{ACAD_REACTORS
330
3F9
102
}
330
3F9
100
AcDbXrecord
280
     1
102
ACAD_ROUNDTRIP_2010_MLEADER_STYLE
  0
XRECORD
  5
3CB
102
{ACAD_REACTORS
330
3CA
102
}
330
3CA
100
AcDbXrecord
280
     1
102
RTVSPropertyOp0
 70
     1
102
RTVSPropertyOp1
 70
     1
102
RTVSPropertyOp2
 70
     1
102
RTVSPropertyOp3
 70
     1
102
RTVSPropertyOp4
 70
     1
102
RTVSPropertyOp5
 70
     1
102
RTVSPropertyOp6
 70
     1
102
RTVSPropertyOp7
 70
     1
102
RTVSPropertyOp8
 70
     1
102
RTVSPropertyOp9
 70
     1
102
RTVSPropertyOp10
 70
     1
102
RTVSPropertyOp11
 70
     1
102
RTVSPropertyOp12
 70
     1
102
RTVSPropertyOp13
 70
     1
102
RTVSPropertyOp14
 70
     1
102
RTVSPropertyOp15
 70
     1
102
RTVSPropertyOp16
 70
     1
102
RTVSPropertyOp17
 70
     1
102
RTVSPropertyOp18
 70
     1
102
RTVSPropertyOp19
 70
     1
102
RTVSPropertyOp20
 70
     1
102
RTVSPropertyOp21
 70
     1
102
RTVSPropertyOp22
 70
     1
102
RTVSPropertyOp23
 70
     1
102
RTVSPropertyOp24
 70
     1
102
RTVSPropertyOp25
 70
     1
102
RTVSPropertyOp26
 70
     1
102
RTVSPropertyOp27
 70
     1
102
RTVSPropertyOp28
 70
     1
102
RTVSPropertyOp29
 70
     1
102
RTVSPropertyOp30
 70
     1
102
RTVSPropertyOp31
 70
     1
102
RTVSPropertyOp32
 70
     1
102
RTVSPropertyOp33
 70
     1
102
RTVSPropertyOp34
 70
     1
102
RTVSPropertyOp35
 70
     1
102
RTVSPropertyOp36
 70
     1
102
RTVSPropertyOp37
 70
     1
102
RTVSPropertyOp38
 70
     1
102
RTVSPropertyOp39
 70
     1
102
RTVSPropertyOp40
 70
     1
102
RTVSPropertyOp41
 70
     1
102
RTVSPropertyOp42
 70
     1
102
RTVSPropertyOp43
 70
     1
102
RTVSPropertyOp44
 70
     1
102
RTVSPropertyOp45
 70
     1
102
RTVSPropertyOp46
 70
     1
102
RTVSPropertyOp47
 70
     1
102
RTVSPropertyOp48
 70
     1
102
RTVSPropertyOp49
 70
     1
102
RTVSPropertyOp50
 70
     1
102
RTVSPropertyOp51
 70
     0
102
RTVSPropertyOp52
 70
     0
102
RTVSPropertyOp53
 70
     1
102
RTVSPropertyOp54
 70
     1
102
RTVSPropertyOp55
 70
     1
102
RTVSPropertyOp56
 70
     1
102
RTVSPropertyOp57
 70
     1
102
RTVSPost2010Prop28
280
     1
102
RTVSPost2010PropOp28
 70
     1
102
RTVSPost2010Prop29
280
     1
102
RTVSPost2010PropOp29
 70
     1
102
RTVSPost2010Prop30
280
     0
102
RTVSPost2010PropOp30
 70
     1
102
RTVSPost2010Prop31
280
     0
102
RTVSPost2010PropOp31
 70
     1
102
RTVSPost2010Prop32
280
     0
102
RTVSPost2010PropOp32
 70
     1
102
RTVSPost2010Prop33
280
     0
102
RTVSPost2010PropOp33
 70
     1
102
RTVSPost2010Prop34
280
     0
102
RTVSPost2010PropOp34
 70
     1
102
RTVSPost2010Prop35
280
     0
102
RTVSPost2010PropOp35
 70
     1
102
RTVSPost2010Prop36
280
     0
102
RTVSPost2010PropOp36
 70
     1
102
RTVSPost2010Prop37
 90
       50
102
RTVSPost2010PropOp37
 70
     1
102
RTVSPost2010Prop38
140
0.0
102
RTVSPost2010PropOp38
 70
     1
102
RTVSPost2010Prop39
140
1.0
102
RTVSPost2010PropOp39
 70
     1
102
RTVSPost2010Prop40
 90
        0
102
RTVSPost2010PropOp40
 70
     1
102
RTVSPost2010Prop41ColorIndex
 90
       18
102
RTVSPost2010Prop41ColorRGB
 90
        0
102
RTVSPost2010PropOp41
 70
     1
102
RTVSPost2010Prop42
 90
       50
102
RTVSPost2010PropOp42
 70
     1
102
RTVSPost2010Prop43
 90
        3
102
RTVSPost2010PropOp43
 70
     1
102
RTVSPost2010Prop44ColorIndex
 90
        5
102
RTVSPost2010Prop44ColorRGB
 90
      255
102
RTVSPost2010PropOp44
 70
     1
102
RTVSPost2010Prop45
280
     0
102
RTVSPost2010PropOp45
 70
     1
102
RTVSPost2010Prop46
 90
       50
102
RTVSPost2010PropOp46
 70
     1
102
RTVSPost2010Prop47
 90
       50
102
RTVSPost2010PropOp47
 70
     1
102
RTVSPost2010Prop48
 90
       50
102
RTVSPost2010PropOp48
 70
     1
102
RTVSPost2010Prop49
280
     0
102
RTVSPost2010PropOp49
 70
     1
102
RTVSPost2010Prop50
 90
       50
102
RTVSPost2010PropOp50
 70
     1
102
RTVSPost2010Prop51ColorIndex
 90
      256
102
RTVSPost2010Prop51ColorRGB
 90
-16777216
102
RTVSPost2010PropOp51
 70
     0
102
RTVSPost2010Prop52
140
1.0
102
RTVSPost2010PropOp52
 70
     0
102
RTVSPost2010Prop53
 90
        2
102
RTVSPost2010PropOp53
 70
     1
102
RTVSPost2010Prop54
  1
strokes_ogs.tif
102
RTVSPost2010PropOp54
 70
     1
102
RTVSPost2010Prop55
280
     0
102
RTVSPost2010PropOp55
 70
     1
102
RTVSPost2010Prop56
140
1.0
102
RTVSPost2010PropOp56
 70
     1
102
RTVSPost2010Prop57
140
1.0
102
RTVSPost2010PropOp57
 70
     1
  0
XRECORD
  5
3D1
102
{ACAD_REACTORS
330
3D0
102
}
330
3D0
100
AcDbXrecord
280
     1
102
RTVSPropertyOp0
 70
     1
102
RTVSPropertyOp1
 70
     1
102
RTVSPropertyOp2
 70
     1
102
RTVSPropertyOp3
 70
     1
102
RTVSPropertyOp4
 70
     1
102
RTVSPropertyOp5
 70
     1
102
RTVSPropertyOp6
 70
     1
102
RTVSPropertyOp7
 70
     1
102
RTVSPropertyOp8
 70
     1
102
RTVSPropertyOp9
 70
     1
102
RTVSPropertyOp10
 70
     1
102
RTVSPropertyOp11
 70
     1
102
RTVSPropertyOp12
 70
     1
102
RTVSPropertyOp13
 70
     1
102
RTVSPropertyOp14
 70
     1
102
RTVSPropertyOp15
 70
     1
102
RTVSPropertyOp16
 70
     1
102
RTVSPropertyOp17
 70
     1
102
RTVSPropertyOp18
 70
     1
102
RTVSPropertyOp19
 70
     1
102
RTVSPropertyOp20
 70
     1
102
RTVSPropertyOp21
 70
     1
102
RTVSPropertyOp22
 70
     1
102
RTVSPropertyOp23
 70
     1
102
RTVSPropertyOp24
 70
     1
102
RTVSPropertyOp25
 70
     1
102
RTVSPropertyOp26
 70
     1
102
RTVSPropertyOp27
 70
     1
102
RTVSPropertyOp28
 70
     1
102
RTVSPropertyOp29
 70
     1
102
RTVSPropertyOp30
 70
     1
102
RTVSPropertyOp31
 70
     1
102
RTVSPropertyOp32
 70
     1
102
RTVSPropertyOp33
 70
     1
102
RTVSPropertyOp34
 70
     1
102
RTVSPropertyOp35
 70
     1
102
RTVSPropertyOp36
 70
     1
102
RTVSPropertyOp37
 70
     1
102
RTVSPropertyOp38
 70
     1
102
RTVSPropertyOp39
 70
     1
102
RTVSPropertyOp40
 70
     1
102
RTVSPropertyOp41
 70
     1
102
RTVSPropertyOp42
 70
     1
102
RTVSPropertyOp43
 70
     1
102
RTVSPropertyOp44
 70
     1
102
RTVSPropertyOp45
 70
     1
102
RTVSPropertyOp46
 70
     1
102
RTVSPropertyOp47
 70
     1
102
RTVSPropertyOp48
 70
     1
102
RTVSPropertyOp49
 70
     1
102
RTVSPropertyOp50
 70
     1
102
RTVSPropertyOp51
 70
     0
102
RTVSPropertyOp52
 70
     0
102
RTVSPropertyOp53
 70
     1
102
RTVSPropertyOp54
 70
     1
102
RTVSPropertyOp55
 70
     1
102
RTVSPropertyOp56
 70
     1
102
RTVSPropertyOp57
 70
     1
102
RTVSPost2010Prop28
280
     0
102
RTVSPost2010PropOp28
 70
     1
102
RTVSPost2010Prop29
280
     1
102
RTVSPost2010PropOp29
 70
     1
102
RTVSPost2010Prop30
280
     1
102
RTVSPost2010PropOp30
 70
     1
102
RTVSPost2010Prop31
280
     0
102
RTVSPost2010PropOp31
 70
     1
102
RTVSPost2010Prop32
280
     0
102
RTVSPost2010PropOp32
 70
     1
102
RTVSPost2010Prop33
280
     0
102
RTVSPost2010PropOp33
 70
     1
102
RTVSPost2010Prop34
280
     0
102
RTVSPost2010PropOp34
 70
     1
102
RTVSPost2010Prop35
280
     0
102
RTVSPost2010PropOp35
 70
     1
102
RTVSPost2010Prop36
280
     0
102
RTVSPost2010PropOp36
 70
     1
102
RTVSPost2010Prop37
 90
       50
102
RTVSPost2010PropOp37
 70
     1
102
RTVSPost2010Prop38
140
0.0
102
RTVSPost2010PropOp38
 70
     1
102
RTVSPost2010Prop39
140
1.0
102
RTVSPost2010PropOp39
 70
     1
102
RTVSPost2010Prop40
 90
        0
102
RTVSPost2010PropOp40
 70
     1
102
RTVSPost2010Prop41ColorIndex
 90
       18
102
RTVSPost2010Prop41ColorRGB
 90
        0
102
RTVSPost2010PropOp41
 70
     1
102
RTVSPost2010Prop42
 90
       50
102
RTVSPost2010PropOp42
 70
     1
102
RTVSPost2010Prop43
 90
        3
102
RTVSPost2010PropOp43
 70
     1
102
RTVSPost2010Prop44ColorIndex
 90
        5
102
RTVSPost2010Prop44ColorRGB
 90
      255
102
RTVSPost2010PropOp44
 70
     1
102
RTVSPost2010Prop45
280
     0
102
RTVSPost2010PropOp45
 70
     1
102
RTVSPost2010Prop46
 90
       50
102
RTVSPost2010PropOp46
 70
     1
102
RTVSPost2010Prop47
 90
       50
102
RTVSPost2010PropOp47
 70
     1
102
RTVSPost2010Prop48
 90
       50
102
RTVSPost2010PropOp48
 70
     1
102
RTVSPost2010Prop49
280
     0
102
RTVSPost2010PropOp49
 70
     1
102
RTVSPost2010Prop50
 90
       50
102
RTVSPost2010PropOp50
 70
     1
102
RTVSPost2010Prop51ColorIndex
 90
      256
102
RTVSPost2010Prop51ColorRGB
 90
-16777216
102
RTVSPost2010PropOp51
 70
     0
102
RTVSPost2010Prop52
140
1.0
102
RTVSPost2010PropOp52
 70
     0
102
RTVSPost2010Prop53
 90
        2
102
RTVSPost2010PropOp53
 70
     1
102
RTVSPost2010Prop54
  1
strokes_ogs.tif
102
RTVSPost2010PropOp54
 70
     1
102
RTVSPost2010Prop55
280
     0
102
RTVSPost2010PropOp55
 70
     1
102
RTVSPost2010Prop56
140
1.0
102
RTVSPost2010PropOp56
 70
     1
102
RTVSPost2010Prop57
140
1.0
102
RTVSPost2010PropOp57
 70
     1
  0
XRECORD
  5
3D9
102
{ACAD_REACTORS
330
3D8
102
}
330
3D8
100
AcDbXrecord
280
     1
102
RTVSPropertyOp0
 70
     1
102
RTVSPropertyOp1
 70
     1
102
RTVSPropertyOp2
 70
     1
102
RTVSPropertyOp3
 70
     1
102
RTVSPropertyOp4
 70
     1
102
RTVSPropertyOp5
 70
     1
102
RTVSPropertyOp6
 70
     1
102
RTVSPropertyOp7
 70
     1
102
RTVSPropertyOp8
 70
     1
102
RTVSPropertyOp9
 70
     1
102
RTVSPropertyOp10
 70
     1
102
RTVSPropertyOp11
 70
     1
102
RTVSPropertyOp12
 70
     1
102
RTVSPropertyOp13
 70
     1
102
RTVSPropertyOp14
 70
     1
102
RTVSPropertyOp15
 70
     1
102
RTVSPropertyOp16
 70
     1
102
RTVSPropertyOp17
 70
     1
102
RTVSPropertyOp18
 70
     1
102
RTVSPropertyOp19
 70
     1
102
RTVSPropertyOp20
 70
     1
102
RTVSPropertyOp21
 70
     1
102
RTVSPropertyOp22
 70
     1
102
RTVSPropertyOp23
 70
     1
102
RTVSPropertyOp24
 70
     1
102
RTVSPropertyOp25
 70
     1
102
RTVSPropertyOp26
 70
     1
102
RTVSPropertyOp27
 70
     1
102
RTVSPropertyOp28
 70
     1
102
RTVSPropertyOp29
 70
     1
102
RTVSPropertyOp30
 70
     1
102
RTVSPropertyOp31
 70
     1
102
RTVSPropertyOp32
 70
     1
102
RTVSPropertyOp33
 70
     1
102
RTVSPropertyOp34
 70
     1
102
RTVSPropertyOp35
 70
     1
102
RTVSPropertyOp36
 70
     1
102
RTVSPropertyOp37
 70
     1
102
RTVSPropertyOp38
 70
     1
102
RTVSPropertyOp39
 70
     1
102
RTVSPropertyOp40
 70
     1
102
RTVSPropertyOp41
 70
     1
102
RTVSPropertyOp42
 70
     1
102
RTVSPropertyOp43
 70
     1
102
RTVSPropertyOp44
 70
     1
102
RTVSPropertyOp45
 70
     1
102
RTVSPropertyOp46
 70
     1
102
RTVSPropertyOp47
 70
     1
102
RTVSPropertyOp48
 70
     1
102
RTVSPropertyOp49
 70
     1
102
RTVSPropertyOp50
 70
     1
102
RTVSPropertyOp51
 70
     0
102
RTVSPropertyOp52
 70
     0
102
RTVSPropertyOp53
 70
     1
102
RTVSPropertyOp54
 70
     1
102
RTVSPropertyOp55
 70
     1
102
RTVSPropertyOp56
 70
     1
102
RTVSPropertyOp57
 70
     1
102
RTVSPost2010Prop28
280
     0
102
RTVSPost2010PropOp28
 70
     1
102
RTVSPost2010Prop29
280
     1
102
RTVSPost2010PropOp29
 70
     1
102
RTVSPost2010Prop30
280
     1
102
RTVSPost2010PropOp30
 70
     1
102
RTVSPost2010Prop31
280
     0
102
RTVSPost2010PropOp31
 70
     1
102
RTVSPost2010Prop32
280
     0
102
RTVSPost2010PropOp32
 70
     1
102
RTVSPost2010Prop33
280
     0
102
RTVSPost2010PropOp33
 70
     1
102
RTVSPost2010Prop34
280
     0
102
RTVSPost2010PropOp34
 70
     1
102
RTVSPost2010Prop35
280
     0
102
RTVSPost2010PropOp35
 70
     1
102
RTVSPost2010Prop36
280
     0
102
RTVSPost2010PropOp36
 70
     1
102
RTVSPost2010Prop37
 90
       50
102
RTVSPost2010PropOp37
 70
     1
102
RTVSPost2010Prop38
140
0.0
102
RTVSPost2010PropOp38
 70
     1
102
RTVSPost2010Prop39
140
1.0
102
RTVSPost2010PropOp39
 70
     1
102
RTVSPost2010Prop40
 90
        0
102
RTVSPost2010PropOp40
 70
     1
102
RTVSPost2010Prop41ColorIndex
 90
       18
102
RTVSPost2010Prop41ColorRGB
 90
        0
102
RTVSPost2010PropOp41
 70
     1
102
RTVSPost2010Prop42
 90
       50
102
RTVSPost2010PropOp42
 70
     1
102
RTVSPost2010Prop43
 90
        3
102
RTVSPost2010PropOp43
 70
     1
102
RTVSPost2010Prop44ColorIndex
 90
        5
102
RTVSPost2010Prop44ColorRGB
 90
      255
102
RTVSPost2010PropOp44
 70
     1
102
RTVSPost2010Prop45
280
     0
102
RTVSPost2010PropOp45
 70
     1
102
RTVSPost2010Prop46
 90
       50
102
RTVSPost2010PropOp46
 70
     1
102
RTVSPost2010Prop47
 90
       50
102
RTVSPost2010PropOp47
 70
     1
102
RTVSPost2010Prop48
 90
       50
102
RTVSPost2010PropOp48
 70
     1
102
RTVSPost2010Prop49
280
     0
102
RTVSPost2010PropOp49
 70
     1
102
RTVSPost2010Prop50
 90
       50
102
RTVSPost2010PropOp50
 70
     1
102
RTVSPost2010Prop51ColorIndex
 90
      256
102
RTVSPost2010Prop51ColorRGB
 90
-16777216
102
RTVSPost2010PropOp51
 70
     0
102
RTVSPost2010Prop52
140
1.0
102
RTVSPost2010PropOp52
 70
     0
102
RTVSPost2010Prop53
 90
        2
102
RTVSPost2010PropOp53
 70
     1
102
RTVSPost2010Prop54
  1
strokes_ogs.tif
102
RTVSPost2010PropOp54
 70
     1
102
RTVSPost2010Prop55
280
     0
102
RTVSPost2010PropOp55
 70
     1
102
RTVSPost2010Prop56
140
1.0
102
RTVSPost2010PropOp56
 70
     1
102
RTVSPost2010Prop57
140
1.0
102
RTVSPost2010PropOp57
 70
     1
  0
XRECORD
  5
3E1
102
{ACAD_REACTORS
330
3E0
102
}
330
3E0
100
AcDbXrecord
280
     1
102
RTVSPropertyOp0
 70
     1
102
RTVSPropertyOp1
 70
     1
102
RTVSPropertyOp2
 70
     1
102
RTVSPropertyOp3
 70
     1
102
RTVSPropertyOp4
 70
     1
102
RTVSPropertyOp5
 70
     1
102
RTVSPropertyOp6
 70
     1
102
RTVSPropertyOp7
 70
     1
102
RTVSPropertyOp8
 70
     1
102
RTVSPropertyOp9
 70
     1
102
RTVSPropertyOp10
 70
     1
102
RTVSPropertyOp11
 70
     1
102
RTVSPropertyOp12
 70
     1
102
RTVSPropertyOp13
 70
     1
102
RTVSPropertyOp14
 70
     1
102
RTVSPropertyOp15
 70
     1
102
RTVSPropertyOp16
 70
     1
102
RTVSPropertyOp17
 70
     1
102
RTVSPropertyOp18
 70
     1
102
RTVSPropertyOp19
 70
     1
102
RTVSPropertyOp20
 70
     1
102
RTVSPropertyOp21
 70
     1
102
RTVSPropertyOp22
 70
     1
102
RTVSPropertyOp23
 70
     1
102
RTVSPropertyOp24
 70
     1
102
RTVSPropertyOp25
 70
     1
102
RTVSPropertyOp26
 70
     1
102
RTVSPropertyOp27
 70
     1
102
RTVSPropertyOp28
 70
     1
102
RTVSPropertyOp29
 70
     1
102
RTVSPropertyOp30
 70
     1
102
RTVSPropertyOp31
 70
     1
102
RTVSPropertyOp32
 70
     1
102
RTVSPropertyOp33
 70
     1
102
RTVSPropertyOp34
 70
     1
102
RTVSPropertyOp35
 70
     1
102
RTVSPropertyOp36
 70
     1
102
RTVSPropertyOp37
 70
     1
102
RTVSPropertyOp38
 70
     1
102
RTVSPropertyOp39
 70
     1
102
RTVSPropertyOp40
 70
     1
102
RTVSPropertyOp41
 70
     1
102
RTVSPropertyOp42
 70
     1
102
RTVSPropertyOp43
 70
     1
102
RTVSPropertyOp44
 70
     1
102
RTVSPropertyOp45
 70
     1
102
RTVSPropertyOp46
 70
     1
102
RTVSPropertyOp47
 70
     1
102
RTVSPropertyOp48
 70
     1
102
RTVSPropertyOp49
 70
     1
102
RTVSPropertyOp50
 70
     1
102
RTVSPropertyOp51
 70
     0
102
RTVSPropertyOp52
 70
     0
102
RTVSPropertyOp53
 70
     1
102
RTVSPropertyOp54
 70
     1
102
RTVSPropertyOp55
 70
     1
102
RTVSPropertyOp56
 70
     1
102
RTVSPropertyOp57
 70
     1
102
RTVSPost2010Prop28
280
     0
102
RTVSPost2010PropOp28
 70
     1
102
RTVSPost2010Prop29
280
     1
102
RTVSPost2010PropOp29
 70
     1
102
RTVSPost2010Prop30
280
     1
102
RTVSPost2010PropOp30
 70
     1
102
RTVSPost2010Prop31
280
     0
102
RTVSPost2010PropOp31
 70
     1
102
RTVSPost2010Prop32
280
     0
102
RTVSPost2010PropOp32
 70
     1
102
RTVSPost2010Prop33
280
     0
102
RTVSPost2010PropOp33
 70
     1
102
RTVSPost2010Prop34
280
     0
102
RTVSPost2010PropOp34
 70
     1
102
RTVSPost2010Prop35
280
     0
102
RTVSPost2010PropOp35
 70
     1
102
RTVSPost2010Prop36
280
     0
102
RTVSPost2010PropOp36
 70
     1
102
RTVSPost2010Prop37
 90
       50
102
RTVSPost2010PropOp37
 70
     1
102
RTVSPost2010Prop38
140
0.0
102
RTVSPost2010PropOp38
 70
     1
102
RTVSPost2010Prop39
140
1.0
102
RTVSPost2010PropOp39
 70
     1
102
RTVSPost2010Prop40
 90
        0
102
RTVSPost2010PropOp40
 70
     1
102
RTVSPost2010Prop41ColorIndex
 90
       18
102
RTVSPost2010Prop41ColorRGB
 90
        0
102
RTVSPost2010PropOp41
 70
     1
102
RTVSPost2010Prop42
 90
       50
102
RTVSPost2010PropOp42
 70
     1
102
RTVSPost2010Prop43
 90
        3
102
RTVSPost2010PropOp43
 70
     1
102
RTVSPost2010Prop44ColorIndex
 90
        5
102
RTVSPost2010Prop44ColorRGB
 90
      255
102
RTVSPost2010PropOp44
 70
     1
102
RTVSPost2010Prop45
280
     0
102
RTVSPost2010PropOp45
 70
     1
102
RTVSPost2010Prop46
 90
       50
102
RTVSPost2010PropOp46
 70
     1
102
RTVSPost2010Prop47
 90
       50
102
RTVSPost2010PropOp47
 70
     1
102
RTVSPost2010Prop48
 90
       50
102
RTVSPost2010PropOp48
 70
     1
102
RTVSPost2010Prop49
280
     0
102
RTVSPost2010PropOp49
 70
     1
102
RTVSPost2010Prop50
 90
       50
102
RTVSPost2010PropOp50
 70
     1
102
RTVSPost2010Prop51ColorIndex
 90
      256
102
RTVSPost2010Prop51ColorRGB
 90
-16777216
102
RTVSPost2010PropOp51
 70
     0
102
RTVSPost2010Prop52
140
1.0
102
RTVSPost2010PropOp52
 70
     0
102
RTVSPost2010Prop53
 90
        2
102
RTVSPost2010PropOp53
 70
     1
102
RTVSPost2010Prop54
  1
strokes_ogs.tif
102
RTVSPost2010PropOp54
 70
     1
102
RTVSPost2010Prop55
280
     0
102
RTVSPost2010PropOp55
 70
     1
102
RTVSPost2010Prop56
140
1.0
102
RTVSPost2010PropOp56
 70
     1
102
RTVSPost2010Prop57
140
1.0
102
RTVSPost2010PropOp57
 70
     1
  0
XRECORD
  5
3D5
102
{ACAD_REACTORS
330
3D4
102
}
330
3D4
100
AcDbXrecord
280
     1
102
RTVSPropertyOp0
 70
     1
102
RTVSPropertyOp1
 70
     1
102
RTVSPropertyOp2
 70
     1
102
RTVSPropertyOp3
 70
     1
102
RTVSPropertyOp4
 70
     1
102
RTVSPropertyOp5
 70
     1
102
RTVSPropertyOp6
 70
     1
102
RTVSPropertyOp7
 70
     1
102
RTVSPropertyOp8
 70
     1
102
RTVSPropertyOp9
 70
     1
102
RTVSPropertyOp10
 70
     1
102
RTVSPropertyOp11
 70
     1
102
RTVSPropertyOp12
 70
     1
102
RTVSPropertyOp13
 70
     1
102
RTVSPropertyOp14
 70
     1
102
RTVSPropertyOp15
 70
     1
102
RTVSPropertyOp16
 70
     1
102
RTVSPropertyOp17
 70
     1
102
RTVSPropertyOp18
 70
     1
102
RTVSPropertyOp19
 70
     1
102
RTVSPropertyOp20
 70
     1
102
RTVSPropertyOp21
 70
     1
102
RTVSPropertyOp22
 70
     1
102
RTVSPropertyOp23
 70
     1
102
RTVSPropertyOp24
 70
     1
102
RTVSPropertyOp25
 70
     1
102
RTVSPropertyOp26
 70
     1
102
RTVSPropertyOp27
 70
     1
102
RTVSPropertyOp28
 70
     1
102
RTVSPropertyOp29
 70
     1
102
RTVSPropertyOp30
 70
     1
102
RTVSPropertyOp31
 70
     1
102
RTVSPropertyOp32
 70
     1
102
RTVSPropertyOp33
 70
     1
102
RTVSPropertyOp34
 70
     1
102
RTVSPropertyOp35
 70
     1
102
RTVSPropertyOp36
 70
     1
102
RTVSPropertyOp37
 70
     1
102
RTVSPropertyOp38
 70
     1
102
RTVSPropertyOp39
 70
     1
102
RTVSPropertyOp40
 70
     1
102
RTVSPropertyOp41
 70
     1
102
RTVSPropertyOp42
 70
     1
102
RTVSPropertyOp43
 70
     1
102
RTVSPropertyOp44
 70
     1
102
RTVSPropertyOp45
 70
     1
102
RTVSPropertyOp46
 70
     1
102
RTVSPropertyOp47
 70
     1
102
RTVSPropertyOp48
 70
     1
102
RTVSPropertyOp49
 70
     1
102
RTVSPropertyOp50
 70
     1
102
RTVSPropertyOp51
 70
     0
102
RTVSPropertyOp52
 70
     0
102
RTVSPropertyOp53
 70
     1
102
RTVSPropertyOp54
 70
     1
102
RTVSPropertyOp55
 70
     1
102
RTVSPropertyOp56
 70
     1
102
RTVSPropertyOp57
 70
     1
102
RTVSPost2010Prop28
280
     0
102
RTVSPost2010PropOp28
 70
     1
102
RTVSPost2010Prop29
280
     1
102
RTVSPost2010PropOp29
 70
     1
102
RTVSPost2010Prop30
280
     1
102
RTVSPost2010PropOp30
 70
     1
102
RTVSPost2010Prop31
280
     0
102
RTVSPost2010PropOp31
 70
     1
102
RTVSPost2010Prop32
280
     0
102
RTVSPost2010PropOp32
 70
     1
102
RTVSPost2010Prop33
280
     0
102
RTVSPost2010PropOp33
 70
     1
102
RTVSPost2010Prop34
280
     0
102
RTVSPost2010PropOp34
 70
     1
102
RTVSPost2010Prop35
280
     0
102
RTVSPost2010PropOp35
 70
     1
102
RTVSPost2010Prop36
280
     0
102
RTVSPost2010PropOp36
 70
     1
102
RTVSPost2010Prop37
 90
       50
102
RTVSPost2010PropOp37
 70
     1
102
RTVSPost2010Prop38
140
0.0
102
RTVSPost2010PropOp38
 70
     1
102
RTVSPost2010Prop39
140
1.0
102
RTVSPost2010PropOp39
 70
     1
102
RTVSPost2010Prop40
 90
        0
102
RTVSPost2010PropOp40
 70
     1
102
RTVSPost2010Prop41ColorIndex
 90
       18
102
RTVSPost2010Prop41ColorRGB
 90
        0
102
RTVSPost2010PropOp41
 70
     1
102
RTVSPost2010Prop42
 90
       50
102
RTVSPost2010PropOp42
 70
     1
102
RTVSPost2010Prop43
 90
        3
102
RTVSPost2010PropOp43
 70
     1
102
RTVSPost2010Prop44ColorIndex
 90
        5
102
RTVSPost2010Prop44ColorRGB
 90
      255
102
RTVSPost2010PropOp44
 70
     1
102
RTVSPost2010Prop45
280
     0
102
RTVSPost2010PropOp45
 70
     1
102
RTVSPost2010Prop46
 90
       50
102
RTVSPost2010PropOp46
 70
     1
102
RTVSPost2010Prop47
 90
       50
102
RTVSPost2010PropOp47
 70
     1
102
RTVSPost2010Prop48
 90
       50
102
RTVSPost2010PropOp48
 70
     1
102
RTVSPost2010Prop49
280
     0
102
RTVSPost2010PropOp49
 70
     1
102
RTVSPost2010Prop50
 90
       50
102
RTVSPost2010PropOp50
 70
     1
102
RTVSPost2010Prop51ColorIndex
 90
      256
102
RTVSPost2010Prop51ColorRGB
 90
-16777216
102
RTVSPost2010PropOp51
 70
     0
102
RTVSPost2010Prop52
140
1.0
102
RTVSPost2010PropOp52
 70
     0
102
RTVSPost2010Prop53
 90
        2
102
RTVSPost2010PropOp53
 70
     1
102
RTVSPost2010Prop54
  1
strokes_ogs.tif
102
RTVSPost2010PropOp54
 70
     1
102
RTVSPost2010Prop55
280
     0
102
RTVSPost2010PropOp55
 70
     1
102
RTVSPost2010Prop56
140
1.0
102
RTVSPost2010PropOp56
 70
     1
102
RTVSPost2010Prop57
140
1.0
102
RTVSPost2010PropOp57
 70
     1
  0
XRECORD
  5
3D7
102
{ACAD_REACTORS
330
3D6
102
}
330
3D6
100
AcDbXrecord
280
     1
102
RTVSPropertyOp0
 70
     1
102
RTVSPropertyOp1
 70
     1
102
RTVSPropertyOp2
 70
     1
102
RTVSPropertyOp3
 70
     1
102
RTVSPropertyOp4
 70
     1
102
RTVSPropertyOp5
 70
     1
102
RTVSPropertyOp6
 70
     1
102
RTVSPropertyOp7
 70
     1
102
RTVSPropertyOp8
 70
     1
102
RTVSPropertyOp9
 70
     1
102
RTVSPropertyOp10
 70
     1
102
RTVSPropertyOp11
 70
     1
102
RTVSPropertyOp12
 70
     1
102
RTVSPropertyOp13
 70
     1
102
RTVSPropertyOp14
 70
     1
102
RTVSPropertyOp15
 70
     1
102
RTVSPropertyOp16
 70
     1
102
RTVSPropertyOp17
 70
     1
102
RTVSPropertyOp18
 70
     1
102
RTVSPropertyOp19
 70
     1
102
RTVSPropertyOp20
 70
     1
102
RTVSPropertyOp21
 70
     1
102
RTVSPropertyOp22
 70
     1
102
RTVSPropertyOp23
 70
     1
102
RTVSPropertyOp24
 70
     1
102
RTVSPropertyOp25
 70
     1
102
RTVSPropertyOp26
 70
     1
102
RTVSPropertyOp27
 70
     1
102
RTVSPropertyOp28
 70
     1
102
RTVSPropertyOp29
 70
     1
102
RTVSPropertyOp30
 70
     1
102
RTVSPropertyOp31
 70
     1
102
RTVSPropertyOp32
 70
     1
102
RTVSPropertyOp33
 70
     1
102
RTVSPropertyOp34
 70
     1
102
RTVSPropertyOp35
 70
     1
102
RTVSPropertyOp36
 70
     1
102
RTVSPropertyOp37
 70
     1
102
RTVSPropertyOp38
 70
     1
102
RTVSPropertyOp39
 70
     1
102
RTVSPropertyOp40
 70
     1
102
RTVSPropertyOp41
 70
     1
102
RTVSPropertyOp42
 70
     1
102
RTVSPropertyOp43
 70
     1
102
RTVSPropertyOp44
 70
     1
102
RTVSPropertyOp45
 70
     1
102
RTVSPropertyOp46
 70
     1
102
RTVSPropertyOp47
 70
     1
102
RTVSPropertyOp48
 70
     1
102
RTVSPropertyOp49
 70
     1
102
RTVSPropertyOp50
 70
     1
102
RTVSPropertyOp51
 70
     0
102
RTVSPropertyOp52
 70
     0
102
RTVSPropertyOp53
 70
     1
102
RTVSPropertyOp54
 70
     1
102
RTVSPropertyOp55
 70
     1
102
RTVSPropertyOp56
 70
     1
102
RTVSPropertyOp57
 70
     1
102
RTVSPost2010Prop28
280
     0
102
RTVSPost2010PropOp28
 70
     1
102
RTVSPost2010Prop29
280
     1
102
RTVSPost2010PropOp29
 70
     1
102
RTVSPost2010Prop30
280
     1
102
RTVSPost2010PropOp30
 70
     1
102
RTVSPost2010Prop31
280
     0
102
RTVSPost2010PropOp31
 70
     1
102
RTVSPost2010Prop32
280
     0
102
RTVSPost2010PropOp32
 70
     1
102
RTVSPost2010Prop33
280
     0
102
RTVSPost2010PropOp33
 70
     1
102
RTVSPost2010Prop34
280
     0
102
RTVSPost2010PropOp34
 70
     1
102
RTVSPost2010Prop35
280
     0
102
RTVSPost2010PropOp35
 70
     1
102
RTVSPost2010Prop36
280
     0
102
RTVSPost2010PropOp36
 70
     1
102
RTVSPost2010Prop37
 90
       50
102
RTVSPost2010PropOp37
 70
     1
102
RTVSPost2010Prop38
140
0.0
102
RTVSPost2010PropOp38
 70
     1
102
RTVSPost2010Prop39
140
1.0
102
RTVSPost2010PropOp39
 70
     1
102
RTVSPost2010Prop40
 90
        0
102
RTVSPost2010PropOp40
 70
     1
102
RTVSPost2010Prop41ColorIndex
 90
       18
102
RTVSPost2010Prop41ColorRGB
 90
        0
102
RTVSPost2010PropOp41
 70
     1
102
RTVSPost2010Prop42
 90
       50
102
RTVSPost2010PropOp42
 70
     1
102
RTVSPost2010Prop43
 90
        3
102
RTVSPost2010PropOp43
 70
     1
102
RTVSPost2010Prop44ColorIndex
 90
        5
102
RTVSPost2010Prop44ColorRGB
 90
      255
102
RTVSPost2010PropOp44
 70
     1
102
RTVSPost2010Prop45
280
     0
102
RTVSPost2010PropOp45
 70
     1
102
RTVSPost2010Prop46
 90
       50
102
RTVSPost2010PropOp46
 70
     1
102
RTVSPost2010Prop47
 90
       50
102
RTVSPost2010PropOp47
 70
     1
102
RTVSPost2010Prop48
 90
       50
102
RTVSPost2010PropOp48
 70
     1
102
RTVSPost2010Prop49
280
     0
102
RTVSPost2010PropOp49
 70
     1
102
RTVSPost2010Prop50
 90
       50
102
RTVSPost2010PropOp50
 70
     1
102
RTVSPost2010Prop51ColorIndex
 90
      256
102
RTVSPost2010Prop51ColorRGB
 90
-16777216
102
RTVSPost2010PropOp51
 70
     0
102
RTVSPost2010Prop52
140
1.0
102
RTVSPost2010PropOp52
 70
     0
102
RTVSPost2010Prop53
 90
        2
102
RTVSPost2010PropOp53
 70
     1
102
RTVSPost2010Prop54
  1
strokes_ogs.tif
102
RTVSPost2010PropOp54
 70
     1
102
RTVSPost2010Prop55
280
     0
102
RTVSPost2010PropOp55
 70
     1
102
RTVSPost2010Prop56
140
1.0
102
RTVSPost2010PropOp56
 70
     1
102
RTVSPost2010Prop57
140
1.0
102
RTVSPost2010PropOp57
 70
     1
  0
XRECORD
  5
3E7
102
{ACAD_REACTORS
330
3E6
102
}
330
3E6
100
AcDbXrecord
280
     1
102
RTVSPropertyOp0
 70
     0
102
RTVSPropertyOp1
 70
     0
102
RTVSPropertyOp2
 70
     0
102
RTVSPropertyOp3
 70
     0
102
RTVSPropertyOp4
 70
     0
102
RTVSPropertyOp5
 70
     0
102
RTVSPropertyOp6
 70
     0
102
RTVSPropertyOp7
 70
     0
102
RTVSPropertyOp8
 70
     0
102
RTVSPropertyOp9
 70
     0
102
RTVSPropertyOp10
 70
     0
102
RTVSPropertyOp11
 70
     0
102
RTVSPropertyOp12
 70
     0
102
RTVSPropertyOp13
 70
     0
102
RTVSPropertyOp14
 70
     2
102
RTVSPropertyOp15
 70
     0
102
RTVSPropertyOp16
 70
     0
102
RTVSPropertyOp17
 70
     0
102
RTVSPropertyOp18
 70
     0
102
RTVSPropertyOp19
 70
     0
102
RTVSPropertyOp20
 70
     0
102
RTVSPropertyOp21
 70
     0
102
RTVSPropertyOp22
 70
     0
102
RTVSPropertyOp23
 70
     0
102
RTVSPropertyOp24
 70
     0
102
RTVSPropertyOp25
 70
     0
102
RTVSPropertyOp26
 70
     0
102
RTVSPropertyOp27
 70
     0
102
RTVSPropertyOp28
 70
     0
102
RTVSPropertyOp29
 70
     0
102
RTVSPropertyOp30
 70
     0
102
RTVSPropertyOp31
 70
     0
102
RTVSPropertyOp32
 70
     0
102
RTVSPropertyOp33
 70
     0
102
RTVSPropertyOp34
 70
     0
102
RTVSPropertyOp35
 70
     0
102
RTVSPropertyOp36
 70
     0
102
RTVSPropertyOp37
 70
     0
102
RTVSPropertyOp38
 70
     0
102
RTVSPropertyOp39
 70
     0
102
RTVSPropertyOp40
 70
     0
102
RTVSPropertyOp41
 70
     0
102
RTVSPropertyOp42
 70
     0
102
RTVSPropertyOp43
 70
     0
102
RTVSPropertyOp44
 70
     0
102
RTVSPropertyOp45
 70
     0
102
RTVSPropertyOp46
 70
     0
102
RTVSPropertyOp47
 70
     0
102
RTVSPropertyOp48
 70
     0
102
RTVSPropertyOp49
 70
     0
102
RTVSPropertyOp50
 70
     0
102
RTVSPropertyOp51
 70
     0
102
RTVSPropertyOp52
 70
     0
102
RTVSPropertyOp53
 70
     0
102
RTVSPropertyOp54
 70
     0
102
RTVSPropertyOp55
 70
     0
102
RTVSPropertyOp56
 70
     0
102
RTVSPropertyOp57
 70
     0
102
RTVSPost2010Prop28
280
     0
102
RTVSPost2010PropOp28
 70
     0
102
RTVSPost2010Prop29
280
     1
102
RTVSPost2010PropOp29
 70
     0
102
RTVSPost2010Prop30
280
     1
102
RTVSPost2010PropOp30
 70
     0
102
RTVSPost2010Prop31
280
     0
102
RTVSPost2010PropOp31
 70
     0
102
RTVSPost2010Prop32
280
     0
102
RTVSPost2010PropOp32
 70
     0
102
RTVSPost2010Prop33
280
     0
102
RTVSPost2010PropOp33
 70
     0
102
RTVSPost2010Prop34
280
     0
102
RTVSPost2010PropOp34
 70
     0
102
RTVSPost2010Prop35
280
     0
102
RTVSPost2010PropOp35
 70
     0
102
RTVSPost2010Prop36
280
     0
102
RTVSPost2010PropOp36
 70
     0
102
RTVSPost2010Prop37
 90
       50
102
RTVSPost2010PropOp37
 70
     0
102
RTVSPost2010Prop38
140
0.0
102
RTVSPost2010PropOp38
 70
     0
102
RTVSPost2010Prop39
140
1.0
102
RTVSPost2010PropOp39
 70
     0
102
RTVSPost2010Prop40
 90
        0
102
RTVSPost2010PropOp40
 70
     0
102
RTVSPost2010Prop41ColorIndex
 90
       18
102
RTVSPost2010Prop41ColorRGB
 90
        0
102
RTVSPost2010PropOp41
 70
     0
102
RTVSPost2010Prop42
 90
       50
102
RTVSPost2010PropOp42
 70
     0
102
RTVSPost2010Prop43
 90
        3
102
RTVSPost2010PropOp43
 70
     0
102
RTVSPost2010Prop44ColorIndex
 90
        5
102
RTVSPost2010Prop44ColorRGB
 90
      255
102
RTVSPost2010PropOp44
 70
     0
102
RTVSPost2010Prop45
280
     0
102
RTVSPost2010PropOp45
 70
     0
102
RTVSPost2010Prop46
 90
       50
102
RTVSPost2010PropOp46
 70
     0
102
RTVSPost2010Prop47
 90
       50
102
RTVSPost2010PropOp47
 70
     0
102
RTVSPost2010Prop48
 90
       50
102
RTVSPost2010PropOp48
 70
     0
102
RTVSPost2010Prop49
280
     0
102
RTVSPost2010PropOp49
 70
     0
102
RTVSPost2010Prop50
 90
       50
102
RTVSPost2010PropOp50
 70
     0
102
RTVSPost2010Prop51ColorIndex
 90
      256
102
RTVSPost2010Prop51ColorRGB
 90
-16777216
102
RTVSPost2010PropOp51
 70
     0
102
RTVSPost2010Prop52
140
1.0
102
RTVSPost2010PropOp52
 70
     0
102
RTVSPost2010Prop53
 90
        2
102
RTVSPost2010PropOp53
 70
     0
102
RTVSPost2010Prop54
  1
strokes_ogs.tif
102
RTVSPost2010PropOp54
 70
     0
102
RTVSPost2010Prop55
280
     0
102
RTVSPost2010PropOp55
 70
     0
102
RTVSPost2010Prop56
140
1.0
102
RTVSPost2010PropOp56
 70
     0
102
RTVSPost2010Prop57
140
1.0
102
RTVSPost2010PropOp57
 70
     0
  0
XRECORD
  5
3DF
102
{ACAD_REACTORS
330
3DE
102
}
330
3DE
100
AcDbXrecord
280
     1
102
RTVSPropertyOp0
 70
     1
102
RTVSPropertyOp1
 70
     1
102
RTVSPropertyOp2
 70
     1
102
RTVSPropertyOp3
 70
     1
102
RTVSPropertyOp4
 70
     1
102
RTVSPropertyOp5
 70
     1
102
RTVSPropertyOp6
 70
     1
102
RTVSPropertyOp7
 70
     1
102
RTVSPropertyOp8
 70
     1
102
RTVSPropertyOp9
 70
     1
102
RTVSPropertyOp10
 70
     1
102
RTVSPropertyOp11
 70
     1
102
RTVSPropertyOp12
 70
     1
102
RTVSPropertyOp13
 70
     1
102
RTVSPropertyOp14
 70
     1
102
RTVSPropertyOp15
 70
     1
102
RTVSPropertyOp16
 70
     1
102
RTVSPropertyOp17
 70
     1
102
RTVSPropertyOp18
 70
     1
102
RTVSPropertyOp19
 70
     1
102
RTVSPropertyOp20
 70
     1
102
RTVSPropertyOp21
 70
     1
102
RTVSPropertyOp22
 70
     1
102
RTVSPropertyOp23
 70
     1
102
RTVSPropertyOp24
 70
     1
102
RTVSPropertyOp25
 70
     1
102
RTVSPropertyOp26
 70
     1
102
RTVSPropertyOp27
 70
     1
102
RTVSPropertyOp28
 70
     1
102
RTVSPropertyOp29
 70
     1
102
RTVSPropertyOp30
 70
     1
102
RTVSPropertyOp31
 70
     1
102
RTVSPropertyOp32
 70
     1
102
RTVSPropertyOp33
 70
     1
102
RTVSPropertyOp34
 70
     1
102
RTVSPropertyOp35
 70
     1
102
RTVSPropertyOp36
 70
     1
102
RTVSPropertyOp37
 70
     1
102
RTVSPropertyOp38
 70
     1
102
RTVSPropertyOp39
 70
     1
102
RTVSPropertyOp40
 70
     1
102
RTVSPropertyOp41
 70
     1
102
RTVSPropertyOp42
 70
     1
102
RTVSPropertyOp43
 70
     1
102
RTVSPropertyOp44
 70
     1
102
RTVSPropertyOp45
 70
     1
102
RTVSPropertyOp46
 70
     1
102
RTVSPropertyOp47
 70
     1
102
RTVSPropertyOp48
 70
     1
102
RTVSPropertyOp49
 70
     1
102
RTVSPropertyOp50
 70
     1
102
RTVSPropertyOp51
 70
     0
102
RTVSPropertyOp52
 70
     0
102
RTVSPropertyOp53
 70
     1
102
RTVSPropertyOp54
 70
     1
102
RTVSPropertyOp55
 70
     1
102
RTVSPropertyOp56
 70
     1
102
RTVSPropertyOp57
 70
     1
102
RTVSPost2010Prop28
280
     0
102
RTVSPost2010PropOp28
 70
     1
102
RTVSPost2010Prop29
280
     1
102
RTVSPost2010PropOp29
 70
     1
102
RTVSPost2010Prop30
280
     1
102
RTVSPost2010PropOp30
 70
     1
102
RTVSPost2010Prop31
280
     0
102
RTVSPost2010PropOp31
 70
     1
102
RTVSPost2010Prop32
280
     0
102
RTVSPost2010PropOp32
 70
     1
102
RTVSPost2010Prop33
280
     0
102
RTVSPost2010PropOp33
 70
     1
102
RTVSPost2010Prop34
280
     0
102
RTVSPost2010PropOp34
 70
     1
102
RTVSPost2010Prop35
280
     0
102
RTVSPost2010PropOp35
 70
     1
102
RTVSPost2010Prop36
280
     0
102
RTVSPost2010PropOp36
 70
     1
102
RTVSPost2010Prop37
 90
       50
102
RTVSPost2010PropOp37
 70
     1
102
RTVSPost2010Prop38
140
0.0
102
RTVSPost2010PropOp38
 70
     1
102
RTVSPost2010Prop39
140
1.0
102
RTVSPost2010PropOp39
 70
     1
102
RTVSPost2010Prop40
 90
        0
102
RTVSPost2010PropOp40
 70
     1
102
RTVSPost2010Prop41ColorIndex
 90
       18
102
RTVSPost2010Prop41ColorRGB
 90
        0
102
RTVSPost2010PropOp41
 70
     1
102
RTVSPost2010Prop42
 90
       50
102
RTVSPost2010PropOp42
 70
     1
102
RTVSPost2010Prop43
 90
        3
102
RTVSPost2010PropOp43
 70
     1
102
RTVSPost2010Prop44ColorIndex
 90
        5
102
RTVSPost2010Prop44ColorRGB
 90
      255
102
RTVSPost2010PropOp44
 70
     1
102
RTVSPost2010Prop45
280
     0
102
RTVSPost2010PropOp45
 70
     1
102
RTVSPost2010Prop46
 90
       50
102
RTVSPost2010PropOp46
 70
     1
102
RTVSPost2010Prop47
 90
       50
102
RTVSPost2010PropOp47
 70
     1
102
RTVSPost2010Prop48
 90
       50
102
RTVSPost2010PropOp48
 70
     1
102
RTVSPost2010Prop49
280
     0
102
RTVSPost2010PropOp49
 70
     1
102
RTVSPost2010Prop50
 90
       50
102
RTVSPost2010PropOp50
 70
     1
102
RTVSPost2010Prop51ColorIndex
 90
      256
102
RTVSPost2010Prop51ColorRGB
 90
-16777216
102
RTVSPost2010PropOp51
 70
     0
102
RTVSPost2010Prop52
140
1.0
102
RTVSPost2010PropOp52
 70
     0
102
RTVSPost2010Prop53
 90
        2
102
RTVSPost2010PropOp53
 70
     1
102
RTVSPost2010Prop54
  1
strokes_ogs.tif
102
RTVSPost2010PropOp54
 70
     1
102
RTVSPost2010Prop55
280
     0
102
RTVSPost2010PropOp55
 70
     1
102
RTVSPost2010Prop56
140
1.0
102
RTVSPost2010PropOp56
 70
     1
102
RTVSPost2010Prop57
140
1.0
102
RTVSPost2010PropOp57
 70
     1
  0
XRECORD
  5
3C3
102
{ACAD_REACTORS
330
3C2
102
}
330
3C2
100
AcDbXrecord
280
     1
102
RTVSPropertyOp0
 70
     1
102
RTVSPropertyOp1
 70
     1
102
RTVSPropertyOp2
 70
     1
102
RTVSPropertyOp3
 70
     1
102
RTVSPropertyOp4
 70
     1
102
RTVSPropertyOp5
 70
     1
102
RTVSPropertyOp6
 70
     1
102
RTVSPropertyOp7
 70
     1
102
RTVSPropertyOp8
 70
     1
102
RTVSPropertyOp9
 70
     1
102
RTVSPropertyOp10
 70
     1
102
RTVSPropertyOp11
 70
     1
102
RTVSPropertyOp12
 70
     1
102
RTVSPropertyOp13
 70
     1
102
RTVSPropertyOp14
 70
     1
102
RTVSPropertyOp15
 70
     1
102
RTVSPropertyOp16
 70
     1
102
RTVSPropertyOp17
 70
     1
102
RTVSPropertyOp18
 70
     1
102
RTVSPropertyOp19
 70
     1
102
RTVSPropertyOp20
 70
     1
102
RTVSPropertyOp21
 70
     1
102
RTVSPropertyOp22
 70
     1
102
RTVSPropertyOp23
 70
     1
102
RTVSPropertyOp24
 70
     1
102
RTVSPropertyOp25
 70
     1
102
RTVSPropertyOp26
 70
     1
102
RTVSPropertyOp27
 70
     1
102
RTVSPropertyOp28
 70
     1
102
RTVSPropertyOp29
 70
     1
102
RTVSPropertyOp30
 70
     1
102
RTVSPropertyOp31
 70
     1
102
RTVSPropertyOp32
 70
     1
102
RTVSPropertyOp33
 70
     1
102
RTVSPropertyOp34
 70
     1
102
RTVSPropertyOp35
 70
     1
102
RTVSPropertyOp36
 70
     1
102
RTVSPropertyOp37
 70
     1
102
RTVSPropertyOp38
 70
     1
102
RTVSPropertyOp39
 70
     1
102
RTVSPropertyOp40
 70
     1
102
RTVSPropertyOp41
 70
     1
102
RTVSPropertyOp42
 70
     1
102
RTVSPropertyOp43
 70
     1
102
RTVSPropertyOp44
 70
     1
102
RTVSPropertyOp45
 70
     1
102
RTVSPropertyOp46
 70
     1
102
RTVSPropertyOp47
 70
     1
102
RTVSPropertyOp48
 70
     1
102
RTVSPropertyOp49
 70
     1
102
RTVSPropertyOp50
 70
     1
102
RTVSPropertyOp51
 70
     0
102
RTVSPropertyOp52
 70
     0
102
RTVSPropertyOp53
 70
     1
102
RTVSPropertyOp54
 70
     1
102
RTVSPropertyOp55
 70
     1
102
RTVSPropertyOp56
 70
     1
102
RTVSPropertyOp57
 70
     1
102
RTVSPost2010Prop28
280
     0
102
RTVSPost2010PropOp28
 70
     1
102
RTVSPost2010Prop29
280
     1
102
RTVSPost2010PropOp29
 70
     1
102
RTVSPost2010Prop30
280
     1
102
RTVSPost2010PropOp30
 70
     1
102
RTVSPost2010Prop31
280
     0
102
RTVSPost2010PropOp31
 70
     1
102
RTVSPost2010Prop32
280
     0
102
RTVSPost2010PropOp32
 70
     1
102
RTVSPost2010Prop33
280
     0
102
RTVSPost2010PropOp33
 70
     1
102
RTVSPost2010Prop34
280
     0
102
RTVSPost2010PropOp34
 70
     1
102
RTVSPost2010Prop35
280
     0
102
RTVSPost2010PropOp35
 70
     1
102
RTVSPost2010Prop36
280
     0
102
RTVSPost2010PropOp36
 70
     1
102
RTVSPost2010Prop37
 90
       50
102
RTVSPost2010PropOp37
 70
     1
102
RTVSPost2010Prop38
140
0.0
102
RTVSPost2010PropOp38
 70
     1
102
RTVSPost2010Prop39
140
1.0
102
RTVSPost2010PropOp39
 70
     1
102
RTVSPost2010Prop40
 90
        0
102
RTVSPost2010PropOp40
 70
     1
102
RTVSPost2010Prop41ColorIndex
 90
       18
102
RTVSPost2010Prop41ColorRGB
 90
        0
102
RTVSPost2010PropOp41
 70
     1
102
RTVSPost2010Prop42
 90
       50
102
RTVSPost2010PropOp42
 70
     1
102
RTVSPost2010Prop43
 90
        3
102
RTVSPost2010PropOp43
 70
     1
102
RTVSPost2010Prop44ColorIndex
 90
        5
102
RTVSPost2010Prop44ColorRGB
 90
      255
102
RTVSPost2010PropOp44
 70
     1
102
RTVSPost2010Prop45
280
     0
102
RTVSPost2010PropOp45
 70
     1
102
RTVSPost2010Prop46
 90
       50
102
RTVSPost2010PropOp46
 70
     1
102
RTVSPost2010Prop47
 90
       50
102
RTVSPost2010PropOp47
 70
     1
102
RTVSPost2010Prop48
 90
       50
102
RTVSPost2010PropOp48
 70
     1
102
RTVSPost2010Prop49
280
     0
102
RTVSPost2010PropOp49
 70
     1
102
RTVSPost2010Prop50
 90
       50
102
RTVSPost2010PropOp50
 70
     1
102
RTVSPost2010Prop51ColorIndex
 90
      256
102
RTVSPost2010Prop51ColorRGB
 90
-16777216
102
RTVSPost2010PropOp51
 70
     0
102
RTVSPost2010Prop52
140
1.0
102
RTVSPost2010PropOp52
 70
     0
102
RTVSPost2010Prop53
 90
        2
102
RTVSPost2010PropOp53
 70
     1
102
RTVSPost2010Prop54
  1
strokes_ogs.tif
102
RTVSPost2010PropOp54
 70
     1
102
RTVSPost2010Prop55
280
     0
102
RTVSPost2010PropOp55
 70
     1
102
RTVSPost2010Prop56
140
1.0
102
RTVSPost2010PropOp56
 70
     1
102
RTVSPost2010Prop57
140
1.0
102
RTVSPost2010PropOp57
 70
     1
  0
XRECORD
  5
3C5
102
{ACAD_REACTORS
330
3C4
102
}
330
3C4
100
AcDbXrecord
280
     1
102
RTVSPropertyOp0
 70
     1
102
RTVSPropertyOp1
 70
     1
102
RTVSPropertyOp2
 70
     1
102
RTVSPropertyOp3
 70
     1
102
RTVSPropertyOp4
 70
     1
102
RTVSPropertyOp5
 70
     1
102
RTVSPropertyOp6
 70
     1
102
RTVSPropertyOp7
 70
     1
102
RTVSPropertyOp8
 70
     1
102
RTVSPropertyOp9
 70
     1
102
RTVSPropertyOp10
 70
     1
102
RTVSPropertyOp11
 70
     1
102
RTVSPropertyOp12
 70
     1
102
RTVSPropertyOp13
 70
     1
102
RTVSPropertyOp14
 70
     1
102
RTVSPropertyOp15
 70
     1
102
RTVSPropertyOp16
 70
     1
102
RTVSPropertyOp17
 70
     1
102
RTVSPropertyOp18
 70
     1
102
RTVSPropertyOp19
 70
     1
102
RTVSPropertyOp20
 70
     1
102
RTVSPropertyOp21
 70
     1
102
RTVSPropertyOp22
 70
     1
102
RTVSPropertyOp23
 70
     1
102
RTVSPropertyOp24
 70
     1
102
RTVSPropertyOp25
 70
     1
102
RTVSPropertyOp26
 70
     1
102
RTVSPropertyOp27
 70
     1
102
RTVSPropertyOp28
 70
     1
102
RTVSPropertyOp29
 70
     1
102
RTVSPropertyOp30
 70
     1
102
RTVSPropertyOp31
 70
     1
102
RTVSPropertyOp32
 70
     1
102
RTVSPropertyOp33
 70
     1
102
RTVSPropertyOp34
 70
     1
102
RTVSPropertyOp35
 70
     1
102
RTVSPropertyOp36
 70
     1
102
RTVSPropertyOp37
 70
     1
102
RTVSPropertyOp38
 70
     1
102
RTVSPropertyOp39
 70
     1
102
RTVSPropertyOp40
 70
     1
102
RTVSPropertyOp41
 70
     1
102
RTVSPropertyOp42
 70
     1
102
RTVSPropertyOp43
 70
     1
102
RTVSPropertyOp44
 70
     1
102
RTVSPropertyOp45
 70
     1
102
RTVSPropertyOp46
 70
     1
102
RTVSPropertyOp47
 70
     1
102
RTVSPropertyOp48
 70
     1
102
RTVSPropertyOp49
 70
     1
102
RTVSPropertyOp50
 70
     1
102
RTVSPropertyOp51
 70
     0
102
RTVSPropertyOp52
 70
     0
102
RTVSPropertyOp53
 70
     1
102
RTVSPropertyOp54
 70
     1
102
RTVSPropertyOp55
 70
     1
102
RTVSPropertyOp56
 70
     1
102
RTVSPropertyOp57
 70
     1
102
RTVSPost2010Prop28
280
     0
102
RTVSPost2010PropOp28
 70
     1
102
RTVSPost2010Prop29
280
     1
102
RTVSPost2010PropOp29
 70
     1
102
RTVSPost2010Prop30
280
     1
102
RTVSPost2010PropOp30
 70
     1
102
RTVSPost2010Prop31
280
     0
102
RTVSPost2010PropOp31
 70
     1
102
RTVSPost2010Prop32
280
     0
102
RTVSPost2010PropOp32
 70
     1
102
RTVSPost2010Prop33
280
     0
102
RTVSPost2010PropOp33
 70
     1
102
RTVSPost2010Prop34
280
     0
102
RTVSPost2010PropOp34
 70
     1
102
RTVSPost2010Prop35
280
     0
102
RTVSPost2010PropOp35
 70
     1
102
RTVSPost2010Prop36
280
     0
102
RTVSPost2010PropOp36
 70
     1
102
RTVSPost2010Prop37
 90
       50
102
RTVSPost2010PropOp37
 70
     1
102
RTVSPost2010Prop38
140
0.0
102
RTVSPost2010PropOp38
 70
     1
102
RTVSPost2010Prop39
140
1.0
102
RTVSPost2010PropOp39
 70
     1
102
RTVSPost2010Prop40
 90
        0
102
RTVSPost2010PropOp40
 70
     1
102
RTVSPost2010Prop41ColorIndex
 90
       18
102
RTVSPost2010Prop41ColorRGB
 90
        0
102
RTVSPost2010PropOp41
 70
     1
102
RTVSPost2010Prop42
 90
       50
102
RTVSPost2010PropOp42
 70
     1
102
RTVSPost2010Prop43
 90
        3
102
RTVSPost2010PropOp43
 70
     1
102
RTVSPost2010Prop44ColorIndex
 90
        5
102
RTVSPost2010Prop44ColorRGB
 90
      255
102
RTVSPost2010PropOp44
 70
     1
102
RTVSPost2010Prop45
280
     0
102
RTVSPost2010PropOp45
 70
     1
102
RTVSPost2010Prop46
 90
       50
102
RTVSPost2010PropOp46
 70
     1
102
RTVSPost2010Prop47
 90
       50
102
RTVSPost2010PropOp47
 70
     1
102
RTVSPost2010Prop48
 90
       50
102
RTVSPost2010PropOp48
 70
     1
102
RTVSPost2010Prop49
280
     0
102
RTVSPost2010PropOp49
 70
     1
102
RTVSPost2010Prop50
 90
       50
102
RTVSPost2010PropOp50
 70
     1
102
RTVSPost2010Prop51ColorIndex
 90
      256
102
RTVSPost2010Prop51ColorRGB
 90
-16777216
102
RTVSPost2010PropOp51
 70
     0
102
RTVSPost2010Prop52
140
1.0
102
RTVSPost2010PropOp52
 70
     0
102
RTVSPost2010Prop53
 90
        2
102
RTVSPost2010PropOp53
 70
     1
102
RTVSPost2010Prop54
  1
strokes_ogs.tif
102
RTVSPost2010PropOp54
 70
     1
102
RTVSPost2010Prop55
280
     0
102
RTVSPost2010PropOp55
 70
     1
102
RTVSPost2010Prop56
140
1.0
102
RTVSPost2010PropOp56
 70
     1
102
RTVSPost2010Prop57
140
1.0
102
RTVSPost2010PropOp57
 70
     1
  0
XRECORD
  5
3C7
102
{ACAD_REACTORS
330
3C6
102
}
330
3C6
100
AcDbXrecord
280
     1
102
RTVSPropertyOp0
 70
     1
102
RTVSPropertyOp1
 70
     1
102
RTVSPropertyOp2
 70
     1
102
RTVSPropertyOp3
 70
     1
102
RTVSPropertyOp4
 70
     1
102
RTVSPropertyOp5
 70
     1
102
RTVSPropertyOp6
 70
     1
102
RTVSPropertyOp7
 70
     1
102
RTVSPropertyOp8
 70
     1
102
RTVSPropertyOp9
 70
     1
102
RTVSPropertyOp10
 70
     1
102
RTVSPropertyOp11
 70
     1
102
RTVSPropertyOp12
 70
     1
102
RTVSPropertyOp13
 70
     1
102
RTVSPropertyOp14
 70
     1
102
RTVSPropertyOp15
 70
     1
102
RTVSPropertyOp16
 70
     1
102
RTVSPropertyOp17
 70
     1
102
RTVSPropertyOp18
 70
     1
102
RTVSPropertyOp19
 70
     1
102
RTVSPropertyOp20
 70
     1
102
RTVSPropertyOp21
 70
     1
102
RTVSPropertyOp22
 70
     1
102
RTVSPropertyOp23
 70
     1
102
RTVSPropertyOp24
 70
     1
102
RTVSPropertyOp25
 70
     1
102
RTVSPropertyOp26
 70
     1
102
RTVSPropertyOp27
 70
     1
102
RTVSPropertyOp28
 70
     1
102
RTVSPropertyOp29
 70
     1
102
RTVSPropertyOp30
 70
     1
102
RTVSPropertyOp31
 70
     1
102
RTVSPropertyOp32
 70
     1
102
RTVSPropertyOp33
 70
     1
102
RTVSPropertyOp34
 70
     1
102
RTVSPropertyOp35
 70
     1
102
RTVSPropertyOp36
 70
     1
102
RTVSPropertyOp37
 70
     1
102
RTVSPropertyOp38
 70
     1
102
RTVSPropertyOp39
 70
     1
102
RTVSPropertyOp40
 70
     1
102
RTVSPropertyOp41
 70
     1
102
RTVSPropertyOp42
 70
     1
102
RTVSPropertyOp43
 70
     1
102
RTVSPropertyOp44
 70
     1
102
RTVSPropertyOp45
 70
     1
102
RTVSPropertyOp46
 70
     1
102
RTVSPropertyOp47
 70
     1
102
RTVSPropertyOp48
 70
     1
102
RTVSPropertyOp49
 70
     1
102
RTVSPropertyOp50
 70
     1
102
RTVSPropertyOp51
 70
     0
102
RTVSPropertyOp52
 70
     0
102
RTVSPropertyOp53
 70
     1
102
RTVSPropertyOp54
 70
     1
102
RTVSPropertyOp55
 70
     1
102
RTVSPropertyOp56
 70
     1
102
RTVSPropertyOp57
 70
     1
102
RTVSPost2010Prop28
280
     0
102
RTVSPost2010PropOp28
 70
     1
102
RTVSPost2010Prop29
280
     1
102
RTVSPost2010PropOp29
 70
     1
102
RTVSPost2010Prop30
280
     1
102
RTVSPost2010PropOp30
 70
     1
102
RTVSPost2010Prop31
280
     0
102
RTVSPost2010PropOp31
 70
     1
102
RTVSPost2010Prop32
280
     0
102
RTVSPost2010PropOp32
 70
     1
102
RTVSPost2010Prop33
280
     0
102
RTVSPost2010PropOp33
 70
     1
102
RTVSPost2010Prop34
280
     0
102
RTVSPost2010PropOp34
 70
     1
102
RTVSPost2010Prop35
280
     0
102
RTVSPost2010PropOp35
 70
     1
102
RTVSPost2010Prop36
280
     0
102
RTVSPost2010PropOp36
 70
     1
102
RTVSPost2010Prop37
 90
       50
102
RTVSPost2010PropOp37
 70
     1
102
RTVSPost2010Prop38
140
0.0
102
RTVSPost2010PropOp38
 70
     1
102
RTVSPost2010Prop39
140
1.0
102
RTVSPost2010PropOp39
 70
     1
102
RTVSPost2010Prop40
 90
        0
102
RTVSPost2010PropOp40
 70
     1
102
RTVSPost2010Prop41ColorIndex
 90
       18
102
RTVSPost2010Prop41ColorRGB
 90
        0
102
RTVSPost2010PropOp41
 70
     1
102
RTVSPost2010Prop42
 90
       50
102
RTVSPost2010PropOp42
 70
     1
102
RTVSPost2010Prop43
 90
        3
102
RTVSPost2010PropOp43
 70
     1
102
RTVSPost2010Prop44ColorIndex
 90
        5
102
RTVSPost2010Prop44ColorRGB
 90
      255
102
RTVSPost2010PropOp44
 70
     1
102
RTVSPost2010Prop45
280
     0
102
RTVSPost2010PropOp45
 70
     1
102
RTVSPost2010Prop46
 90
       50
102
RTVSPost2010PropOp46
 70
     1
102
RTVSPost2010Prop47
 90
       50
102
RTVSPost2010PropOp47
 70
     1
102
RTVSPost2010Prop48
 90
       50
102
RTVSPost2010PropOp48
 70
     1
102
RTVSPost2010Prop49
280
     0
102
RTVSPost2010PropOp49
 70
     1
102
RTVSPost2010Prop50
 90
       50
102
RTVSPost2010PropOp50
 70
     1
102
RTVSPost2010Prop51ColorIndex
 90
      256
102
RTVSPost2010Prop51ColorRGB
 90
-16777216
102
RTVSPost2010PropOp51
 70
     0
102
RTVSPost2010Prop52
140
1.0
102
RTVSPost2010PropOp52
 70
     0
102
RTVSPost2010Prop53
 90
        2
102
RTVSPost2010PropOp53
 70
     1
102
RTVSPost2010Prop54
  1
strokes_ogs.tif
102
RTVSPost2010PropOp54
 70
     1
102
RTVSPost2010Prop55
280
     0
102
RTVSPost2010PropOp55
 70
     1
102
RTVSPost2010Prop56
140
1.0
102
RTVSPost2010PropOp56
 70
     1
102
RTVSPost2010Prop57
140
1.0
102
RTVSPost2010PropOp57
 70
     1
  0
XRECORD
  5
3C9
102
{ACAD_REACTORS
330
3C8
102
}
330
3C8
100
AcDbXrecord
280
     1
102
RTVSPropertyOp0
 70
     1
102
RTVSPropertyOp1
 70
     1
102
RTVSPropertyOp2
 70
     1
102
RTVSPropertyOp3
 70
     1
102
RTVSPropertyOp4
 70
     1
102
RTVSPropertyOp5
 70
     1
102
RTVSPropertyOp6
 70
     1
102
RTVSPropertyOp7
 70
     1
102
RTVSPropertyOp8
 70
     1
102
RTVSPropertyOp9
 70
     1
102
RTVSPropertyOp10
 70
     1
102
RTVSPropertyOp11
 70
     1
102
RTVSPropertyOp12
 70
     1
102
RTVSPropertyOp13
 70
     1
102
RTVSPropertyOp14
 70
     1
102
RTVSPropertyOp15
 70
     1
102
RTVSPropertyOp16
 70
     1
102
RTVSPropertyOp17
 70
     1
102
RTVSPropertyOp18
 70
     1
102
RTVSPropertyOp19
 70
     1
102
RTVSPropertyOp20
 70
     1
102
RTVSPropertyOp21
 70
     1
102
RTVSPropertyOp22
 70
     1
102
RTVSPropertyOp23
 70
     1
102
RTVSPropertyOp24
 70
     1
102
RTVSPropertyOp25
 70
     1
102
RTVSPropertyOp26
 70
     1
102
RTVSPropertyOp27
 70
     1
102
RTVSPropertyOp28
 70
     1
102
RTVSPropertyOp29
 70
     1
102
RTVSPropertyOp30
 70
     1
102
RTVSPropertyOp31
 70
     1
102
RTVSPropertyOp32
 70
     1
102
RTVSPropertyOp33
 70
     1
102
RTVSPropertyOp34
 70
     1
102
RTVSPropertyOp35
 70
     1
102
RTVSPropertyOp36
 70
     1
102
RTVSPropertyOp37
 70
     1
102
RTVSPropertyOp38
 70
     1
102
RTVSPropertyOp39
 70
     1
102
RTVSPropertyOp40
 70
     1
102
RTVSPropertyOp41
 70
     1
102
RTVSPropertyOp42
 70
     1
102
RTVSPropertyOp43
 70
     1
102
RTVSPropertyOp44
 70
     1
102
RTVSPropertyOp45
 70
     1
102
RTVSPropertyOp46
 70
     1
102
RTVSPropertyOp47
 70
     1
102
RTVSPropertyOp48
 70
     1
102
RTVSPropertyOp49
 70
     1
102
RTVSPropertyOp50
 70
     1
102
RTVSPropertyOp51
 70
     0
102
RTVSPropertyOp52
 70
     0
102
RTVSPropertyOp53
 70
     1
102
RTVSPropertyOp54
 70
     1
102
RTVSPropertyOp55
 70
     1
102
RTVSPropertyOp56
 70
     1
102
RTVSPropertyOp57
 70
     1
102
RTVSPost2010Prop28
280
     0
102
RTVSPost2010PropOp28
 70
     1
102
RTVSPost2010Prop29
280
     1
102
RTVSPost2010PropOp29
 70
     1
102
RTVSPost2010Prop30
280
     1
102
RTVSPost2010PropOp30
 70
     1
102
RTVSPost2010Prop31
280
     0
102
RTVSPost2010PropOp31
 70
     1
102
RTVSPost2010Prop32
280
     0
102
RTVSPost2010PropOp32
 70
     1
102
RTVSPost2010Prop33
280
     0
102
RTVSPost2010PropOp33
 70
     1
102
RTVSPost2010Prop34
280
     0
102
RTVSPost2010PropOp34
 70
     1
102
RTVSPost2010Prop35
280
     0
102
RTVSPost2010PropOp35
 70
     1
102
RTVSPost2010Prop36
280
     0
102
RTVSPost2010PropOp36
 70
     1
102
RTVSPost2010Prop37
 90
       50
102
RTVSPost2010PropOp37
 70
     1
102
RTVSPost2010Prop38
140
0.0
102
RTVSPost2010PropOp38
 70
     1
102
RTVSPost2010Prop39
140
1.0
102
RTVSPost2010PropOp39
 70
     1
102
RTVSPost2010Prop40
 90
        0
102
RTVSPost2010PropOp40
 70
     1
102
RTVSPost2010Prop41ColorIndex
 90
       18
102
RTVSPost2010Prop41ColorRGB
 90
        0
102
RTVSPost2010PropOp41
 70
     1
102
RTVSPost2010Prop42
 90
       50
102
RTVSPost2010PropOp42
 70
     1
102
RTVSPost2010Prop43
 90
        3
102
RTVSPost2010PropOp43
 70
     1
102
RTVSPost2010Prop44ColorIndex
 90
        5
102
RTVSPost2010Prop44ColorRGB
 90
      255
102
RTVSPost2010PropOp44
 70
     1
102
RTVSPost2010Prop45
280
     0
102
RTVSPost2010PropOp45
 70
     1
102
RTVSPost2010Prop46
 90
       50
102
RTVSPost2010PropOp46
 70
     1
102
RTVSPost2010Prop47
 90
       50
102
RTVSPost2010PropOp47
 70
     1
102
RTVSPost2010Prop48
 90
       50
102
RTVSPost2010PropOp48
 70
     1
102
RTVSPost2010Prop49
280
     0
102
RTVSPost2010PropOp49
 70
     1
102
RTVSPost2010Prop50
 90
       50
102
RTVSPost2010PropOp50
 70
     1
102
RTVSPost2010Prop51ColorIndex
 90
      256
102
RTVSPost2010Prop51ColorRGB
 90
-16777216
102
RTVSPost2010PropOp51
 70
     0
102
RTVSPost2010Prop52
140
1.0
102
RTVSPost2010PropOp52
 70
     0
102
RTVSPost2010Prop53
 90
        2
102
RTVSPost2010PropOp53
 70
     1
102
RTVSPost2010Prop54
  1
strokes_ogs.tif
102
RTVSPost2010PropOp54
 70
     1
102
RTVSPost2010Prop55
280
     0
102
RTVSPost2010PropOp55
 70
     1
102
RTVSPost2010Prop56
140
1.0
102
RTVSPost2010PropOp56
 70
     1
102
RTVSPost2010Prop57
140
1.0
102
RTVSPost2010PropOp57
 70
     1
  0
XRECORD
  5
3CF
102
{ACAD_REACTORS
330
3CE
102
}
330
3CE
100
AcDbXrecord
280
     1
102
RTVSPropertyOp0
 70
     1
102
RTVSPropertyOp1
 70
     1
102
RTVSPropertyOp2
 70
     1
102
RTVSPropertyOp3
 70
     1
102
RTVSPropertyOp4
 70
     1
102
RTVSPropertyOp5
 70
     1
102
RTVSPropertyOp6
 70
     1
102
RTVSPropertyOp7
 70
     1
102
RTVSPropertyOp8
 70
     1
102
RTVSPropertyOp9
 70
     1
102
RTVSPropertyOp10
 70
     1
102
RTVSPropertyOp11
 70
     1
102
RTVSPropertyOp12
 70
     1
102
RTVSPropertyOp13
 70
     1
102
RTVSPropertyOp14
 70
     1
102
RTVSPropertyOp15
 70
     1
102
RTVSPropertyOp16
 70
     1
102
RTVSPropertyOp17
 70
     1
102
RTVSPropertyOp18
 70
     1
102
RTVSPropertyOp19
 70
     1
102
RTVSPropertyOp20
 70
     1
102
RTVSPropertyOp21
 70
     1
102
RTVSPropertyOp22
 70
     1
102
RTVSPropertyOp23
 70
     1
102
RTVSPropertyOp24
 70
     1
102
RTVSPropertyOp25
 70
     1
102
RTVSPropertyOp26
 70
     1
102
RTVSPropertyOp27
 70
     1
102
RTVSPropertyOp28
 70
     1
102
RTVSPropertyOp29
 70
     1
102
RTVSPropertyOp30
 70
     1
102
RTVSPropertyOp31
 70
     1
102
RTVSPropertyOp32
 70
     1
102
RTVSPropertyOp33
 70
     1
102
RTVSPropertyOp34
 70
     1
102
RTVSPropertyOp35
 70
     1
102
RTVSPropertyOp36
 70
     1
102
RTVSPropertyOp37
 70
     1
102
RTVSPropertyOp38
 70
     1
102
RTVSPropertyOp39
 70
     1
102
RTVSPropertyOp40
 70
     1
102
RTVSPropertyOp41
 70
     1
102
RTVSPropertyOp42
 70
     1
102
RTVSPropertyOp43
 70
     1
102
RTVSPropertyOp44
 70
     1
102
RTVSPropertyOp45
 70
     1
102
RTVSPropertyOp46
 70
     1
102
RTVSPropertyOp47
 70
     1
102
RTVSPropertyOp48
 70
     1
102
RTVSPropertyOp49
 70
     1
102
RTVSPropertyOp50
 70
     1
102
RTVSPropertyOp51
 70
     0
102
RTVSPropertyOp52
 70
     0
102
RTVSPropertyOp53
 70
     1
102
RTVSPropertyOp54
 70
     1
102
RTVSPropertyOp55
 70
     1
102
RTVSPropertyOp56
 70
     1
102
RTVSPropertyOp57
 70
     1
102
RTVSPost2010Prop28
280
     0
102
RTVSPost2010PropOp28
 70
     1
102
RTVSPost2010Prop29
280
     1
102
RTVSPost2010PropOp29
 70
     1
102
RTVSPost2010Prop30
280
     1
102
RTVSPost2010PropOp30
 70
     1
102
RTVSPost2010Prop31
280
     0
102
RTVSPost2010PropOp31
 70
     1
102
RTVSPost2010Prop32
280
     0
102
RTVSPost2010PropOp32
 70
     1
102
RTVSPost2010Prop33
280
     0
102
RTVSPost2010PropOp33
 70
     1
102
RTVSPost2010Prop34
280
     0
102
RTVSPost2010PropOp34
 70
     1
102
RTVSPost2010Prop35
280
     0
102
RTVSPost2010PropOp35
 70
     1
102
RTVSPost2010Prop36
280
     0
102
RTVSPost2010PropOp36
 70
     1
102
RTVSPost2010Prop37
 90
       50
102
RTVSPost2010PropOp37
 70
     1
102
RTVSPost2010Prop38
140
0.0
102
RTVSPost2010PropOp38
 70
     1
102
RTVSPost2010Prop39
140
1.0
102
RTVSPost2010PropOp39
 70
     1
102
RTVSPost2010Prop40
 90
        0
102
RTVSPost2010PropOp40
 70
     1
102
RTVSPost2010Prop41ColorIndex
 90
       18
102
RTVSPost2010Prop41ColorRGB
 90
        0
102
RTVSPost2010PropOp41
 70
     1
102
RTVSPost2010Prop42
 90
       50
102
RTVSPost2010PropOp42
 70
     1
102
RTVSPost2010Prop43
 90
        3
102
RTVSPost2010PropOp43
 70
     1
102
RTVSPost2010Prop44ColorIndex
 90
        5
102
RTVSPost2010Prop44ColorRGB
 90
      255
102
RTVSPost2010PropOp44
 70
     1
102
RTVSPost2010Prop45
280
     0
102
RTVSPost2010PropOp45
 70
     1
102
RTVSPost2010Prop46
 90
       50
102
RTVSPost2010PropOp46
 70
     1
102
RTVSPost2010Prop47
 90
       50
102
RTVSPost2010PropOp47
 70
     1
102
RTVSPost2010Prop48
 90
       50
102
RTVSPost2010PropOp48
 70
     1
102
RTVSPost2010Prop49
280
     0
102
RTVSPost2010PropOp49
 70
     1
102
RTVSPost2010Prop50
 90
       50
102
RTVSPost2010PropOp50
 70
     1
102
RTVSPost2010Prop51ColorIndex
 90
      256
102
RTVSPost2010Prop51ColorRGB
 90
-16777216
102
RTVSPost2010PropOp51
 70
     0
102
RTVSPost2010Prop52
140
1.0
102
RTVSPost2010PropOp52
 70
     0
102
RTVSPost2010Prop53
 90
        2
102
RTVSPost2010PropOp53
 70
     1
102
RTVSPost2010Prop54
  1
strokes_ogs.tif
102
RTVSPost2010PropOp54
 70
     1
102
RTVSPost2010Prop55
280
     0
102
RTVSPost2010PropOp55
 70
     1
102
RTVSPost2010Prop56
140
1.0
102
RTVSPost2010PropOp56
 70
     1
102
RTVSPost2010Prop57
140
1.0
102
RTVSPost2010PropOp57
 70
     1
  0
XRECORD
  5
3E3
102
{ACAD_REACTORS
330
3E2
102
}
330
3E2
100
AcDbXrecord
280
     1
102
RTVSPropertyOp0
 70
     0
102
RTVSPropertyOp1
 70
     0
102
RTVSPropertyOp2
 70
     0
102
RTVSPropertyOp3
 70
     0
102
RTVSPropertyOp4
 70
     0
102
RTVSPropertyOp5
 70
     0
102
RTVSPropertyOp6
 70
     0
102
RTVSPropertyOp7
 70
     0
102
RTVSPropertyOp8
 70
     0
102
RTVSPropertyOp9
 70
     0
102
RTVSPropertyOp10
 70
     0
102
RTVSPropertyOp11
 70
     0
102
RTVSPropertyOp12
 70
     0
102
RTVSPropertyOp13
 70
     0
102
RTVSPropertyOp14
 70
     2
102
RTVSPropertyOp15
 70
     0
102
RTVSPropertyOp16
 70
     0
102
RTVSPropertyOp17
 70
     0
102
RTVSPropertyOp18
 70
     0
102
RTVSPropertyOp19
 70
     0
102
RTVSPropertyOp20
 70
     0
102
RTVSPropertyOp21
 70
     0
102
RTVSPropertyOp22
 70
     0
102
RTVSPropertyOp23
 70
     0
102
RTVSPropertyOp24
 70
     0
102
RTVSPropertyOp25
 70
     0
102
RTVSPropertyOp26
 70
     0
102
RTVSPropertyOp27
 70
     0
102
RTVSPropertyOp28
 70
     0
102
RTVSPropertyOp29
 70
     0
102
RTVSPropertyOp30
 70
     0
102
RTVSPropertyOp31
 70
     0
102
RTVSPropertyOp32
 70
     0
102
RTVSPropertyOp33
 70
     0
102
RTVSPropertyOp34
 70
     0
102
RTVSPropertyOp35
 70
     0
102
RTVSPropertyOp36
 70
     0
102
RTVSPropertyOp37
 70
     0
102
RTVSPropertyOp38
 70
     0
102
RTVSPropertyOp39
 70
     0
102
RTVSPropertyOp40
 70
     0
102
RTVSPropertyOp41
 70
     0
102
RTVSPropertyOp42
 70
     0
102
RTVSPropertyOp43
 70
     0
102
RTVSPropertyOp44
 70
     0
102
RTVSPropertyOp45
 70
     0
102
RTVSPropertyOp46
 70
     0
102
RTVSPropertyOp47
 70
     0
102
RTVSPropertyOp48
 70
     0
102
RTVSPropertyOp49
 70
     0
102
RTVSPropertyOp50
 70
     0
102
RTVSPropertyOp51
 70
     0
102
RTVSPropertyOp52
 70
     0
102
RTVSPropertyOp53
 70
     0
102
RTVSPropertyOp54
 70
     0
102
RTVSPropertyOp55
 70
     0
102
RTVSPropertyOp56
 70
     0
102
RTVSPropertyOp57
 70
     0
102
RTVSPost2010Prop28
280
     0
102
RTVSPost2010PropOp28
 70
     0
102
RTVSPost2010Prop29
280
     1
102
RTVSPost2010PropOp29
 70
     0
102
RTVSPost2010Prop30
280
     1
102
RTVSPost2010PropOp30
 70
     0
102
RTVSPost2010Prop31
280
     0
102
RTVSPost2010PropOp31
 70
     0
102
RTVSPost2010Prop32
280
     0
102
RTVSPost2010PropOp32
 70
     0
102
RTVSPost2010Prop33
280
     0
102
RTVSPost2010PropOp33
 70
     0
102
RTVSPost2010Prop34
280
     0
102
RTVSPost2010PropOp34
 70
     0
102
RTVSPost2010Prop35
280
     0
102
RTVSPost2010PropOp35
 70
     0
102
RTVSPost2010Prop36
280
     0
102
RTVSPost2010PropOp36
 70
     0
102
RTVSPost2010Prop37
 90
       50
102
RTVSPost2010PropOp37
 70
     0
102
RTVSPost2010Prop38
140
0.0
102
RTVSPost2010PropOp38
 70
     0
102
RTVSPost2010Prop39
140
1.0
102
RTVSPost2010PropOp39
 70
     0
102
RTVSPost2010Prop40
 90
        0
102
RTVSPost2010PropOp40
 70
     0
102
RTVSPost2010Prop41ColorIndex
 90
       18
102
RTVSPost2010Prop41ColorRGB
 90
        0
102
RTVSPost2010PropOp41
 70
     0
102
RTVSPost2010Prop42
 90
       50
102
RTVSPost2010PropOp42
 70
     0
102
RTVSPost2010Prop43
 90
        3
102
RTVSPost2010PropOp43
 70
     0
102
RTVSPost2010Prop44ColorIndex
 90
        5
102
RTVSPost2010Prop44ColorRGB
 90
      255
102
RTVSPost2010PropOp44
 70
     0
102
RTVSPost2010Prop45
280
     0
102
RTVSPost2010PropOp45
 70
     0
102
RTVSPost2010Prop46
 90
       50
102
RTVSPost2010PropOp46
 70
     0
102
RTVSPost2010Prop47
 90
       50
102
RTVSPost2010PropOp47
 70
     0
102
RTVSPost2010Prop48
 90
       50
102
RTVSPost2010PropOp48
 70
     0
102
RTVSPost2010Prop49
280
     0
102
RTVSPost2010PropOp49
 70
     0
102
RTVSPost2010Prop50
 90
       50
102
RTVSPost2010PropOp50
 70
     0
102
RTVSPost2010Prop51ColorIndex
 90
      256
102
RTVSPost2010Prop51ColorRGB
 90
-16777216
102
RTVSPost2010PropOp51
 70
     0
102
RTVSPost2010Prop52
140
1.0
102
RTVSPost2010PropOp52
 70
     0
102
RTVSPost2010Prop53
 90
        2
102
RTVSPost2010PropOp53
 70
     0
102
RTVSPost2010Prop54
  1
strokes_ogs.tif
102
RTVSPost2010PropOp54
 70
     0
102
RTVSPost2010Prop55
280
     0
102
RTVSPost2010PropOp55
 70
     0
102
RTVSPost2010Prop56
140
1.0
102
RTVSPost2010PropOp56
 70
     0
102
RTVSPost2010Prop57
140
1.0
102
RTVSPost2010PropOp57
 70
     0
  0
XRECORD
  5
3DD
102
{ACAD_REACTORS
330
3DC
102
}
330
3DC
100
AcDbXrecord
280
     1
102
RTVSPropertyOp0
 70
     1
102
RTVSPropertyOp1
 70
     1
102
RTVSPropertyOp2
 70
     1
102
RTVSPropertyOp3
 70
     1
102
RTVSPropertyOp4
 70
     1
102
RTVSPropertyOp5
 70
     1
102
RTVSPropertyOp6
 70
     1
102
RTVSPropertyOp7
 70
     1
102
RTVSPropertyOp8
 70
     1
102
RTVSPropertyOp9
 70
     1
102
RTVSPropertyOp10
 70
     1
102
RTVSPropertyOp11
 70
     1
102
RTVSPropertyOp12
 70
     1
102
RTVSPropertyOp13
 70
     1
102
RTVSPropertyOp14
 70
     1
102
RTVSPropertyOp15
 70
     1
102
RTVSPropertyOp16
 70
     1
102
RTVSPropertyOp17
 70
     1
102
RTVSPropertyOp18
 70
     1
102
RTVSPropertyOp19
 70
     1
102
RTVSPropertyOp20
 70
     1
102
RTVSPropertyOp21
 70
     1
102
RTVSPropertyOp22
 70
     1
102
RTVSPropertyOp23
 70
     1
102
RTVSPropertyOp24
 70
     1
102
RTVSPropertyOp25
 70
     1
102
RTVSPropertyOp26
 70
     1
102
RTVSPropertyOp27
 70
     1
102
RTVSPropertyOp28
 70
     1
102
RTVSPropertyOp29
 70
     1
102
RTVSPropertyOp30
 70
     1
102
RTVSPropertyOp31
 70
     1
102
RTVSPropertyOp32
 70
     1
102
RTVSPropertyOp33
 70
     1
102
RTVSPropertyOp34
 70
     1
102
RTVSPropertyOp35
 70
     1
102
RTVSPropertyOp36
 70
     1
102
RTVSPropertyOp37
 70
     1
102
RTVSPropertyOp38
 70
     1
102
RTVSPropertyOp39
 70
     1
102
RTVSPropertyOp40
 70
     1
102
RTVSPropertyOp41
 70
     1
102
RTVSPropertyOp42
 70
     1
102
RTVSPropertyOp43
 70
     1
102
RTVSPropertyOp44
 70
     1
102
RTVSPropertyOp45
 70
     1
102
RTVSPropertyOp46
 70
     1
102
RTVSPropertyOp47
 70
     1
102
RTVSPropertyOp48
 70
     1
102
RTVSPropertyOp49
 70
     1
102
RTVSPropertyOp50
 70
     1
102
RTVSPropertyOp51
 70
     0
102
RTVSPropertyOp52
 70
     0
102
RTVSPropertyOp53
 70
     1
102
RTVSPropertyOp54
 70
     1
102
RTVSPropertyOp55
 70
     1
102
RTVSPropertyOp56
 70
     1
102
RTVSPropertyOp57
 70
     1
102
RTVSPost2010Prop28
280
     0
102
RTVSPost2010PropOp28
 70
     1
102
RTVSPost2010Prop29
280
     1
102
RTVSPost2010PropOp29
 70
     1
102
RTVSPost2010Prop30
280
     1
102
RTVSPost2010PropOp30
 70
     1
102
RTVSPost2010Prop31
280
     0
102
RTVSPost2010PropOp31
 70
     1
102
RTVSPost2010Prop32
280
     0
102
RTVSPost2010PropOp32
 70
     1
102
RTVSPost2010Prop33
280
     0
102
RTVSPost2010PropOp33
 70
     1
102
RTVSPost2010Prop34
280
     0
102
RTVSPost2010PropOp34
 70
     1
102
RTVSPost2010Prop35
280
     0
102
RTVSPost2010PropOp35
 70
     1
102
RTVSPost2010Prop36
280
     0
102
RTVSPost2010PropOp36
 70
     1
102
RTVSPost2010Prop37
 90
       50
102
RTVSPost2010PropOp37
 70
     1
102
RTVSPost2010Prop38
140
0.0
102
RTVSPost2010PropOp38
 70
     1
102
RTVSPost2010Prop39
140
1.0
102
RTVSPost2010PropOp39
 70
     1
102
RTVSPost2010Prop40
 90
        0
102
RTVSPost2010PropOp40
 70
     1
102
RTVSPost2010Prop41ColorIndex
 90
       18
102
RTVSPost2010Prop41ColorRGB
 90
        0
102
RTVSPost2010PropOp41
 70
     1
102
RTVSPost2010Prop42
 90
       50
102
RTVSPost2010PropOp42
 70
     1
102
RTVSPost2010Prop43
 90
        3
102
RTVSPost2010PropOp43
 70
     1
102
RTVSPost2010Prop44ColorIndex
 90
        5
102
RTVSPost2010Prop44ColorRGB
 90
      255
102
RTVSPost2010PropOp44
 70
     1
102
RTVSPost2010Prop45
280
     0
102
RTVSPost2010PropOp45
 70
     1
102
RTVSPost2010Prop46
 90
       50
102
RTVSPost2010PropOp46
 70
     1
102
RTVSPost2010Prop47
 90
       50
102
RTVSPost2010PropOp47
 70
     1
102
RTVSPost2010Prop48
 90
       50
102
RTVSPost2010PropOp48
 70
     1
102
RTVSPost2010Prop49
280
     0
102
RTVSPost2010PropOp49
 70
     1
102
RTVSPost2010Prop50
 90
       50
102
RTVSPost2010PropOp50
 70
     1
102
RTVSPost2010Prop51ColorIndex
 90
      256
102
RTVSPost2010Prop51ColorRGB
 90
-16777216
102
RTVSPost2010PropOp51
 70
     0
102
RTVSPost2010Prop52
140
1.0
102
RTVSPost2010PropOp52
 70
     0
102
RTVSPost2010Prop53
 90
        2
102
RTVSPost2010PropOp53
 70
     1
102
RTVSPost2010Prop54
  1
strokes_ogs.tif
102
RTVSPost2010PropOp54
 70
     1
102
RTVSPost2010Prop55
280
     0
102
RTVSPost2010PropOp55
 70
     1
102
RTVSPost2010Prop56
140
1.0
102
RTVSPost2010PropOp56
 70
     1
102
RTVSPost2010Prop57
140
1.0
102
RTVSPost2010PropOp57
 70
     1
  0
XRECORD
  5
3E5
102
{ACAD_REACTORS
330
3E4
102
}
330
3E4
100
AcDbXrecord
280
     1
102
RTVSPropertyOp0
 70
     0
102
RTVSPropertyOp1
 70
     0
102
RTVSPropertyOp2
 70
     0
102
RTVSPropertyOp3
 70
     0
102
RTVSPropertyOp4
 70
     0
102
RTVSPropertyOp5
 70
     0
102
RTVSPropertyOp6
 70
     0
102
RTVSPropertyOp7
 70
     0
102
RTVSPropertyOp8
 70
     0
102
RTVSPropertyOp9
 70
     0
102
RTVSPropertyOp10
 70
     0
102
RTVSPropertyOp11
 70
     0
102
RTVSPropertyOp12
 70
     0
102
RTVSPropertyOp13
 70
     0
102
RTVSPropertyOp14
 70
     2
102
RTVSPropertyOp15
 70
     0
102
RTVSPropertyOp16
 70
     0
102
RTVSPropertyOp17
 70
     0
102
RTVSPropertyOp18
 70
     0
102
RTVSPropertyOp19
 70
     0
102
RTVSPropertyOp20
 70
     0
102
RTVSPropertyOp21
 70
     0
102
RTVSPropertyOp22
 70
     0
102
RTVSPropertyOp23
 70
     0
102
RTVSPropertyOp24
 70
     0
102
RTVSPropertyOp25
 70
     0
102
RTVSPropertyOp26
 70
     0
102
RTVSPropertyOp27
 70
     0
102
RTVSPropertyOp28
 70
     0
102
RTVSPropertyOp29
 70
     0
102
RTVSPropertyOp30
 70
     0
102
RTVSPropertyOp31
 70
     0
102
RTVSPropertyOp32
 70
     0
102
RTVSPropertyOp33
 70
     0
102
RTVSPropertyOp34
 70
     0
102
RTVSPropertyOp35
 70
     0
102
RTVSPropertyOp36
 70
     0
102
RTVSPropertyOp37
 70
     0
102
RTVSPropertyOp38
 70
     0
102
RTVSPropertyOp39
 70
     0
102
RTVSPropertyOp40
 70
     0
102
RTVSPropertyOp41
 70
     0
102
RTVSPropertyOp42
 70
     0
102
RTVSPropertyOp43
 70
     0
102
RTVSPropertyOp44
 70
     0
102
RTVSPropertyOp45
 70
     0
102
RTVSPropertyOp46
 70
     0
102
RTVSPropertyOp47
 70
     0
102
RTVSPropertyOp48
 70
     0
102
RTVSPropertyOp49
 70
     0
102
RTVSPropertyOp50
 70
     0
102
RTVSPropertyOp51
 70
     0
102
RTVSPropertyOp52
 70
     0
102
RTVSPropertyOp53
 70
     0
102
RTVSPropertyOp54
 70
     0
102
RTVSPropertyOp55
 70
     0
102
RTVSPropertyOp56
 70
     0
102
RTVSPropertyOp57
 70
     0
102
RTVSPost2010Prop28
280
     0
102
RTVSPost2010PropOp28
 70
     0
102
RTVSPost2010Prop29
280
     1
102
RTVSPost2010PropOp29
 70
     0
102
RTVSPost2010Prop30
280
     1
102
RTVSPost2010PropOp30
 70
     0
102
RTVSPost2010Prop31
280
     0
102
RTVSPost2010PropOp31
 70
     0
102
RTVSPost2010Prop32
280
     0
102
RTVSPost2010PropOp32
 70
     0
102
RTVSPost2010Prop33
280
     0
102
RTVSPost2010PropOp33
 70
     0
102
RTVSPost2010Prop34
280
     0
102
RTVSPost2010PropOp34
 70
     0
102
RTVSPost2010Prop35
280
     0
102
RTVSPost2010PropOp35
 70
     0
102
RTVSPost2010Prop36
280
     0
102
RTVSPost2010PropOp36
 70
     0
102
RTVSPost2010Prop37
 90
       50
102
RTVSPost2010PropOp37
 70
     0
102
RTVSPost2010Prop38
140
0.0
102
RTVSPost2010PropOp38
 70
     0
102
RTVSPost2010Prop39
140
1.0
102
RTVSPost2010PropOp39
 70
     0
102
RTVSPost2010Prop40
 90
        0
102
RTVSPost2010PropOp40
 70
     0
102
RTVSPost2010Prop41ColorIndex
 90
       18
102
RTVSPost2010Prop41ColorRGB
 90
        0
102
RTVSPost2010PropOp41
 70
     0
102
RTVSPost2010Prop42
 90
       50
102
RTVSPost2010PropOp42
 70
     0
102
RTVSPost2010Prop43
 90
        3
102
RTVSPost2010PropOp43
 70
     0
102
RTVSPost2010Prop44ColorIndex
 90
        5
102
RTVSPost2010Prop44ColorRGB
 90
      255
102
RTVSPost2010PropOp44
 70
     0
102
RTVSPost2010Prop45
280
     0
102
RTVSPost2010PropOp45
 70
     0
102
RTVSPost2010Prop46
 90
       50
102
RTVSPost2010PropOp46
 70
     0
102
RTVSPost2010Prop47
 90
       50
102
RTVSPost2010PropOp47
 70
     0
102
RTVSPost2010Prop48
 90
       50
102
RTVSPost2010PropOp48
 70
     0
102
RTVSPost2010Prop49
280
     0
102
RTVSPost2010PropOp49
 70
     0
102
RTVSPost2010Prop50
 90
       50
102
RTVSPost2010PropOp50
 70
     0
102
RTVSPost2010Prop51ColorIndex
 90
      256
102
RTVSPost2010Prop51ColorRGB
 90
-16777216
102
RTVSPost2010PropOp51
 70
     0
102
RTVSPost2010Prop52
140
1.0
102
RTVSPost2010PropOp52
 70
     0
102
RTVSPost2010Prop53
 90
        2
102
RTVSPost2010PropOp53
 70
     0
102
RTVSPost2010Prop54
  1
strokes_ogs.tif
102
RTVSPost2010PropOp54
 70
     0
102
RTVSPost2010Prop55
280
     0
102
RTVSPost2010PropOp55
 70
     0
102
RTVSPost2010Prop56
140
1.0
102
RTVSPost2010PropOp56
 70
     0
102
RTVSPost2010Prop57
140
1.0
102
RTVSPost2010PropOp57
 70
     0
  0
XRECORD
  5
3D3
102
{ACAD_REACTORS
330
3D2
102
}
330
3D2
100
AcDbXrecord
280
     1
102
RTVSPropertyOp0
 70
     1
102
RTVSPropertyOp1
 70
     1
102
RTVSPropertyOp2
 70
     1
102
RTVSPropertyOp3
 70
     1
102
RTVSPropertyOp4
 70
     1
102
RTVSPropertyOp5
 70
     1
102
RTVSPropertyOp6
 70
     1
102
RTVSPropertyOp7
 70
     1
102
RTVSPropertyOp8
 70
     1
102
RTVSPropertyOp9
 70
     1
102
RTVSPropertyOp10
 70
     1
102
RTVSPropertyOp11
 70
     1
102
RTVSPropertyOp12
 70
     1
102
RTVSPropertyOp13
 70
     1
102
RTVSPropertyOp14
 70
     1
102
RTVSPropertyOp15
 70
     1
102
RTVSPropertyOp16
 70
     1
102
RTVSPropertyOp17
 70
     1
102
RTVSPropertyOp18
 70
     1
102
RTVSPropertyOp19
 70
     1
102
RTVSPropertyOp20
 70
     1
102
RTVSPropertyOp21
 70
     1
102
RTVSPropertyOp22
 70
     1
102
RTVSPropertyOp23
 70
     1
102
RTVSPropertyOp24
 70
     1
102
RTVSPropertyOp25
 70
     1
102
RTVSPropertyOp26
 70
     1
102
RTVSPropertyOp27
 70
     1
102
RTVSPropertyOp28
 70
     1
102
RTVSPropertyOp29
 70
     1
102
RTVSPropertyOp30
 70
     1
102
RTVSPropertyOp31
 70
     1
102
RTVSPropertyOp32
 70
     1
102
RTVSPropertyOp33
 70
     1
102
RTVSPropertyOp34
 70
     1
102
RTVSPropertyOp35
 70
     1
102
RTVSPropertyOp36
 70
     1
102
RTVSPropertyOp37
 70
     1
102
RTVSPropertyOp38
 70
     1
102
RTVSPropertyOp39
 70
     1
102
RTVSPropertyOp40
 70
     1
102
RTVSPropertyOp41
 70
     1
102
RTVSPropertyOp42
 70
     1
102
RTVSPropertyOp43
 70
     1
102
RTVSPropertyOp44
 70
     1
102
RTVSPropertyOp45
 70
     1
102
RTVSPropertyOp46
 70
     1
102
RTVSPropertyOp47
 70
     1
102
RTVSPropertyOp48
 70
     1
102
RTVSPropertyOp49
 70
     1
102
RTVSPropertyOp50
 70
     1
102
RTVSPropertyOp51
 70
     0
102
RTVSPropertyOp52
 70
     0
102
RTVSPropertyOp53
 70
     1
102
RTVSPropertyOp54
 70
     1
102
RTVSPropertyOp55
 70
     1
102
RTVSPropertyOp56
 70
     1
102
RTVSPropertyOp57
 70
     1
102
RTVSPost2010Prop28
280
     0
102
RTVSPost2010PropOp28
 70
     1
102
RTVSPost2010Prop29
280
     1
102
RTVSPost2010PropOp29
 70
     1
102
RTVSPost2010Prop30
280
     1
102
RTVSPost2010PropOp30
 70
     1
102
RTVSPost2010Prop31
280
     0
102
RTVSPost2010PropOp31
 70
     1
102
RTVSPost2010Prop32
280
     0
102
RTVSPost2010PropOp32
 70
     1
102
RTVSPost2010Prop33
280
     0
102
RTVSPost2010PropOp33
 70
     1
102
RTVSPost2010Prop34
280
     0
102
RTVSPost2010PropOp34
 70
     1
102
RTVSPost2010Prop35
280
     0
102
RTVSPost2010PropOp35
 70
     1
102
RTVSPost2010Prop36
280
     0
102
RTVSPost2010PropOp36
 70
     1
102
RTVSPost2010Prop37
 90
       50
102
RTVSPost2010PropOp37
 70
     1
102
RTVSPost2010Prop38
140
0.0
102
RTVSPost2010PropOp38
 70
     1
102
RTVSPost2010Prop39
140
1.0
102
RTVSPost2010PropOp39
 70
     1
102
RTVSPost2010Prop40
 90
        0
102
RTVSPost2010PropOp40
 70
     1
102
RTVSPost2010Prop41ColorIndex
 90
       18
102
RTVSPost2010Prop41ColorRGB
 90
        0
102
RTVSPost2010PropOp41
 70
     1
102
RTVSPost2010Prop42
 90
       50
102
RTVSPost2010PropOp42
 70
     1
102
RTVSPost2010Prop43
 90
        3
102
RTVSPost2010PropOp43
 70
     1
102
RTVSPost2010Prop44ColorIndex
 90
        5
102
RTVSPost2010Prop44ColorRGB
 90
      255
102
RTVSPost2010PropOp44
 70
     1
102
RTVSPost2010Prop45
280
     0
102
RTVSPost2010PropOp45
 70
     1
102
RTVSPost2010Prop46
 90
       50
102
RTVSPost2010PropOp46
 70
     1
102
RTVSPost2010Prop47
 90
       50
102
RTVSPost2010PropOp47
 70
     1
102
RTVSPost2010Prop48
 90
       50
102
RTVSPost2010PropOp48
 70
     1
102
RTVSPost2010Prop49
280
     0
102
RTVSPost2010PropOp49
 70
     1
102
RTVSPost2010Prop50
 90
       50
102
RTVSPost2010PropOp50
 70
     1
102
RTVSPost2010Prop51ColorIndex
 90
      256
102
RTVSPost2010Prop51ColorRGB
 90
-16777216
102
RTVSPost2010PropOp51
 70
     0
102
RTVSPost2010Prop52
140
1.0
102
RTVSPost2010PropOp52
 70
     0
102
RTVSPost2010Prop53
 90
        2
102
RTVSPost2010PropOp53
 70
     1
102
RTVSPost2010Prop54
  1
strokes_ogs.tif
102
RTVSPost2010PropOp54
 70
     1
102
RTVSPost2010Prop55
280
     0
102
RTVSPost2010PropOp55
 70
     1
102
RTVSPost2010Prop56
140
1.0
102
RTVSPost2010PropOp56
 70
     1
102
RTVSPost2010Prop57
140
1.0
102
RTVSPost2010PropOp57
 70
     1
  0
XRECORD
  5
3F1
102
{ACAD_REACTORS
330
3F0
102
}
330
3F0
100
AcDbXrecord
280
     1
102
RTVSPropertyOp0
 70
     1
102
RTVSPropertyOp1
 70
     1
102
RTVSPropertyOp2
 70
     1
102
RTVSPropertyOp3
 70
     1
102
RTVSPropertyOp4
 70
     1
102
RTVSPropertyOp5
 70
     1
102
RTVSPropertyOp6
 70
     1
102
RTVSPropertyOp7
 70
     1
102
RTVSPropertyOp8
 70
     1
102
RTVSPropertyOp9
 70
     1
102
RTVSPropertyOp10
 70
     1
102
RTVSPropertyOp11
 70
     1
102
RTVSPropertyOp12
 70
     1
102
RTVSPropertyOp13
 70
     1
102
RTVSPropertyOp14
 70
     1
102
RTVSPropertyOp15
 70
     1
102
RTVSPropertyOp16
 70
     1
102
RTVSPropertyOp17
 70
     1
102
RTVSPropertyOp18
 70
     1
102
RTVSPropertyOp19
 70
     1
102
RTVSPropertyOp20
 70
     1
102
RTVSPropertyOp21
 70
     1
102
RTVSPropertyOp22
 70
     1
102
RTVSPropertyOp23
 70
     1
102
RTVSPropertyOp24
 70
     1
102
RTVSPropertyOp25
 70
     1
102
RTVSPropertyOp26
 70
     1
102
RTVSPropertyOp27
 70
     1
102
RTVSPropertyOp28
 70
     1
102
RTVSPropertyOp29
 70
     1
102
RTVSPropertyOp30
 70
     1
102
RTVSPropertyOp31
 70
     1
102
RTVSPropertyOp32
 70
     1
102
RTVSPropertyOp33
 70
     1
102
RTVSPropertyOp34
 70
     1
102
RTVSPropertyOp35
 70
     1
102
RTVSPropertyOp36
 70
     1
102
RTVSPropertyOp37
 70
     1
102
RTVSPropertyOp38
 70
     1
102
RTVSPropertyOp39
 70
     1
102
RTVSPropertyOp40
 70
     1
102
RTVSPropertyOp41
 70
     1
102
RTVSPropertyOp42
 70
     1
102
RTVSPropertyOp43
 70
     1
102
RTVSPropertyOp44
 70
     1
102
RTVSPropertyOp45
 70
     1
102
RTVSPropertyOp46
 70
     1
102
RTVSPropertyOp47
 70
     1
102
RTVSPropertyOp48
 70
     1
102
RTVSPropertyOp49
 70
     1
102
RTVSPropertyOp50
 70
     1
102
RTVSPropertyOp51
 70
     0
102
RTVSPropertyOp52
 70
     0
102
RTVSPropertyOp53
 70
     1
102
RTVSPropertyOp54
 70
     1
102
RTVSPropertyOp55
 70
     1
102
RTVSPropertyOp56
 70
     1
102
RTVSPropertyOp57
 70
     1
102
RTVSPost2010Prop28
280
     0
102
RTVSPost2010PropOp28
 70
     1
102
RTVSPost2010Prop29
280
     1
102
RTVSPost2010PropOp29
 70
     1
102
RTVSPost2010Prop30
280
     1
102
RTVSPost2010PropOp30
 70
     1
102
RTVSPost2010Prop31
280
     0
102
RTVSPost2010PropOp31
 70
     1
102
RTVSPost2010Prop32
280
     0
102
RTVSPost2010PropOp32
 70
     1
102
RTVSPost2010Prop33
280
     0
102
RTVSPost2010PropOp33
 70
     1
102
RTVSPost2010Prop34
280
     0
102
RTVSPost2010PropOp34
 70
     1
102
RTVSPost2010Prop35
280
     0
102
RTVSPost2010PropOp35
 70
     1
102
RTVSPost2010Prop36
280
     0
102
RTVSPost2010PropOp36
 70
     1
102
RTVSPost2010Prop37
 90
       50
102
RTVSPost2010PropOp37
 70
     1
102
RTVSPost2010Prop38
140
0.0
102
RTVSPost2010PropOp38
 70
     1
102
RTVSPost2010Prop39
140
1.0
102
RTVSPost2010PropOp39
 70
     1
102
RTVSPost2010Prop40
 90
        0
102
RTVSPost2010PropOp40
 70
     1
102
RTVSPost2010Prop41ColorIndex
 90
       18
102
RTVSPost2010Prop41ColorRGB
 90
        0
102
RTVSPost2010PropOp41
 70
     1
102
RTVSPost2010Prop42
 90
       50
102
RTVSPost2010PropOp42
 70
     1
102
RTVSPost2010Prop43
 90
        3
102
RTVSPost2010PropOp43
 70
     1
102
RTVSPost2010Prop44ColorIndex
 90
        5
102
RTVSPost2010Prop44ColorRGB
 90
      255
102
RTVSPost2010PropOp44
 70
     1
102
RTVSPost2010Prop45
280
     0
102
RTVSPost2010PropOp45
 70
     1
102
RTVSPost2010Prop46
 90
       50
102
RTVSPost2010PropOp46
 70
     1
102
RTVSPost2010Prop47
 90
       50
102
RTVSPost2010PropOp47
 70
     1
102
RTVSPost2010Prop48
 90
       50
102
RTVSPost2010PropOp48
 70
     1
102
RTVSPost2010Prop49
280
     0
102
RTVSPost2010PropOp49
 70
     1
102
RTVSPost2010Prop50
 90
       50
102
RTVSPost2010PropOp50
 70
     1
102
RTVSPost2010Prop51ColorIndex
 90
      256
102
RTVSPost2010Prop51ColorRGB
 90
-16777216
102
RTVSPost2010PropOp51
 70
     0
102
RTVSPost2010Prop52
140
1.0
102
RTVSPost2010PropOp52
 70
     0
102
RTVSPost2010Prop53
 90
        2
102
RTVSPost2010PropOp53
 70
     1
102
RTVSPost2010Prop54
  1
strokes_ogs.tif
102
RTVSPost2010PropOp54
 70
     1
102
RTVSPost2010Prop55
280
     0
102
RTVSPost2010PropOp55
 70
     1
102
RTVSPost2010Prop56
140
1.0
102
RTVSPost2010PropOp56
 70
     1
102
RTVSPost2010Prop57
140
1.0
102
RTVSPost2010PropOp57
 70
     1
  0
XRECORD
  5
3EF
102
{ACAD_REACTORS
330
3EE
102
}
330
3EE
100
AcDbXrecord
280
     1
102
RTVSPropertyOp0
 70
     1
102
RTVSPropertyOp1
 70
     1
102
RTVSPropertyOp2
 70
     1
102
RTVSPropertyOp3
 70
     1
102
RTVSPropertyOp4
 70
     1
102
RTVSPropertyOp5
 70
     1
102
RTVSPropertyOp6
 70
     1
102
RTVSPropertyOp7
 70
     1
102
RTVSPropertyOp8
 70
     1
102
RTVSPropertyOp9
 70
     1
102
RTVSPropertyOp10
 70
     1
102
RTVSPropertyOp11
 70
     1
102
RTVSPropertyOp12
 70
     1
102
RTVSPropertyOp13
 70
     1
102
RTVSPropertyOp14
 70
     1
102
RTVSPropertyOp15
 70
     1
102
RTVSPropertyOp16
 70
     1
102
RTVSPropertyOp17
 70
     1
102
RTVSPropertyOp18
 70
     1
102
RTVSPropertyOp19
 70
     1
102
RTVSPropertyOp20
 70
     1
102
RTVSPropertyOp21
 70
     1
102
RTVSPropertyOp22
 70
     1
102
RTVSPropertyOp23
 70
     1
102
RTVSPropertyOp24
 70
     1
102
RTVSPropertyOp25
 70
     1
102
RTVSPropertyOp26
 70
     1
102
RTVSPropertyOp27
 70
     1
102
RTVSPropertyOp28
 70
     1
102
RTVSPropertyOp29
 70
     1
102
RTVSPropertyOp30
 70
     1
102
RTVSPropertyOp31
 70
     1
102
RTVSPropertyOp32
 70
     1
102
RTVSPropertyOp33
 70
     1
102
RTVSPropertyOp34
 70
     1
102
RTVSPropertyOp35
 70
     1
102
RTVSPropertyOp36
 70
     1
102
RTVSPropertyOp37
 70
     1
102
RTVSPropertyOp38
 70
     1
102
RTVSPropertyOp39
 70
     1
102
RTVSPropertyOp40
 70
     1
102
RTVSPropertyOp41
 70
     1
102
RTVSPropertyOp42
 70
     1
102
RTVSPropertyOp43
 70
     1
102
RTVSPropertyOp44
 70
     1
102
RTVSPropertyOp45
 70
     1
102
RTVSPropertyOp46
 70
     1
102
RTVSPropertyOp47
 70
     1
102
RTVSPropertyOp48
 70
     1
102
RTVSPropertyOp49
 70
     1
102
RTVSPropertyOp50
 70
     1
102
RTVSPropertyOp51
 70
     0
102
RTVSPropertyOp52
 70
     0
102
RTVSPropertyOp53
 70
     1
102
RTVSPropertyOp54
 70
     1
102
RTVSPropertyOp55
 70
     1
102
RTVSPropertyOp56
 70
     1
102
RTVSPropertyOp57
 70
     1
102
RTVSPost2010Prop28
280
     0
102
RTVSPost2010PropOp28
 70
     1
102
RTVSPost2010Prop29
280
     1
102
RTVSPost2010PropOp29
 70
     1
102
RTVSPost2010Prop30
280
     1
102
RTVSPost2010PropOp30
 70
     1
102
RTVSPost2010Prop31
280
     0
102
RTVSPost2010PropOp31
 70
     1
102
RTVSPost2010Prop32
280
     0
102
RTVSPost2010PropOp32
 70
     1
102
RTVSPost2010Prop33
280
     0
102
RTVSPost2010PropOp33
 70
     1
102
RTVSPost2010Prop34
280
     0
102
RTVSPost2010PropOp34
 70
     1
102
RTVSPost2010Prop35
280
     0
102
RTVSPost2010PropOp35
 70
     1
102
RTVSPost2010Prop36
280
     0
102
RTVSPost2010PropOp36
 70
     1
102
RTVSPost2010Prop37
 90
       50
102
RTVSPost2010PropOp37
 70
     1
102
RTVSPost2010Prop38
140
0.0
102
RTVSPost2010PropOp38
 70
     1
102
RTVSPost2010Prop39
140
1.0
102
RTVSPost2010PropOp39
 70
     1
102
RTVSPost2010Prop40
 90
        0
102
RTVSPost2010PropOp40
 70
     1
102
RTVSPost2010Prop41ColorIndex
 90
       18
102
RTVSPost2010Prop41ColorRGB
 90
        0
102
RTVSPost2010PropOp41
 70
     1
102
RTVSPost2010Prop42
 90
       50
102
RTVSPost2010PropOp42
 70
     1
102
RTVSPost2010Prop43
 90
        3
102
RTVSPost2010PropOp43
 70
     1
102
RTVSPost2010Prop44ColorIndex
 90
        5
102
RTVSPost2010Prop44ColorRGB
 90
      255
102
RTVSPost2010PropOp44
 70
     1
102
RTVSPost2010Prop45
280
     0
102
RTVSPost2010PropOp45
 70
     1
102
RTVSPost2010Prop46
 90
       50
102
RTVSPost2010PropOp46
 70
     1
102
RTVSPost2010Prop47
 90
       50
102
RTVSPost2010PropOp47
 70
     1
102
RTVSPost2010Prop48
 90
       50
102
RTVSPost2010PropOp48
 70
     1
102
RTVSPost2010Prop49
280
     0
102
RTVSPost2010PropOp49
 70
     1
102
RTVSPost2010Prop50
 90
       50
102
RTVSPost2010PropOp50
 70
     1
102
RTVSPost2010Prop51ColorIndex
 90
      256
102
RTVSPost2010Prop51ColorRGB
 90
-16777216
102
RTVSPost2010PropOp51
 70
     0
102
RTVSPost2010Prop52
140
1.0
102
RTVSPost2010PropOp52
 70
     0
102
RTVSPost2010Prop53
 90
        2
102
RTVSPost2010PropOp53
 70
     1
102
RTVSPost2010Prop54
  1
strokes_ogs.tif
102
RTVSPost2010PropOp54
 70
     1
102
RTVSPost2010Prop55
280
     0
102
RTVSPost2010PropOp55
 70
     1
102
RTVSPost2010Prop56
140
1.0
102
RTVSPost2010PropOp56
 70
     1
102
RTVSPost2010Prop57
140
1.0
102
RTVSPost2010PropOp57
 70
     1
  0
XRECORD
  5
3E9
102
{ACAD_REACTORS
330
3E8
102
}
330
3E8
100
AcDbXrecord
280
     1
102
RTVSPropertyOp0
 70
     1
102
RTVSPropertyOp1
 70
     1
102
RTVSPropertyOp2
 70
     1
102
RTVSPropertyOp3
 70
     1
102
RTVSPropertyOp4
 70
     1
102
RTVSPropertyOp5
 70
     1
102
RTVSPropertyOp6
 70
     1
102
RTVSPropertyOp7
 70
     1
102
RTVSPropertyOp8
 70
     1
102
RTVSPropertyOp9
 70
     1
102
RTVSPropertyOp10
 70
     1
102
RTVSPropertyOp11
 70
     1
102
RTVSPropertyOp12
 70
     1
102
RTVSPropertyOp13
 70
     1
102
RTVSPropertyOp14
 70
     1
102
RTVSPropertyOp15
 70
     1
102
RTVSPropertyOp16
 70
     1
102
RTVSPropertyOp17
 70
     1
102
RTVSPropertyOp18
 70
     1
102
RTVSPropertyOp19
 70
     1
102
RTVSPropertyOp20
 70
     1
102
RTVSPropertyOp21
 70
     1
102
RTVSPropertyOp22
 70
     1
102
RTVSPropertyOp23
 70
     1
102
RTVSPropertyOp24
 70
     1
102
RTVSPropertyOp25
 70
     1
102
RTVSPropertyOp26
 70
     1
102
RTVSPropertyOp27
 70
     1
102
RTVSPropertyOp28
 70
     1
102
RTVSPropertyOp29
 70
     1
102
RTVSPropertyOp30
 70
     1
102
RTVSPropertyOp31
 70
     1
102
RTVSPropertyOp32
 70
     1
102
RTVSPropertyOp33
 70
     1
102
RTVSPropertyOp34
 70
     1
102
RTVSPropertyOp35
 70
     1
102
RTVSPropertyOp36
 70
     1
102
RTVSPropertyOp37
 70
     1
102
RTVSPropertyOp38
 70
     1
102
RTVSPropertyOp39
 70
     1
102
RTVSPropertyOp40
 70
     1
102
RTVSPropertyOp41
 70
     1
102
RTVSPropertyOp42
 70
     1
102
RTVSPropertyOp43
 70
     1
102
RTVSPropertyOp44
 70
     1
102
RTVSPropertyOp45
 70
     1
102
RTVSPropertyOp46
 70
     1
102
RTVSPropertyOp47
 70
     1
102
RTVSPropertyOp48
 70
     1
102
RTVSPropertyOp49
 70
     1
102
RTVSPropertyOp50
 70
     1
102
RTVSPropertyOp51
 70
     0
102
RTVSPropertyOp52
 70
     0
102
RTVSPropertyOp53
 70
     1
102
RTVSPropertyOp54
 70
     1
102
RTVSPropertyOp55
 70
     1
102
RTVSPropertyOp56
 70
     1
102
RTVSPropertyOp57
 70
     1
102
RTVSPost2010Prop28
280
     0
102
RTVSPost2010PropOp28
 70
     1
102
RTVSPost2010Prop29
280
     1
102
RTVSPost2010PropOp29
 70
     1
102
RTVSPost2010Prop30
280
     1
102
RTVSPost2010PropOp30
 70
     1
102
RTVSPost2010Prop31
280
     0
102
RTVSPost2010PropOp31
 70
     1
102
RTVSPost2010Prop32
280
     0
102
RTVSPost2010PropOp32
 70
     1
102
RTVSPost2010Prop33
280
     0
102
RTVSPost2010PropOp33
 70
     1
102
RTVSPost2010Prop34
280
     0
102
RTVSPost2010PropOp34
 70
     1
102
RTVSPost2010Prop35
280
     0
102
RTVSPost2010PropOp35
 70
     1
102
RTVSPost2010Prop36
280
     0
102
RTVSPost2010PropOp36
 70
     1
102
RTVSPost2010Prop37
 90
       50
102
RTVSPost2010PropOp37
 70
     1
102
RTVSPost2010Prop38
140
0.0
102
RTVSPost2010PropOp38
 70
     1
102
RTVSPost2010Prop39
140
1.0
102
RTVSPost2010PropOp39
 70
     1
102
RTVSPost2010Prop40
 90
        0
102
RTVSPost2010PropOp40
 70
     1
102
RTVSPost2010Prop41ColorIndex
 90
       18
102
RTVSPost2010Prop41ColorRGB
 90
        0
102
RTVSPost2010PropOp41
 70
     1
102
RTVSPost2010Prop42
 90
       50
102
RTVSPost2010PropOp42
 70
     1
102
RTVSPost2010Prop43
 90
        3
102
RTVSPost2010PropOp43
 70
     1
102
RTVSPost2010Prop44ColorIndex
 90
        5
102
RTVSPost2010Prop44ColorRGB
 90
      255
102
RTVSPost2010PropOp44
 70
     1
102
RTVSPost2010Prop45
280
     0
102
RTVSPost2010PropOp45
 70
     1
102
RTVSPost2010Prop46
 90
       50
102
RTVSPost2010PropOp46
 70
     1
102
RTVSPost2010Prop47
 90
       50
102
RTVSPost2010PropOp47
 70
     1
102
RTVSPost2010Prop48
 90
       50
102
RTVSPost2010PropOp48
 70
     1
102
RTVSPost2010Prop49
280
     0
102
RTVSPost2010PropOp49
 70
     1
102
RTVSPost2010Prop50
 90
       50
102
RTVSPost2010PropOp50
 70
     1
102
RTVSPost2010Prop51ColorIndex
 90
      256
102
RTVSPost2010Prop51ColorRGB
 90
-16777216
102
RTVSPost2010PropOp51
 70
     0
102
RTVSPost2010Prop52
140
1.0
102
RTVSPost2010PropOp52
 70
     0
102
RTVSPost2010Prop53
 90
        2
102
RTVSPost2010PropOp53
 70
     1
102
RTVSPost2010Prop54
  1
strokes_ogs.tif
102
RTVSPost2010PropOp54
 70
     1
102
RTVSPost2010Prop55
280
     0
102
RTVSPost2010PropOp55
 70
     1
102
RTVSPost2010Prop56
140
1.0
102
RTVSPost2010PropOp56
 70
     1
102
RTVSPost2010Prop57
140
1.0
102
RTVSPost2010PropOp57
 70
     1
  0
XRECORD
  5
3EB
102
{ACAD_REACTORS
330
3EA
102
}
330
3EA
100
AcDbXrecord
280
     1
102
RTVSPropertyOp0
 70
     1
102
RTVSPropertyOp1
 70
     1
102
RTVSPropertyOp2
 70
     1
102
RTVSPropertyOp3
 70
     1
102
RTVSPropertyOp4
 70
     1
102
RTVSPropertyOp5
 70
     1
102
RTVSPropertyOp6
 70
     1
102
RTVSPropertyOp7
 70
     1
102
RTVSPropertyOp8
 70
     1
102
RTVSPropertyOp9
 70
     1
102
RTVSPropertyOp10
 70
     1
102
RTVSPropertyOp11
 70
     1
102
RTVSPropertyOp12
 70
     1
102
RTVSPropertyOp13
 70
     1
102
RTVSPropertyOp14
 70
     1
102
RTVSPropertyOp15
 70
     1
102
RTVSPropertyOp16
 70
     1
102
RTVSPropertyOp17
 70
     1
102
RTVSPropertyOp18
 70
     1
102
RTVSPropertyOp19
 70
     1
102
RTVSPropertyOp20
 70
     1
102
RTVSPropertyOp21
 70
     1
102
RTVSPropertyOp22
 70
     1
102
RTVSPropertyOp23
 70
     1
102
RTVSPropertyOp24
 70
     1
102
RTVSPropertyOp25
 70
     1
102
RTVSPropertyOp26
 70
     1
102
RTVSPropertyOp27
 70
     1
102
RTVSPropertyOp28
 70
     1
102
RTVSPropertyOp29
 70
     1
102
RTVSPropertyOp30
 70
     1
102
RTVSPropertyOp31
 70
     1
102
RTVSPropertyOp32
 70
     1
102
RTVSPropertyOp33
 70
     1
102
RTVSPropertyOp34
 70
     1
102
RTVSPropertyOp35
 70
     1
102
RTVSPropertyOp36
 70
     1
102
RTVSPropertyOp37
 70
     1
102
RTVSPropertyOp38
 70
     1
102
RTVSPropertyOp39
 70
     1
102
RTVSPropertyOp40
 70
     1
102
RTVSPropertyOp41
 70
     1
102
RTVSPropertyOp42
 70
     1
102
RTVSPropertyOp43
 70
     1
102
RTVSPropertyOp44
 70
     1
102
RTVSPropertyOp45
 70
     1
102
RTVSPropertyOp46
 70
     1
102
RTVSPropertyOp47
 70
     1
102
RTVSPropertyOp48
 70
     1
102
RTVSPropertyOp49
 70
     1
102
RTVSPropertyOp50
 70
     1
102
RTVSPropertyOp51
 70
     0
102
RTVSPropertyOp52
 70
     0
102
RTVSPropertyOp53
 70
     1
102
RTVSPropertyOp54
 70
     1
102
RTVSPropertyOp55
 70
     1
102
RTVSPropertyOp56
 70
     1
102
RTVSPropertyOp57
 70
     1
102
RTVSPost2010Prop28
280
     0
102
RTVSPost2010PropOp28
 70
     1
102
RTVSPost2010Prop29
280
     1
102
RTVSPost2010PropOp29
 70
     1
102
RTVSPost2010Prop30
280
     1
102
RTVSPost2010PropOp30
 70
     1
102
RTVSPost2010Prop31
280
     0
102
RTVSPost2010PropOp31
 70
     1
102
RTVSPost2010Prop32
280
     0
102
RTVSPost2010PropOp32
 70
     1
102
RTVSPost2010Prop33
280
     0
102
RTVSPost2010PropOp33
 70
     1
102
RTVSPost2010Prop34
280
     0
102
RTVSPost2010PropOp34
 70
     1
102
RTVSPost2010Prop35
280
     0
102
RTVSPost2010PropOp35
 70
     1
102
RTVSPost2010Prop36
280
     0
102
RTVSPost2010PropOp36
 70
     1
102
RTVSPost2010Prop37
 90
       50
102
RTVSPost2010PropOp37
 70
     1
102
RTVSPost2010Prop38
140
0.0
102
RTVSPost2010PropOp38
 70
     1
102
RTVSPost2010Prop39
140
1.0
102
RTVSPost2010PropOp39
 70
     1
102
RTVSPost2010Prop40
 90
        0
102
RTVSPost2010PropOp40
 70
     1
102
RTVSPost2010Prop41ColorIndex
 90
       18
102
RTVSPost2010Prop41ColorRGB
 90
        0
102
RTVSPost2010PropOp41
 70
     1
102
RTVSPost2010Prop42
 90
       50
102
RTVSPost2010PropOp42
 70
     1
102
RTVSPost2010Prop43
 90
        3
102
RTVSPost2010PropOp43
 70
     1
102
RTVSPost2010Prop44ColorIndex
 90
        5
102
RTVSPost2010Prop44ColorRGB
 90
      255
102
RTVSPost2010PropOp44
 70
     1
102
RTVSPost2010Prop45
280
     0
102
RTVSPost2010PropOp45
 70
     1
102
RTVSPost2010Prop46
 90
       50
102
RTVSPost2010PropOp46
 70
     1
102
RTVSPost2010Prop47
 90
       50
102
RTVSPost2010PropOp47
 70
     1
102
RTVSPost2010Prop48
 90
       50
102
RTVSPost2010PropOp48
 70
     1
102
RTVSPost2010Prop49
280
     0
102
RTVSPost2010PropOp49
 70
     1
102
RTVSPost2010Prop50
 90
       50
102
RTVSPost2010PropOp50
 70
     1
102
RTVSPost2010Prop51ColorIndex
 90
      256
102
RTVSPost2010Prop51ColorRGB
 90
-16777216
102
RTVSPost2010PropOp51
 70
     0
102
RTVSPost2010Prop52
140
1.0
102
RTVSPost2010PropOp52
 70
     0
102
RTVSPost2010Prop53
 90
        2
102
RTVSPost2010PropOp53
 70
     1
102
RTVSPost2010Prop54
  1
strokes_ogs.tif
102
RTVSPost2010PropOp54
 70
     1
102
RTVSPost2010Prop55
280
     0
102
RTVSPost2010PropOp55
 70
     1
102
RTVSPost2010Prop56
140
1.0
102
RTVSPost2010PropOp56
 70
     1
102
RTVSPost2010Prop57
140
1.0
102
RTVSPost2010PropOp57
 70
     1
  0
XRECORD
  5
3DB
102
{ACAD_REACTORS
330
3DA
102
}
330
3DA
100
AcDbXrecord
280
     1
102
RTVSPropertyOp0
 70
     1
102
RTVSPropertyOp1
 70
     1
102
RTVSPropertyOp2
 70
     1
102
RTVSPropertyOp3
 70
     1
102
RTVSPropertyOp4
 70
     1
102
RTVSPropertyOp5
 70
     1
102
RTVSPropertyOp6
 70
     1
102
RTVSPropertyOp7
 70
     1
102
RTVSPropertyOp8
 70
     1
102
RTVSPropertyOp9
 70
     1
102
RTVSPropertyOp10
 70
     1
102
RTVSPropertyOp11
 70
     1
102
RTVSPropertyOp12
 70
     1
102
RTVSPropertyOp13
 70
     1
102
RTVSPropertyOp14
 70
     1
102
RTVSPropertyOp15
 70
     1
102
RTVSPropertyOp16
 70
     1
102
RTVSPropertyOp17
 70
     1
102
RTVSPropertyOp18
 70
     1
102
RTVSPropertyOp19
 70
     1
102
RTVSPropertyOp20
 70
     1
102
RTVSPropertyOp21
 70
     1
102
RTVSPropertyOp22
 70
     1
102
RTVSPropertyOp23
 70
     1
102
RTVSPropertyOp24
 70
     1
102
RTVSPropertyOp25
 70
     1
102
RTVSPropertyOp26
 70
     1
102
RTVSPropertyOp27
 70
     1
102
RTVSPropertyOp28
 70
     1
102
RTVSPropertyOp29
 70
     1
102
RTVSPropertyOp30
 70
     1
102
RTVSPropertyOp31
 70
     1
102
RTVSPropertyOp32
 70
     1
102
RTVSPropertyOp33
 70
     1
102
RTVSPropertyOp34
 70
     1
102
RTVSPropertyOp35
 70
     1
102
RTVSPropertyOp36
 70
     1
102
RTVSPropertyOp37
 70
     1
102
RTVSPropertyOp38
 70
     1
102
RTVSPropertyOp39
 70
     1
102
RTVSPropertyOp40
 70
     1
102
RTVSPropertyOp41
 70
     1
102
RTVSPropertyOp42
 70
     1
102
RTVSPropertyOp43
 70
     1
102
RTVSPropertyOp44
 70
     1
102
RTVSPropertyOp45
 70
     1
102
RTVSPropertyOp46
 70
     1
102
RTVSPropertyOp47
 70
     1
102
RTVSPropertyOp48
 70
     1
102
RTVSPropertyOp49
 70
     1
102
RTVSPropertyOp50
 70
     1
102
RTVSPropertyOp51
 70
     0
102
RTVSPropertyOp52
 70
     0
102
RTVSPropertyOp53
 70
     1
102
RTVSPropertyOp54
 70
     1
102
RTVSPropertyOp55
 70
     1
102
RTVSPropertyOp56
 70
     1
102
RTVSPropertyOp57
 70
     1
102
RTVSPost2010Prop28
280
     0
102
RTVSPost2010PropOp28
 70
     1
102
RTVSPost2010Prop29
280
     1
102
RTVSPost2010PropOp29
 70
     1
102
RTVSPost2010Prop30
280
     1
102
RTVSPost2010PropOp30
 70
     1
102
RTVSPost2010Prop31
280
     0
102
RTVSPost2010PropOp31
 70
     1
102
RTVSPost2010Prop32
280
     0
102
RTVSPost2010PropOp32
 70
     1
102
RTVSPost2010Prop33
280
     0
102
RTVSPost2010PropOp33
 70
     1
102
RTVSPost2010Prop34
280
     0
102
RTVSPost2010PropOp34
 70
     1
102
RTVSPost2010Prop35
280
     0
102
RTVSPost2010PropOp35
 70
     1
102
RTVSPost2010Prop36
280
     0
102
RTVSPost2010PropOp36
 70
     1
102
RTVSPost2010Prop37
 90
       50
102
RTVSPost2010PropOp37
 70
     1
102
RTVSPost2010Prop38
140
0.0
102
RTVSPost2010PropOp38
 70
     1
102
RTVSPost2010Prop39
140
1.0
102
RTVSPost2010PropOp39
 70
     1
102
RTVSPost2010Prop40
 90
        0
102
RTVSPost2010PropOp40
 70
     1
102
RTVSPost2010Prop41ColorIndex
 90
       18
102
RTVSPost2010Prop41ColorRGB
 90
        0
102
RTVSPost2010PropOp41
 70
     1
102
RTVSPost2010Prop42
 90
       50
102
RTVSPost2010PropOp42
 70
     1
102
RTVSPost2010Prop43
 90
        3
102
RTVSPost2010PropOp43
 70
     1
102
RTVSPost2010Prop44ColorIndex
 90
        5
102
RTVSPost2010Prop44ColorRGB
 90
      255
102
RTVSPost2010PropOp44
 70
     1
102
RTVSPost2010Prop45
280
     0
102
RTVSPost2010PropOp45
 70
     1
102
RTVSPost2010Prop46
 90
       50
102
RTVSPost2010PropOp46
 70
     1
102
RTVSPost2010Prop47
 90
       50
102
RTVSPost2010PropOp47
 70
     1
102
RTVSPost2010Prop48
 90
       50
102
RTVSPost2010PropOp48
 70
     1
102
RTVSPost2010Prop49
280
     0
102
RTVSPost2010PropOp49
 70
     1
102
RTVSPost2010Prop50
 90
       50
102
RTVSPost2010PropOp50
 70
     1
102
RTVSPost2010Prop51ColorIndex
 90
      256
102
RTVSPost2010Prop51ColorRGB
 90
-16777216
102
RTVSPost2010PropOp51
 70
     0
102
RTVSPost2010Prop52
140
1.0
102
RTVSPost2010PropOp52
 70
     0
102
RTVSPost2010Prop53
 90
        2
102
RTVSPost2010PropOp53
 70
     1
102
RTVSPost2010Prop54
  1
strokes_ogs.tif
102
RTVSPost2010PropOp54
 70
     1
102
RTVSPost2010Prop55
280
     0
102
RTVSPost2010PropOp55
 70
     1
102
RTVSPost2010Prop56
140
1.0
102
RTVSPost2010PropOp56
 70
     1
102
RTVSPost2010Prop57
140
1.0
102
RTVSPost2010PropOp57
 70
     1
  0
XRECORD
  5
3CD
102
{ACAD_REACTORS
330
3CC
102
}
330
3CC
100
AcDbXrecord
280
     1
102
RTVSPropertyOp0
 70
     1
102
RTVSPropertyOp1
 70
     1
102
RTVSPropertyOp2
 70
     1
102
RTVSPropertyOp3
 70
     1
102
RTVSPropertyOp4
 70
     1
102
RTVSPropertyOp5
 70
     1
102
RTVSPropertyOp6
 70
     1
102
RTVSPropertyOp7
 70
     1
102
RTVSPropertyOp8
 70
     1
102
RTVSPropertyOp9
 70
     1
102
RTVSPropertyOp10
 70
     1
102
RTVSPropertyOp11
 70
     1
102
RTVSPropertyOp12
 70
     1
102
RTVSPropertyOp13
 70
     1
102
RTVSPropertyOp14
 70
     1
102
RTVSPropertyOp15
 70
     1
102
RTVSPropertyOp16
 70
     1
102
RTVSPropertyOp17
 70
     1
102
RTVSPropertyOp18
 70
     1
102
RTVSPropertyOp19
 70
     1
102
RTVSPropertyOp20
 70
     1
102
RTVSPropertyOp21
 70
     1
102
RTVSPropertyOp22
 70
     1
102
RTVSPropertyOp23
 70
     1
102
RTVSPropertyOp24
 70
     1
102
RTVSPropertyOp25
 70
     1
102
RTVSPropertyOp26
 70
     1
102
RTVSPropertyOp27
 70
     1
102
RTVSPropertyOp28
 70
     1
102
RTVSPropertyOp29
 70
     1
102
RTVSPropertyOp30
 70
     1
102
RTVSPropertyOp31
 70
     1
102
RTVSPropertyOp32
 70
     1
102
RTVSPropertyOp33
 70
     1
102
RTVSPropertyOp34
 70
     1
102
RTVSPropertyOp35
 70
     1
102
RTVSPropertyOp36
 70
     1
102
RTVSPropertyOp37
 70
     1
102
RTVSPropertyOp38
 70
     1
102
RTVSPropertyOp39
 70
     1
102
RTVSPropertyOp40
 70
     1
102
RTVSPropertyOp41
 70
     1
102
RTVSPropertyOp42
 70
     1
102
RTVSPropertyOp43
 70
     1
102
RTVSPropertyOp44
 70
     1
102
RTVSPropertyOp45
 70
     1
102
RTVSPropertyOp46
 70
     1
102
RTVSPropertyOp47
 70
     1
102
RTVSPropertyOp48
 70
     1
102
RTVSPropertyOp49
 70
     1
102
RTVSPropertyOp50
 70
     1
102
RTVSPropertyOp51
 70
     0
102
RTVSPropertyOp52
 70
     0
102
RTVSPropertyOp53
 70
     1
102
RTVSPropertyOp54
 70
     1
102
RTVSPropertyOp55
 70
     1
102
RTVSPropertyOp56
 70
     1
102
RTVSPropertyOp57
 70
     1
102
RTVSPost2010Prop28
280
     0
102
RTVSPost2010PropOp28
 70
     1
102
RTVSPost2010Prop29
280
     1
102
RTVSPost2010PropOp29
 70
     1
102
RTVSPost2010Prop30
280
     1
102
RTVSPost2010PropOp30
 70
     1
102
RTVSPost2010Prop31
280
     0
102
RTVSPost2010PropOp31
 70
     1
102
RTVSPost2010Prop32
280
     0
102
RTVSPost2010PropOp32
 70
     1
102
RTVSPost2010Prop33
280
     0
102
RTVSPost2010PropOp33
 70
     1
102
RTVSPost2010Prop34
280
     0
102
RTVSPost2010PropOp34
 70
     1
102
RTVSPost2010Prop35
280
     0
102
RTVSPost2010PropOp35
 70
     1
102
RTVSPost2010Prop36
280
     0
102
RTVSPost2010PropOp36
 70
     1
102
RTVSPost2010Prop37
 90
       50
102
RTVSPost2010PropOp37
 70
     1
102
RTVSPost2010Prop38
140
0.0
102
RTVSPost2010PropOp38
 70
     1
102
RTVSPost2010Prop39
140
1.0
102
RTVSPost2010PropOp39
 70
     1
102
RTVSPost2010Prop40
 90
        0
102
RTVSPost2010PropOp40
 70
     1
102
RTVSPost2010Prop41ColorIndex
 90
       18
102
RTVSPost2010Prop41ColorRGB
 90
        0
102
RTVSPost2010PropOp41
 70
     1
102
RTVSPost2010Prop42
 90
       50
102
RTVSPost2010PropOp42
 70
     1
102
RTVSPost2010Prop43
 90
        3
102
RTVSPost2010PropOp43
 70
     1
102
RTVSPost2010Prop44ColorIndex
 90
        5
102
RTVSPost2010Prop44ColorRGB
 90
      255
102
RTVSPost2010PropOp44
 70
     1
102
RTVSPost2010Prop45
280
     0
102
RTVSPost2010PropOp45
 70
     1
102
RTVSPost2010Prop46
 90
       50
102
RTVSPost2010PropOp46
 70
     1
102
RTVSPost2010Prop47
 90
       50
102
RTVSPost2010PropOp47
 70
     1
102
RTVSPost2010Prop48
 90
       50
102
RTVSPost2010PropOp48
 70
     1
102
RTVSPost2010Prop49
280
     0
102
RTVSPost2010PropOp49
 70
     1
102
RTVSPost2010Prop50
 90
       50
102
RTVSPost2010PropOp50
 70
     1
102
RTVSPost2010Prop51ColorIndex
 90
      256
102
RTVSPost2010Prop51ColorRGB
 90
-16777216
102
RTVSPost2010PropOp51
 70
     0
102
RTVSPost2010Prop52
140
1.0
102
RTVSPost2010PropOp52
 70
     0
102
RTVSPost2010Prop53
 90
        2
102
RTVSPost2010PropOp53
 70
     1
102
RTVSPost2010Prop54
  1
strokes_ogs.tif
102
RTVSPost2010PropOp54
 70
     1
102
RTVSPost2010Prop55
280
     0
102
RTVSPost2010PropOp55
 70
     1
102
RTVSPost2010Prop56
140
1.0
102
RTVSPost2010PropOp56
 70
     1
102
RTVSPost2010Prop57
140
1.0
102
RTVSPost2010PropOp57
 70
     1
  0
XRECORD
  5
3ED
102
{ACAD_REACTORS
330
3EC
102
}
330
3EC
100
AcDbXrecord
280
     1
102
RTVSPropertyOp0
 70
     1
102
RTVSPropertyOp1
 70
     1
102
RTVSPropertyOp2
 70
     1
102
RTVSPropertyOp3
 70
     1
102
RTVSPropertyOp4
 70
     1
102
RTVSPropertyOp5
 70
     1
102
RTVSPropertyOp6
 70
     1
102
RTVSPropertyOp7
 70
     1
102
RTVSPropertyOp8
 70
     1
102
RTVSPropertyOp9
 70
     1
102
RTVSPropertyOp10
 70
     1
102
RTVSPropertyOp11
 70
     1
102
RTVSPropertyOp12
 70
     1
102
RTVSPropertyOp13
 70
     1
102
RTVSPropertyOp14
 70
     1
102
RTVSPropertyOp15
 70
     1
102
RTVSPropertyOp16
 70
     1
102
RTVSPropertyOp17
 70
     1
102
RTVSPropertyOp18
 70
     1
102
RTVSPropertyOp19
 70
     1
102
RTVSPropertyOp20
 70
     1
102
RTVSPropertyOp21
 70
     1
102
RTVSPropertyOp22
 70
     1
102
RTVSPropertyOp23
 70
     1
102
RTVSPropertyOp24
 70
     1
102
RTVSPropertyOp25
 70
     1
102
RTVSPropertyOp26
 70
     1
102
RTVSPropertyOp27
 70
     1
102
RTVSPropertyOp28
 70
     1
102
RTVSPropertyOp29
 70
     1
102
RTVSPropertyOp30
 70
     1
102
RTVSPropertyOp31
 70
     1
102
RTVSPropertyOp32
 70
     1
102
RTVSPropertyOp33
 70
     1
102
RTVSPropertyOp34
 70
     1
102
RTVSPropertyOp35
 70
     1
102
RTVSPropertyOp36
 70
     1
102
RTVSPropertyOp37
 70
     1
102
RTVSPropertyOp38
 70
     1
102
RTVSPropertyOp39
 70
     1
102
RTVSPropertyOp40
 70
     1
102
RTVSPropertyOp41
 70
     1
102
RTVSPropertyOp42
 70
     1
102
RTVSPropertyOp43
 70
     1
102
RTVSPropertyOp44
 70
     1
102
RTVSPropertyOp45
 70
     1
102
RTVSPropertyOp46
 70
     1
102
RTVSPropertyOp47
 70
     1
102
RTVSPropertyOp48
 70
     1
102
RTVSPropertyOp49
 70
     1
102
RTVSPropertyOp50
 70
     1
102
RTVSPropertyOp51
 70
     0
102
RTVSPropertyOp52
 70
     0
102
RTVSPropertyOp53
 70
     1
102
RTVSPropertyOp54
 70
     1
102
RTVSPropertyOp55
 70
     1
102
RTVSPropertyOp56
 70
     1
102
RTVSPropertyOp57
 70
     1
102
RTVSPost2010Prop28
280
     0
102
RTVSPost2010PropOp28
 70
     1
102
RTVSPost2010Prop29
280
     1
102
RTVSPost2010PropOp29
 70
     1
102
RTVSPost2010Prop30
280
     1
102
RTVSPost2010PropOp30
 70
     1
102
RTVSPost2010Prop31
280
     0
102
RTVSPost2010PropOp31
 70
     1
102
RTVSPost2010Prop32
280
     0
102
RTVSPost2010PropOp32
 70
     1
102
RTVSPost2010Prop33
280
     0
102
RTVSPost2010PropOp33
 70
     1
102
RTVSPost2010Prop34
280
     0
102
RTVSPost2010PropOp34
 70
     1
102
RTVSPost2010Prop35
280
     0
102
RTVSPost2010PropOp35
 70
     1
102
RTVSPost2010Prop36
280
     0
102
RTVSPost2010PropOp36
 70
     1
102
RTVSPost2010Prop37
 90
       50
102
RTVSPost2010PropOp37
 70
     1
102
RTVSPost2010Prop38
140
0.0
102
RTVSPost2010PropOp38
 70
     1
102
RTVSPost2010Prop39
140
1.0
102
RTVSPost2010PropOp39
 70
     1
102
RTVSPost2010Prop40
 90
        0
102
RTVSPost2010PropOp40
 70
     1
102
RTVSPost2010Prop41ColorIndex
 90
       18
102
RTVSPost2010Prop41ColorRGB
 90
        0
102
RTVSPost2010PropOp41
 70
     1
102
RTVSPost2010Prop42
 90
       50
102
RTVSPost2010PropOp42
 70
     1
102
RTVSPost2010Prop43
 90
        3
102
RTVSPost2010PropOp43
 70
     1
102
RTVSPost2010Prop44ColorIndex
 90
        5
102
RTVSPost2010Prop44ColorRGB
 90
      255
102
RTVSPost2010PropOp44
 70
     1
102
RTVSPost2010Prop45
280
     0
102
RTVSPost2010PropOp45
 70
     1
102
RTVSPost2010Prop46
 90
       50
102
RTVSPost2010PropOp46
 70
     1
102
RTVSPost2010Prop47
 90
       50
102
RTVSPost2010PropOp47
 70
     1
102
RTVSPost2010Prop48
 90
       50
102
RTVSPost2010PropOp48
 70
     1
102
RTVSPost2010Prop49
280
     0
102
RTVSPost2010PropOp49
 70
     1
102
RTVSPost2010Prop50
 90
       50
102
RTVSPost2010PropOp50
 70
     1
102
RTVSPost2010Prop51ColorIndex
 90
      256
102
RTVSPost2010Prop51ColorRGB
 90
-16777216
102
RTVSPost2010PropOp51
 70
     0
102
RTVSPost2010Prop52
140
1.0
102
RTVSPost2010PropOp52
 70
     0
102
RTVSPost2010Prop53
 90
        2
102
RTVSPost2010PropOp53
 70
     1
102
RTVSPost2010Prop54
  1
strokes_ogs.tif
102
RTVSPost2010PropOp54
 70
     1
102
RTVSPost2010Prop55
280
     0
102
RTVSPost2010PropOp55
 70
     1
102
RTVSPost2010Prop56
140
1.0
102
RTVSPost2010PropOp56
 70
     1
102
RTVSPost2010Prop57
140
1.0
102
RTVSPost2010PropOp57
 70
     1
  0
ENDSEC
  0
EOF
