  0
SECTION
  2
HEADER
  9
$ACADVER
  1
AC1015
  9
$ACADMAINTVER
 70
     6
  9
$DWGCODEPAGE
  3
ANSI_932
  9
$INSBASE
 10
0.0
 20
0.0
 30
0.0
  9
$EXTMIN
 10
46.10289480718593
 20
16.94036714309126
 30
0.0
  9
$EXTMAX
 10
857.6655206179379
 20
298.5802614096077
 30
0.0
  9
$LIMMIN
 10
46.10289480718593
 20
16.94036714309126
  9
$LIMMAX
 10
857.6655206179379
 20
298.5802614096077
  9
$ORTHOMODE
 70
     0
  9
$REGENMODE
 70
     1
  9
$FILLMODE
 70
     1
  9
$QTEXTMODE
 70
     0
  9
$MIRRTEXT
 70
     1
  9
$LTSCALE
 40
0.5
  9
$ATTMODE
 70
     1
  9
$TEXTSIZE
 40
0.2
  9
$TRACEWID
 40
0.05
  9
$TEXTSTYLE
  7
Standard
  9
$CLAYER
  8
新しいレイヤ 1
  9
$CELTYPE
  6
ByLayer
  9
$CECOLOR
 62
   256
  9
$CELTSCALE
 40
1.0
  9
$DISPSILH
 70
     0
  9
$DIMSCALE
 40
1.0
  9
$DIMASZ
 40
0.18
  9
$DIMEXO
 40
0.0625
  9
$DIMDLI
 40
0.38
  9
$DIMRND
 40
0.0
  9
$DIMDLE
 40
0.0
  9
$DIMEXE
 40
0.18
  9
$DIMTP
 40
0.0
  9
$DIMTM
 40
0.0
  9
$DIMTXT
 40
0.18
  9
$DIMCEN
 40
0.09
  9
$DIMTSZ
 40
0.0
  9
$DIMTOL
 70
     0
  9
$DIMLIM
 70
     0
  9
$DIMTIH
 70
     1
  9
$DIMTOH
 70
     1
  9
$DIMSE1
 70
     0
  9
$DIMSE2
 70
     0
  9
$DIMTAD
 70
     0
  9
$DIMZIN
 70
     0
  9
$DIMBLK
  1

  9
$DIMASO
 70
     1
  9
$DIMSHO
 70
     1
  9
$DIMPOST
  1

  9
$DIMAPOST
  1

  9
$DIMALT
 70
     0
  9
$DIMALTD
 70
     2
  9
$DIMALTF
 40
25.4
  9
$DIMLFAC
 40
1.0
  9
$DIMTOFL
 70
     0
  9
$DIMTVP
 40
0.0
  9
$DIMTIX
 70
     0
  9
$DIMSOXD
 70
     0
  9
$DIMSAH
 70
     0
  9
$DIMBLK1
  1

  9
$DIMBLK2
  1

  9
$DIMSTYLE
  2
Standard
  9
$DIMCLRD
 70
     0
  9
$DIMCLRE
 70
     0
  9
$DIMCLRT
 70
     0
  9
$DIMTFAC
 40
1.0
  9
$DIMGAP
 40
0.09
  9
$DIMJUST
 70
     0
  9
$DIMSD1
 70
     0
  9
$DIMSD2
 70
     0
  9
$DIMTOLJ
 70
     1
  9
$DIMTZIN
 70
     0
  9
$DIMALTZ
 70
     0
  9
$DIMALTTZ
 70
     0
  9
$DIMUPT
 70
     0
  9
$DIMDEC
 70
     4
  9
$DIMTDEC
 70
     4
  9
$DIMALTU
 70
     2
  9
$DIMALTTD
 70
     2
  9
$DIMTXSTY
  7
Standard
  9
$DIMAUNIT
 70
     0
  9
$DIMADEC
 70
     0
  9
$DIMALTRND
 40
0.0
  9
$DIMAZIN
 70
     0
  9
$DIMDSEP
 70
    46
  9
$DIMATFIT
 70
     3
  9
$DIMFRAC
 70
     0
  9
$DIMLDRBLK
  1

  9
$DIMLUNIT
 70
     2
  9
$DIMLWD
 70
    -2
  9
$DIMLWE
 70
    -2
  9
$DIMTMOVE
 70
     0
  9
$LUNITS
 70
     2
  9
$LUPREC
 70
     2
  9
$SKETCHINC
 40
0.1
  9
$FILLETRAD
 40
0.5
  9
$AUNITS
 70
     0
  9
$AUPREC
 70
     0
  9
$MENU
  1
.
  9
$ELEVATION
 40
0.0
  9
$PELEVATION
 40
0.0
  9
$THICKNESS
 40
0.0
  9
$LIMCHECK
 70
     0
  9
$CHAMFERA
 40
0.0
  9
$CHAMFERB
 40
0.0
  9
$CHAMFERC
 40
0.0
  9
$CHAMFERD
 40
0.0
  9
$SKPOLY
 70
     0
  9
$TDCREATE
 40
2460231.654018194
  9
$TDUCREATE
 40
2460231.279018194
  9
$TDUPDATE
 40
2460231.654019641
  9
$TDUUPDATE
 40
2460231.279019641
  9
$TDINDWG
 40
0.0000000116
  9
$TDUSRTIMER
 40
0.0000000116
  9
$USRTIMER
 70
     1
  9
$ANGBASE
 50
0.0
  9
$ANGDIR
 70
     0
  9
$PDMODE
 70
     0
  9
$PDSIZE
 40
0.0
  9
$PLINEWID
 40
0.0
  9
$SPLFRAME
 70
     0
  9
$SPLINETYPE
 70
     6
  9
$SPLINESEGS
 70
     8
  9
$HANDSEED
  5
3DC
  9
$SURFTAB1
 70
     6
  9
$SURFTAB2
 70
     6
  9
$SURFTYPE
 70
     6
  9
$SURFU
 70
     6
  9
$SURFV
 70
     6
  9
$UCSBASE
  2

  9
$UCSNAME
  2

  9
$UCSORG
 10
0.0
 20
0.0
 30
0.0
  9
$UCSXDIR
 10
1.0
 20
0.0
 30
0.0
  9
$UCSYDIR
 10
0.0
 20
1.0
 30
0.0
  9
$UCSORTHOREF
  2

  9
$UCSORTHOVIEW
 70
     0
  9
$UCSORGTOP
 10
0.0
 20
0.0
 30
0.0
  9
$UCSORGBOTTOM
 10
0.0
 20
0.0
 30
0.0
  9
$UCSORGLEFT
 10
0.0
 20
0.0
 30
0.0
  9
$UCSORGRIGHT
 10
0.0
 20
0.0
 30
0.0
  9
$UCSORGFRONT
 10
0.0
 20
0.0
 30
0.0
  9
$UCSORGBACK
 10
0.0
 20
0.0
 30
0.0
  9
$PUCSBASE
  2

  9
$PUCSNAME
  2

  9
$PUCSORG
 10
0.0
 20
0.0
 30
0.0
  9
$PUCSXDIR
 10
1.0
 20
0.0
 30
0.0
  9
$PUCSYDIR
 10
0.0
 20
1.0
 30
0.0
  9
$PUCSORTHOREF
  2

  9
$PUCSORTHOVIEW
 70
     0
  9
$PUCSORGTOP
 10
0.0
 20
0.0
 30
0.0
  9
$PUCSORGBOTTOM
 10
0.0
 20
0.0
 30
0.0
  9
$PUCSORGLEFT
 10
0.0
 20
0.0
 30
0.0
  9
$PUCSORGRIGHT
 10
0.0
 20
0.0
 30
0.0
  9
$PUCSORGFRONT
 10
0.0
 20
0.0
 30
0.0
  9
$PUCSORGBACK
 10
0.0
 20
0.0
 30
0.0
  9
$USERI1
 70
     0
  9
$USERI2
 70
     0
  9
$USERI3
 70
     0
  9
$USERI4
 70
     0
  9
$USERI5
 70
     0
  9
$USERR1
 40
0.0
  9
$USERR2
 40
0.0
  9
$USERR3
 40
0.0
  9
$USERR4
 40
0.0
  9
$USERR5
 40
0.0
  9
$WORLDVIEW
 70
     1
  9
$SHADEDGE
 70
     3
  9
$SHADEDIF
 70
    70
  9
$TILEMODE
 70
     1
  9
$MAXACTVP
 70
    64
  9
$PINSBASE
 10
0.0
 20
0.0
 30
0.0
  9
$PLIMCHECK
 70
     0
  9
$PEXTMIN
 10
-9.375
 20
-25.0
 30
0.0
  9
$PEXTMAX
 10
525.0
 20
371.25
 30
0.0
  9
$PLIMMIN
 10
-7.5
 20
-20.0
  9
$PLIMMAX
 10
420.0
 20
297.0
  9
$UNITMODE
 70
     0
  9
$VISRETAIN
 70
     1
  9
$PLINEGEN
 70
     0
  9
$PSLTSCALE
 70
     0
  9
$TREEDEPTH
 70
  3020
  9
$CMLSTYLE
  2
Standard
  9
$CMLJUST
 70
     0
  9
$CMLSCALE
 40
1.0
  9
$PROXYGRAPHICS
 70
     1
  9
$MEASUREMENT
 70
     1
  9
$CELWEIGHT
370
    -1
  9
$ENDCAPS
280
     0
  9
$JOINSTYLE
280
     0
  9
$LWDISPLAY
290
     1
  9
$INSUNITS
 70
     0
  9
$HYPERLINKBASE
  1

  9
$STYLESHEET
  1

  9
$XEDIT
290
     1
  9
$CEPSNTYPE
380
     0
  9
$PSTYLEMODE
290
     1
  9
$FINGERPRINTGUID
  2
{496f1834-afe6-45cf-b593-13ef6305fe02}
  9
$VERSIONGUID
  2
{FAEB1C32-E019-11D5-929B-00C0DF256EC4}
  9
$EXTNAMES
290
     1
  9
$PSVPSCALE
 40
0.0
  9
$OLESTARTUP
290
     0
  0
ENDSEC
  0
SECTION
  2
CLASSES
  0
CLASS
  1
ACDBDICTIONARYWDFLT
  2
AcDbDictionaryWithDefault
  3
ObjectDBX Classes
 90
        0
280
     0
281
     0
  0
CLASS
  1
VISUALSTYLE
  2
AcDbVisualStyle
  3
ObjectDBX Classes
 90
     4095
280
     0
281
     0
  0
CLASS
  1
MATERIAL
  2
AcDbMaterial
  3
ObjectDBX Classes
 90
     1153
280
     0
281
     0
  0
CLASS
  1
SCALE
  2
AcDbScale
  3
ObjectDBX Classes
 90
     1153
280
     0
281
     0
  0
CLASS
  1
TABLESTYLE
  2
AcDbTableStyle
  3
ObjectDBX Classes
 90
     4095
280
     0
281
     0
  0
CLASS
  1
MLEADERSTYLE
  2
AcDbMLeaderStyle
  3
ACDB_MLEADERSTYLE_CLASS
 90
     4095
280
     0
281
     0
  0
CLASS
  1
SUN
  2
AcDbSun
  3
SCENEOE
 90
     1153
280
     0
281
     0
  0
CLASS
  1
RASTERVARIABLES
  2
AcDbRasterVariables
  3
ISM
 90
        0
280
     0
281
     0
  0
CLASS
  1
DICTIONARYVAR
  2
AcDbDictionaryVar
  3
ObjectDBX Classes
 90
        0
280
     0
281
     0
  0
CLASS
  1
ACDBPLACEHOLDER
  2
AcDbPlaceHolder
  3
ObjectDBX Classes
 90
        0
280
     0
281
     0
  0
CLASS
  1
LAYOUT
  2
AcDbLayout
  3
ObjectDBX Classes
 90
        0
280
     0
281
     0
  0
ENDSEC
  0
SECTION
  2
TABLES
  0
TABLE
  2
VPORT
  5
8
102
{ACAD_XDICTIONARY
360
39F
102
}
330
0
100
AcDbSymbolTable
 70
     1
  0
VPORT
  5
29
330
8
100
AcDbSymbolTableRecord
100
AcDbViewportTableRecord
  2
*Active
 70
     0
 10
0.0
 20
0.0
 11
1.0
 21
1.0
 12
361.5073661700495
 22
126.2082514210796
 13
0.0
 23
0.0
 14
0.5
 24
0.5
 15
0.5
 25
0.5
 16
0.0
 26
0.0
 36
1.0
 17
0.0
 27
0.0
 37
0.0
 40
236.5775111838738
 41
2.881561321148518
 42
50.0
 43
0.0
 44
0.0
 50
0.0
 51
0.0
 71
     0
 72
 20000
 73
     1
 74
     3
 75
     0
 76
     0
 77
     0
 78
     0
281
     0
 65
     1
110
0.0
120
0.0
130
0.0
111
1.0
121
0.0
131
0.0
112
0.0
122
1.0
132
0.0
 79
     0
146
0.0
  0
ENDTAB
  0
TABLE
  2
LTYPE
  5
5
330
0
100
AcDbSymbolTable
 70
     5
  0
LTYPE
  5
14
330
5
100
AcDbSymbolTableRecord
100
AcDbLinetypeTableRecord
  2
ByBlock
 70
     0
  3

 72
    65
 73
     0
 40
0.0
  0
LTYPE
  5
15
330
5
100
AcDbSymbolTableRecord
100
AcDbLinetypeTableRecord
  2
ByLayer
 70
     0
  3

 72
    65
 73
     0
 40
0.0
  0
LTYPE
  5
16
330
5
100
AcDbSymbolTableRecord
100
AcDbLinetypeTableRecord
  2
Continuous
 70
     0
  3
Solid line
 72
    65
 73
     0
 40
0.0
  0
LTYPE
  5
70
330
5
100
AcDbSymbolTableRecord
100
AcDbLinetypeTableRecord
  2
ACAD_ISO02W100
 70
     0
  3
ISO dash __ __ __ __ __ __ __ __ __ __ __ __ __
 72
    65
 73
     2
 40
15.0
 49
12.0
 74
     0
 49
-3.0
 74
     0
  0
LTYPE
  5
71
330
5
100
AcDbSymbolTableRecord
100
AcDbLinetypeTableRecord
  2
CENTER
 70
     0
  3

 72
    65
 73
     4
 40
2.25
 49
1.25
 74
     0
 49
-0.25
 74
     0
 49
0.5
 74
     0
 49
-0.25
 74
     0
  0
LTYPE
  5
72
330
5
100
AcDbSymbolTableRecord
100
AcDbLinetypeTableRecord
  2
DASHED
 70
     0
  3

 72
    65
 73
     2
 40
0.75
 49
0.5
 74
     0
 49
-0.25
 74
     0
  0
LTYPE
  5
73
330
5
100
AcDbSymbolTableRecord
100
AcDbLinetypeTableRecord
  2
sekkei(A2)
 70
     0
  3

 72
    65
 73
     4
 40
14.2875
 49
9.525
 74
     0
 49
-1.5875
 74
     0
 49
1.5875
 74
     0
 49
-1.5875
 74
     0
  0
ENDTAB
  0
TABLE
  2
LAYER
  5
2
330
0
100
AcDbSymbolTable
 70
    13
  0
LAYER
  5
10
330
2
100
AcDbSymbolTableRecord
100
AcDbLayerTableRecord
  2
0
 70
     0
 62
     7
  6
Continuous
370
    25
390
F
  0
LAYER
  5
74
330
2
100
AcDbSymbolTableRecord
100
AcDbLayerTableRecord
  2
新しいレイヤ 1
 70
     0
 62
     7
  6
Continuous
370
    13
390
F
  0
LAYER
  5
75
330
2
100
AcDbSymbolTableRecord
100
AcDbLayerTableRecord
  2
減速機
 70
     0
 62
     7
  6
Continuous
370
    25
390
F
  0
LAYER
  5
76
330
2
100
AcDbSymbolTableRecord
100
AcDbLayerTableRecord
  2
センサー
 70
     0
 62
     7
  6
Continuous
370
    13
390
F
  0
LAYER
  5
77
330
2
100
AcDbSymbolTableRecord
100
AcDbLayerTableRecord
  2
新しいレイヤ 2
 70
     0
 62
     7
  6
Continuous
370
    13
390
F
  0
LAYER
  5
78
330
2
100
AcDbSymbolTableRecord
100
AcDbLayerTableRecord
  2
View_0_PV
 70
     0
 62
     7
  6
Continuous
370
    18
390
F
  0
LAYER
  5
79
330
2
100
AcDbSymbolTableRecord
100
AcDbLayerTableRecord
  2
AM_4
 70
     0
 62
     7
  6
Continuous
370
    25
390
F
  0
LAYER
  5
7A
330
2
100
AcDbSymbolTableRecord
100
AcDbLayerTableRecord
  2
2d ConnectionPoints
 70
     0
 62
     7
  6
Continuous
370
    50
390
F
  0
LAYER
  5
7B
330
2
100
AcDbSymbolTableRecord
100
AcDbLayerTableRecord
  2
AM_9
 70
     0
 62
     6
  6
DASHED
370
    13
390
F
  0
LAYER
  5
7C
330
2
100
AcDbSymbolTableRecord
100
AcDbLayerTableRecord
  2
AM_7
 70
     0
 62
     7
  6
CENTER
370
    13
390
F
  0
LAYER
  5
7D
330
2
100
AcDbSymbolTableRecord
100
AcDbLayerTableRecord
  2
AM_0
 70
     0
 62
     7
  6
Continuous
370
    50
390
F
  0
LAYER
  5
7E
330
2
100
AcDbSymbolTableRecord
100
AcDbLayerTableRecord
  2
CENTER
 70
     0
 62
     3
  6
sekkei(A2)
370
    25
390
F
  0
LAYER
  5
7F
330
2
100
AcDbSymbolTableRecord
100
AcDbLayerTableRecord
  2
rcviewportframe
 70
     0
 62
    -7
  6
Continuous
370
    25
390
F
  0
ENDTAB
  0
TABLE
  2
STYLE
  5
3
330
0
100
AcDbSymbolTable
 70
     4
  0
STYLE
  5
11
330
3
100
AcDbSymbolTableRecord
100
AcDbTextStyleTableRecord
  2
Standard
 70
     0
 40
0.0
 41
1.0
 50
0.0
 71
     0
 42
0.2
  3
txt.shx
  4
extfont
  0
STYLE
  5
80
330
3
100
AcDbSymbolTableRecord
100
AcDbTextStyleTableRecord
  2
MS PGothic
 70
     0
 40
0.0
 41
1.0
 50
0.0
 71
     0
 42
0.2
  3
MS PGothic.ttf
  4

1001
ACAD
1000
ＭＳ Ｐゴシック
1071
    32818
  0
STYLE
  5
81
330
3
100
AcDbSymbolTableRecord
100
AcDbTextStyleTableRecord
  2
VERTICAL
 70
     4
 40
0.0
 41
1.0
 50
0.0
 71
     0
 42
0.2
  3
txt.shx
  4
extfont
  0
STYLE
  5
82
330
3
100
AcDbSymbolTableRecord
100
AcDbTextStyleTableRecord
  2
VERTICAL MS PGothic
 70
     0
 40
0.0
 41
1.0
 50
0.0
 71
     0
 42
0.2
  3
MS PGothic.ttf
  4

1001
ACAD
1000
@ＭＳ Ｐゴシック
1071
    32818
  0
ENDTAB
  0
TABLE
  2
VIEW
  5
6
330
0
100
AcDbSymbolTable
 70
     0
  0
ENDTAB
  0
TABLE
  2
UCS
  5
7
330
0
100
AcDbSymbolTable
 70
     0
  0
ENDTAB
  0
TABLE
  2
APPID
  5
9
330
0
100
AcDbSymbolTable
 70
     3
  0
APPID
  5
12
330
9
100
AcDbSymbolTableRecord
100
AcDbRegAppTableRecord
  2
ACAD
 70
     0
  0
APPID
  5
6E
330
9
100
AcDbSymbolTableRecord
100
AcDbRegAppTableRecord
  2
RootPro CAD
 70
     0
  0
APPID
  5
3D9
330
9
100
AcDbSymbolTableRecord
100
AcDbRegAppTableRecord
  2
ACAD_MLEADERVER
 70
     0
  0
ENDTAB
  0
TABLE
  2
DIMSTYLE
  5
A
330
0
100
AcDbSymbolTable
 70
     1
100
AcDbDimStyleTable
  0
DIMSTYLE
105
27
330
A
100
AcDbSymbolTableRecord
100
AcDbDimStyleTableRecord
  2
Standard
 70
     0
178
     0
340
11
  0
ENDTAB
  0
TABLE
  2
BLOCK_RECORD
  5
1
330
0
100
AcDbSymbolTable
 70
     1
  0
BLOCK_RECORD
  5
1F
330
1
100
AcDbSymbolTableRecord
100
AcDbBlockTableRecord
  2
*Model_Space
340
22
  0
BLOCK_RECORD
  5
1B
330
1
100
AcDbSymbolTableRecord
100
AcDbBlockTableRecord
  2
*Paper_Space
340
1E
  0
BLOCK_RECORD
  5
83
330
1
100
AcDbSymbolTableRecord
100
AcDbBlockTableRecord
  2
用紙 1
340
0
102
{BLKREFS
331
132
102
}
  0
ENDTAB
  0
ENDSEC
  0
SECTION
  2
BLOCKS
  0
BLOCK
  5
20
330
1F
100
AcDbEntity
  8
0
100
AcDbBlockBegin
  2
*Model_Space
 70
     0
 10
0.0
 20
0.0
 30
0.0
  3
*Model_Space
  1

  0
ENDBLK
  5
21
330
1F
100
AcDbEntity
  8
0
100
AcDbBlockEnd
  0
BLOCK
  5
1C
330
1B
100
AcDbEntity
 67
     1
  8
0
100
AcDbBlockBegin
  2
*Paper_Space
 70
     0
 10
0.0
 20
0.0
 30
0.0
  3
*Paper_Space
  1

  0
ENDBLK
  5
1D
330
1B
100
AcDbEntity
 67
     1
  8
0
100
AcDbBlockEnd
  0
BLOCK
  5
84
330
83
100
AcDbEntity
  8
0
100
AcDbBlockBegin
  2
用紙 1
 70
     0
 10
0.0
 20
0.0
 30
0.0
  3
用紙 1
  1

  0
ARC
  5
86
330
83
100
AcDbEntity
  8
センサー
100
AcDbCircle
 10
634.7359993457316
 20
206.7681423753976
 30
0.0
 40
30.0
100
AcDbArc
 50
169.4712206344907
 51
130.5287793655093
  0
LINE
  5
87
330
83
100
AcDbEntity
  8
新しいレイヤ 2
100
AcDbLine
 10
617.6116436927495
 20
205.1078883375532
 30
0.0
 11
621.250717971493
 21
203.0068678231196
 31
0.0
  0
CIRCLE
  5
88
330
83
100
AcDbEntity
  8
新しいレイヤ 2
100
AcDbCircle
 10
616.451389654905
 20
223.0982693943198
 30
0.0
 40
1.5
  0
CIRCLE
  5
89
330
83
100
AcDbEntity
  8
新しいレイヤ 2
100
AcDbCircle
 10
611.451389654905
 20
214.4380153564754
 30
0.0
 40
1.5
  0
CIRCLE
  5
8A
330
83
100
AcDbEntity
  8
新しいレイヤ 2
100
AcDbCircle
 10
562.2891774077281
 20
238.7327135571385
 30
0.0
 40
2.0
  0
CIRCLE
  5
8B
330
83
100
AcDbEntity
  8
新しいレイヤ 2
100
AcDbCircle
 10
570.2891774077281
 20
252.5891200176894
 30
0.0
 40
2.0
  0
CIRCLE
  5
8C
330
83
100
AcDbEntity
  8
新しいレイヤ 2
100
AcDbCircle
 10
699.1828832837351
 20
252.5891200176894
 30
0.0
 40
2.0
  0
CIRCLE
  5
8D
330
83
100
AcDbEntity
  8
新しいレイヤ 2
100
AcDbCircle
 10
707.1828832837351
 20
238.7327135571383
 30
0.0
 40
2.0
  0
LINE
  5
8E
330
83
100
AcDbEntity
  8
減速機
  6
Continuous
 62
     7
100
AcDbLine
 10
577.5261478678392
 20
241.657329640146
 30
0.0
 11
574.4950589545937
 21
243.407329640146
 31
0.0
  0
LINE
  5
8F
330
83
100
AcDbEntity
  8
減速機
  6
Continuous
 62
     7
100
AcDbLine
 10
571.1318073188584
 20
242.9819689284132
 30
0.0
 11
570.9818058188583
 21
242.7221587092017
 31
0.0
  0
LINE
  5
90
330
83
100
AcDbEntity
  8
減速機
  6
CENTER
 62
     2
100
AcDbLine
 10
580.9040041816033
 20
226.1971263962529
 30
0.0
 11
573.5568750186536
 21
230.4389933962528
 31
0.0
  0
LINE
  5
91
330
83
100
AcDbEntity
  8
減速機
  6
Continuous
 62
     7
100
AcDbLine
 10
590.5667734672604
 20
245.444367740827
 30
0.0
 11
586.1667759672604
 21
237.8233485176509
 31
0.0
  0
LINE
  5
92
330
83
100
AcDbEntity
  8
減速機
  6
Continuous
 62
     7
100
AcDbLine
 10
579.338571236985
 20
241.9965510003317
 30
0.0
 11
579.238572736985
 21
241.8233485176509
 31
0.0
  0
LWPOLYLINE
  5
93
330
83
100
AcDbEntity
  8
センサー
100
AcDbPolyline
 90
        5
 70
     0
 43
0.0
 10
587.8110413135333
 20
236.8712816385203
 10
592.7110411135334
 20
245.3583302491978
 10
592.4789903059644
 20
248.9564064605511
 10
569.9623298075691
 20
261.9564064605511
 10
567.2302790000002
 20
261.2243556529821
  0
ARC
  5
94
330
83
100
AcDbEntity
  8
減速機
  6
Continuous
 62
     7
100
AcDbCircle
 10
586.5321040097573
 20
244.6560972486853
 30
0.0
 40
1.600000399999999
100
AcDbArc
 50
150.00005
 51
330.000018
  0
LINE
  5
95
330
83
100
AcDbEntity
  8
減速機
  6
Continuous
 62
     7
100
AcDbLine
 10
585.1464581675499
 20
245.4561002486853
 30
0.0
 11
585.6964611675498
 21
246.4087333890005
 31
0.0
  0
LINE
  5
96
330
83
100
AcDbEntity
  8
減速機
  6
Continuous
 62
     7
100
AcDbLine
 10
574.4950814090763
 20
243.4073305324508
 30
0.0
 11
574.3852764840934
 21
243.8171308234591
 31
0.0
  0
LINE
  5
97
330
83
100
AcDbEntity
  8
減速機
  6
CENTER
 62
     2
100
AcDbLine
 10
590.2054220526679
 20
242.766242731366
 30
0.0
 11
582.9906761310169
 21
246.9316782313659
 31
0.0
  0
LINE
  5
98
330
83
100
AcDbEntity
  8
減速機
  6
Continuous
 62
     7
100
AcDbLine
 10
596.375108118382
 20
229.5047044639323
 30
0.0
 11
595.275109618382
 21
227.5994511736827
 31
0.0
  0
ARC
  5
99
330
83
100
AcDbEntity
  8
センサー
100
AcDbCircle
 10
577.653672758659
 20
248.2782032302756
 30
0.0
 40
2.5
100
AcDbArc
 50
240.0
 51
60.0
  0
LWPOLYLINE
  5
9A
330
83
100
AcDbEntity
  8
センサー
100
AcDbPolyline
 90
        2
 70
     0
 43
0.0
 10
578.903672758659
 20
250.4432667397367
 10
571.109444124599
 20
254.9432667397367
  0
ARC
  5
9B
330
83
100
AcDbEntity
  8
センサー
100
AcDbCircle
 10
569.859444124599
 20
252.7782032302756
 30
0.0
 40
2.5
100
AcDbArc
 50
60.0
 51
240.0
  0
LWPOLYLINE
  5
9C
330
83
100
AcDbEntity
  8
センサー
100
AcDbPolyline
 90
        2
 70
     0
 43
0.0
 10
568.609444124599
 20
250.6131397208145
 10
576.403672758659
 20
246.1131397208145
  0
LINE
  5
9D
330
83
100
AcDbEntity
  8
減速機
  6
Continuous
 62
     7
100
AcDbLine
 10
594.8270363352318
 20
232.8233494817525
 30
0.0
 11
594.7904325269043
 21
232.9599458259787
 31
0.0
  0
LINE
  5
9E
330
83
100
AcDbEntity
  8
減速機
  6
Continuous
 62
     7
100
AcDbLine
 10
578.4725458332006
 20
242.4965510003317
 30
0.0
 11
578.3725473332005
 21
242.3233485176509
 31
0.0
  0
ARC
  5
9F
330
83
100
AcDbEntity
  8
減速機
  6
Continuous
 62
     7
100
AcDbCircle
 10
587.0821070097574
 20
245.6087303890006
 30
0.0
 40
1.600000399999999
100
AcDbArc
 50
330.000018
 51
150.0000400000001
  0
LINE
  5
A0
330
83
100
AcDbEntity
  8
減速機
  6
Continuous
 62
     7
100
AcDbLine
 10
587.9177368615839
 20
243.8561017486853
 30
0.0
 11
588.4677398615838
 21
244.8087348890005
 31
0.0
  0
LINE
  5
A1
330
83
100
AcDbEntity
  8
減速機
  6
Continuous
 62
     7
100
AcDbLine
 10
578.026165812703
 20
242.5233181253461
 30
0.0
 11
577.4431481467091
 21
242.5135099061345
 31
0.0
  0
LINE
  5
A2
330
83
100
AcDbEntity
  8
減速機
  6
Continuous
 62
     7
100
AcDbLine
 10
595.275109618382
 20
227.5994511736827
 30
0.0
 11
595.1019036715996
 21
227.6994516736828
 31
0.0
  0
LINE
  5
A3
330
83
100
AcDbEntity
  8
減速機
  6
Continuous
 62
     7
100
AcDbLine
 10
597.2518976715997
 20
231.423350517651
 30
0.0
 11
594.0519024715996
 21
225.8807962472744
 31
0.0
  0
LINE
  5
A4
330
83
100
AcDbEntity
  8
減速機
  6
Continuous
 62
     7
100
AcDbLine
 10
575.6055648350928
 20
236.5307942472744
 30
0.0
 11
575.5055644350928
 21
236.3575884736972
 31
0.0
  0
LINE
  5
A5
330
83
100
AcDbEntity
  8
減速機
  6
Continuous
 62
     7
100
AcDbLine
 10
591.4538323224242
 20
227.3807927472745
 30
0.0
 11
577.5974258618731
 21
235.3807927472745
 31
0.0
  0
ARC
  5
A6
330
83
100
AcDbEntity
  8
減速機
  6
Continuous
 62
     7
100
AcDbCircle
 10
576.6821132597573
 20
227.5954128156017
 30
0.0
 40
1.600000399999999
100
AcDbArc
 50
150.0
 51
330.000018
  0
LINE
  5
A7
330
83
100
AcDbEntity
  8
減速機
  6
Continuous
 62
     7
100
AcDbLine
 10
575.8464628175499
 20
229.3480357923309
 30
0.0
 11
575.2964674175498
 21
228.3954158156017
 31
0.0
  0
LINE
  5
A8
330
83
100
AcDbEntity
  8
減速機
  6
Continuous
 62
     7
100
AcDbLine
 10
596.375108118382
 20
229.5047044639323
 30
0.0
 11
596.2019021715997
 21
229.6047049639322
 31
0.0
  0
LINE
  5
A9
330
83
100
AcDbEntity
  8
減速機
  6
CENTER
 62
     2
100
AcDbLine
 10
597.5417935372114
 20
227.5609488857948
 30
0.0
 11
570.203413627639
 21
243.3447698857948
 31
0.0
  0
LINE
  5
AA
330
83
100
AcDbEntity
  8
減速機
  6
Continuous
 62
     7
100
AcDbLine
 10
576.7314004580887
 20
235.8807927472745
 30
0.0
 11
576.6314000580887
 21
235.7075869736971
 31
0.0
  0
LINE
  5
AB
330
83
100
AcDbEntity
  8
減速機
  6
Continuous
 62
     7
100
AcDbLine
 10
591.6270533275367
 20
227.2807923290676
 30
0.0
 11
591.4904524531836
 21
227.2441906743297
 31
0.0
  0
ARC
  5
AC
330
83
100
AcDbEntity
  8
減速機
  6
Continuous
 62
     7
100
AcDbCircle
 10
577.2321086597573
 20
228.5480327923309
 30
0.0
 40
1.600000399999999
100
AcDbArc
 50
330.000018
 51
149.99998
  0
LINE
  5
AD
330
83
100
AcDbEntity
  8
減速機
  6
Continuous
 62
     7
100
AcDbLine
 10
578.6177415115839
 20
227.7480372923308
 30
0.0
 11
578.0677461115838
 21
226.7954173156017
 31
0.0
  0
LINE
  5
AE
330
83
100
AcDbEntity
  8
減速機
  6
Continuous
 62
     7
100
AcDbLine
 10
594.0519024715996
 20
225.8807962472744
 30
0.0
 11
591.6270348051049
 21
227.2807942472744
 31
0.0
  0
LWPOLYLINE
  5
AF
330
83
100
AcDbEntity
  8
センサー
100
AcDbPolyline
 90
        2
 70
     0
 43
0.0
 10
563.109444124599
 20
241.0868602791855
 10
570.9036727586589
 20
236.5868602791855
  0
ARC
  5
B0
330
83
100
AcDbEntity
  8
センサー
100
AcDbCircle
 10
561.859444124599
 20
238.9217967697244
 30
0.0
 40
2.5
100
AcDbArc
 50
60.0
 51
240.0
  0
LWPOLYLINE
  5
B1
330
83
100
AcDbEntity
  8
センサー
100
AcDbPolyline
 90
        2
 70
     0
 43
0.0
 10
568.4036727586589
 20
232.2567332602633
 10
560.609444124599
 20
236.7567332602633
  0
ARC
  5
B2
330
83
100
AcDbEntity
  8
センサー
100
AcDbCircle
 10
569.6536727586589
 20
234.4217967697244
 30
0.0
 40
2.5
100
AcDbArc
 50
240.0
 51
60.0
  0
LINE
  5
B3
330
83
100
AcDbEntity
  8
減速機
  6
Continuous
 62
     7
100
AcDbLine
 10
579.338571236985
 20
241.9965510003317
 30
0.0
 11
578.4725458332006
 21
242.4965510003317
 31
0.0
  0
LINE
  5
B4
330
83
100
AcDbEntity
  8
減速機
  6
Continuous
 62
     7
100
AcDbLine
 10
591.4904507211328
 20
227.2441916743297
 30
0.0
 11
591.4538491128052
 21
227.3807918290675
 31
0.0
  0
LINE
  5
B5
330
83
100
AcDbEntity
  8
減速機
  6
Continuous
 62
     7
100
AcDbLine
 10
577.5974258618731
 20
235.3807927472745
 30
0.0
 11
573.1974262468731
 21
227.7597698608109
 31
0.0
  0
ARC
  5
B6
330
83
100
AcDbEntity
  8
減速機
  6
Continuous
 62
     7
100
AcDbCircle
 10
586.0634439656576
 20
248.044366240827
 30
0.0
 40
1.0
100
AcDbArc
 50
60.0
 51
149.99998
  0
LINE
  5
B7
330
83
100
AcDbEntity
  8
減速機
  6
Continuous
 62
     7
100
AcDbLine
 10
577.5974258618731
 20
235.3807927472745
 30
0.0
 11
574.8261471678392
 21
236.9807912472745
 31
0.0
  0
LINE
  5
B8
330
83
100
AcDbEntity
  8
減速機
  6
Continuous
 62
     7
100
AcDbLine
 10
597.2518976715997
 20
231.423350517651
 30
0.0
 11
594.8270300051048
 21
232.8233485176509
 31
0.0
  0
LINE
  5
B9
330
83
100
AcDbEntity
  8
減速機
  6
Continuous
 62
     7
100
AcDbLine
 10
574.585241735382
 20
244.1635367984394
 30
0.0
 11
574.3852482353822
 21
243.817137895256
 31
0.0
  0
LINE
  5
BA
330
83
100
AcDbEntity
  8
減速機
  6
Continuous
 62
     7
100
AcDbLine
 10
576.6314000580887
 20
235.7075869736971
 30
0.0
 11
575.5055644350928
 21
236.3575884736972
 31
0.0
  0
LINE
  5
BB
330
83
100
AcDbEntity
  8
減速機
  6
Continuous
 62
     7
100
AcDbLine
 10
594.6538275224242
 20
232.923347017651
 30
0.0
 11
580.7974210618731
 21
240.923347017651
 31
0.0
  0
LINE
  5
BC
330
83
100
AcDbEntity
  8
減速機
  6
Continuous
 62
     7
100
AcDbLine
 10
582.9667807672605
 20
232.2807942472744
 30
0.0
 11
578.5667811522604
 21
224.6597713608109
 31
0.0
  0
ARC
  5
BD
330
83
100
AcDbEntity
  8
減速機
  6
Continuous
 62
     7
100
AcDbCircle
 10
589.700748063476
 20
245.944367740827
 30
0.0
 40
1.0
100
AcDbArc
 50
330.000018
 51
60.0
  0
LINE
  5
BE
330
83
100
AcDbEntity
  8
減速機
  6
Continuous
 62
     7
100
AcDbLine
 10
580.7974210618731
 20
240.923347017651
 30
0.0
 11
578.0261423678392
 21
242.523345517651
 31
0.0
  0
ARC
  5
BF
330
83
100
AcDbEntity
  8
減速機
  6
Continuous
 62
     7
100
AcDbCircle
 10
574.0634516506576
 20
227.2597698608109
 30
0.0
 40
1.0
100
AcDbArc
 50
149.9999700000001
 51
240.00002
  0
LINE
  5
C0
330
83
100
AcDbEntity
  8
減速機
  6
Continuous
 62
     7
100
AcDbLine
 10
578.0261423678392
 20
242.523345517651
 30
0.0
 11
574.8261471678392
 21
236.9807912472745
 31
0.0
  0
CIRCLE
  5
C1
330
83
100
AcDbEntity
  8
センサー
100
AcDbCircle
 10
586.9035606635827
 20
245.2702730459201
 30
0.0
 40
1.5
  0
LINE
  5
C2
330
83
100
AcDbEntity
  8
減速機
  6
Continuous
 62
     7
100
AcDbLine
 10
576.3511468678391
 20
239.6221682092017
 30
0.0
 11
570.9818058188583
 21
242.7221587092017
 31
0.0
  0
LINE
  5
C3
330
83
100
AcDbEntity
  8
減速機
  6
Continuous
 62
     7
100
AcDbLine
 10
594.7904339288281
 20
232.9599542541817
 30
0.0
 11
594.6538336205004
 21
232.9233515798288
 31
0.0
  0
LINE
  5
C4
330
83
100
AcDbEntity
  8
減速機
  6
Continuous
 62
     7
100
AcDbLine
 10
577.200755763476
 20
224.2937459830073
 30
0.0
 11
573.5634516656577
 21
226.3937444830072
 31
0.0
  0
ARC
  5
C5
330
83
100
AcDbEntity
  8
減速機
  6
Continuous
 62
     7
100
AcDbCircle
 10
577.700755748476
 20
225.1597713608109
 30
0.0
 40
1.0
100
AcDbArc
 50
240.0000400000001
 51
330.000018
  0
LINE
  5
C6
330
83
100
AcDbEntity
  8
減速機
  6
Continuous
 62
     7
100
AcDbLine
 10
577.443128165947
 20
242.5135352984393
 30
0.0
 11
574.585241735382
 21
244.1635367984394
 31
0.0
  0
CIRCLE
  5
C7
330
83
100
AcDbEntity
  8
センサー
100
AcDbCircle
 10
576.9035606635827
 20
227.9497649702314
 30
0.0
 40
1.5
  0
LINE
  5
C8
330
83
100
AcDbEntity
  8
減速機
  6
Continuous
 62
     7
100
AcDbLine
 10
576.5011483678392
 20
239.8819784284132
 30
0.0
 11
571.1318073188584
 21
242.9819689284132
 31
0.0
  0
LINE
  5
C9
330
83
100
AcDbEntity
  8
減速機
  6
Continuous
 62
     7
100
AcDbLine
 10
590.200748063476
 20
246.8103931446114
 30
0.0
 11
586.5634439656576
 21
248.9103916446114
 31
0.0
  0
LINE
  5
CA
330
83
100
AcDbEntity
  8
減速機
  6
Continuous
 62
     7
100
AcDbLine
 10
585.1974185618732
 20
248.544366240827
 30
0.0
 11
580.7974210618731
 21
240.923347017651
 31
0.0
  0
LINE
  5
CB
330
83
100
AcDbEntity
  8
減速機
  6
CENTER
 62
     2
100
AcDbLine
 10
590.617601858955
 20
225.7323870977089
 30
0.0
 11
595.3789637589551
 21
233.9793078217317
 31
0.0
  0
LWPOLYLINE
  5
CC
330
83
100
AcDbEntity
  8
センサー
100
AcDbPolyline
 90
        6
 70
     0
 43
0.0
 10
567.2302790000002
 20
261.2243556529821
 10
553.2302790000002
 20
236.9756443470179
 10
553.9623298075691
 20
234.2435935394489
 10
576.4789903059644
 20
221.2435935394489
 10
579.2110411135333
 20
221.9756443470179
 10
584.6110461135333
 20
231.3287273681438
  0
LINE
  5
CD
330
83
100
AcDbEntity
  8
減速機
  6
Continuous
 62
     7
100
AcDbLine
 10
694.2368029624537
 20
237.842673359854
 30
0.0
 11
697.2678918756992
 21
239.592673359854
 31
0.0
  0
LINE
  5
CE
330
83
100
AcDbEntity
  8
減速機
  6
Continuous
 62
     7
100
AcDbLine
 10
698.5811445114344
 20
242.7180150715868
 30
0.0
 11
698.4311430114344
 21
242.9778252907983
 31
0.0
  0
LINE
  5
CF
330
83
100
AcDbEntity
  8
減速機
  6
CENTER
 62
     2
100
AcDbLine
 10
679.1589460486895
 20
242.6474656037473
 30
0.0
 11
686.5060752116393
 21
246.8893326037473
 31
0.0
  0
LINE
  5
D0
330
83
100
AcDbEntity
  8
減速機
  6
Continuous
 62
     7
100
AcDbLine
 10
690.9961613630323
 20
224.6556412591731
 30
0.0
 11
686.5961638630323
 21
232.276660482349
 31
0.0
  0
LINE
  5
D1
330
83
100
AcDbEntity
  8
減速機
  6
Continuous
 62
     7
100
AcDbLine
 10
693.6243655933079
 20
236.1034579996684
 30
0.0
 11
693.5243670933079
 21
236.276660482349
 31
0.0
  0
LWPOLYLINE
  5
D2
330
83
100
AcDbEntity
  8
センサー
100
AcDbPolyline
 90
        5
 70
     0
 43
0.0
 10
684.949517086467
 20
231.3287183614796
 10
689.8495168864671
 20
222.8416697508023
 10
693.0815676940359
 20
221.243593539449
 10
715.5982281924313
 20
234.243593539449
 10
716.3302790000002
 20
236.9756443470178
  0
ARC
  5
D3
330
83
100
AcDbEntity
  8
減速機
  6
Continuous
 62
     7
100
AcDbCircle
 10
692.3308338205354
 20
228.5439027513148
 30
0.0
 40
1.600000399999999
100
AcDbArc
 50
30.00004999999998
 51
210.000018
  0
LINE
  5
D4
330
83
100
AcDbEntity
  8
減速機
  6
Continuous
 62
     7
100
AcDbLine
 10
693.7164796627429
 20
229.3439057513148
 30
0.0
 11
694.266482662743
 21
228.3912726109996
 31
0.0
  0
LINE
  5
D5
330
83
100
AcDbEntity
  8
減速機
  6
Continuous
 62
     7
100
AcDbLine
 10
697.2678814212164
 20
239.5926534675492
 30
0.0
 11
697.6776813461994
 21
239.482847176541
 31
0.0
  0
LINE
  5
D6
330
83
100
AcDbEntity
  8
減速機
  6
CENTER
 62
     2
100
AcDbLine
 10
688.8575127776248
 20
226.3076432686341
 30
0.0
 11
696.072258699276
 21
230.4730787686341
 31
0.0
  0
LINE
  5
D7
330
83
100
AcDbEntity
  8
減速機
  6
Continuous
 62
     7
100
AcDbLine
 10
674.2878407119109
 20
227.5953075360678
 30
0.0
 11
673.1878422119108
 21
229.5005608263174
 31
0.0
  0
ARC
  5
D8
330
83
100
AcDbEntity
  8
センサー
100
AcDbCircle
 10
699.9068852413415
 20
234.4217967697245
 30
0.0
 40
2.5
100
AcDbArc
 50
120.0
 51
300.0
  0
LWPOLYLINE
  5
D9
330
83
100
AcDbEntity
  8
センサー
100
AcDbPolyline
 90
        2
 70
     0
 43
0.0
 10
701.1568852413415
 20
232.2567332602634
 10
708.9511138754013
 20
236.7567332602634
  0
ARC
  5
DA
330
83
100
AcDbEntity
  8
センサー
100
AcDbCircle
 10
707.7011138754013
 20
238.9217967697245
 30
0.0
 40
2.5
100
AcDbArc
 50
300.0
 51
120.0
  0
LWPOLYLINE
  5
DB
330
83
100
AcDbEntity
  8
センサー
100
AcDbPolyline
 90
        2
 70
     0
 43
0.0
 10
706.4511138754013
 20
241.0868602791856
 10
698.6568852413415
 20
236.5868602791856
  0
LINE
  5
DC
330
83
100
AcDbEntity
  8
減速機
  6
Continuous
 62
     7
100
AcDbLine
 10
677.935907495061
 20
227.2766545182475
 30
0.0
 11
678.0725053033885
 21
227.2400561740214
 31
0.0
  0
LINE
  5
DD
330
83
100
AcDbEntity
  8
減速機
  6
Continuous
 62
     7
100
AcDbLine
 10
694.4903909970923
 20
236.6034579996684
 30
0.0
 11
694.3903924970923
 21
236.776660482349
 31
0.0
  0
ARC
  5
DE
330
83
100
AcDbEntity
  8
減速機
  6
Continuous
 62
     7
100
AcDbCircle
 10
692.8808368205354
 20
227.5912696109995
 30
0.0
 40
1.600000399999999
100
AcDbArc
 50
210.000018
 51
30.00004000000013
  0
LINE
  5
DF
330
83
100
AcDbEntity
  8
減速機
  6
Continuous
 62
     7
100
AcDbLine
 10
690.945200968709
 20
227.7439072513148
 30
0.0
 11
691.495203968709
 21
226.7912741109995
 31
0.0
  0
LINE
  5
E0
330
83
100
AcDbEntity
  8
減速機
  6
Continuous
 62
     7
100
AcDbLine
 10
694.7367620175899
 20
236.9766508746539
 30
0.0
 11
695.0197766835837
 21
237.4864630938654
 31
0.0
  0
LINE
  5
E1
330
83
100
AcDbEntity
  8
減速機
  6
Continuous
 62
     7
100
AcDbLine
 10
673.1878422119108
 20
229.5005608263174
 30
0.0
 11
673.361048158693
 21
229.6005613263173
 31
0.0
  0
LINE
  5
E2
330
83
100
AcDbEntity
  8
減速機
  6
Continuous
 62
     7
100
AcDbLine
 10
675.5110421586932
 20
225.876662482349
 30
0.0
 11
672.311046958693
 21
231.4192167527256
 31
0.0
  0
LINE
  5
E3
330
83
100
AcDbEntity
  8
減速機
  6
Continuous
 62
     7
100
AcDbLine
 10
690.7573845952
 20
242.0692147527256
 30
0.0
 11
690.6573841952
 21
242.2424205263029
 31
0.0
  0
LINE
  5
E4
330
83
100
AcDbEntity
  8
減速機
  6
Continuous
 62
     7
100
AcDbLine
 10
674.9091171078686
 20
232.9192132527257
 30
0.0
 11
688.7655235684196
 21
240.9192132527257
 31
0.0
  0
ARC
  5
E5
330
83
100
AcDbEntity
  8
減速機
  6
Continuous
 62
     7
100
AcDbCircle
 10
682.4808430705355
 20
245.6045871843982
 30
0.0
 40
1.600000399999999
100
AcDbArc
 50
30.0
 51
210.000018
  0
LINE
  5
E6
330
83
100
AcDbEntity
  8
減速機
  6
Continuous
 62
     7
100
AcDbLine
 10
684.416484312743
 20
245.4519702076691
 30
0.0
 11
683.866488912743
 21
246.4045901843982
 31
0.0
  0
LINE
  5
E7
330
83
100
AcDbEntity
  8
減速機
  6
Continuous
 62
     7
100
AcDbLine
 10
674.2878407119109
 20
227.5953075360678
 30
0.0
 11
674.4610466586931
 21
227.6953080360678
 31
0.0
  0
LINE
  5
E8
330
83
100
AcDbEntity
  8
減速機
  6
CENTER
 62
     2
100
AcDbLine
 10
672.0211562930813
 20
227.5568061142053
 30
0.0
 11
699.3595362026539
 21
243.3406271142053
 31
0.0
  0
LINE
  5
E9
330
83
100
AcDbEntity
  8
減速機
  6
Continuous
 62
     7
100
AcDbLine
 10
689.6315489722041
 20
241.4192132527257
 30
0.0
 11
689.5315485722041
 21
241.5924190263029
 31
0.0
  0
LINE
  5
EA
330
83
100
AcDbEntity
  8
減速機
  6
Continuous
 62
     7
100
AcDbLine
 10
674.735903702756
 20
232.8191996709326
 30
0.0
 11
674.7725061771091
 21
232.9558003256704
 31
0.0
  0
ARC
  5
EB
330
83
100
AcDbEntity
  8
減速機
  6
Continuous
 62
     7
100
AcDbCircle
 10
683.0308384705355
 20
244.6519672076691
 30
0.0
 40
1.600000399999999
100
AcDbArc
 50
210.000018
 51
29.99998
  0
LINE
  5
EC
330
83
100
AcDbEntity
  8
減速機
  6
Continuous
 62
     7
100
AcDbLine
 10
681.6452056187089
 20
243.8519717076691
 30
0.0
 11
681.095210218709
 21
244.8045916843982
 31
0.0
  0
LINE
  5
ED
330
83
100
AcDbEntity
  8
減速機
  6
Continuous
 62
     7
100
AcDbLine
 10
672.311046958693
 20
231.4192167527256
 30
0.0
 11
674.735914625188
 21
232.8192147527256
 31
0.0
  0
LWPOLYLINE
  5
EE
330
83
100
AcDbEntity
  8
センサー
100
AcDbPolyline
 90
        2
 70
     0
 43
0.0
 10
700.9511138754013
 20
250.6131397208144
 10
693.1568852413415
 20
246.1131397208144
  0
ARC
  5
EF
330
83
100
AcDbEntity
  8
センサー
100
AcDbCircle
 10
699.7011138754013
 20
252.7782032302755
 30
0.0
 40
2.5
100
AcDbArc
 50
300.0
 51
120.0
  0
LWPOLYLINE
  5
F0
330
83
100
AcDbEntity
  8
センサー
100
AcDbPolyline
 90
        2
 70
     0
 43
0.0
 10
690.6568852413415
 20
250.4432667397366
 10
698.4511138754013
 20
254.9432667397366
  0
ARC
  5
F1
330
83
100
AcDbEntity
  8
センサー
100
AcDbCircle
 10
691.9068852413415
 20
248.2782032302755
 30
0.0
 40
2.5
100
AcDbArc
 50
120.0
 51
300.0
  0
LINE
  5
F2
330
83
100
AcDbEntity
  8
減速機
  6
Continuous
 62
     7
100
AcDbLine
 10
693.6243655933079
 20
236.1034579996684
 30
0.0
 11
694.4903909970923
 21
236.6034579996684
 31
0.0
  0
LINE
  5
F3
330
83
100
AcDbEntity
  8
減速機
  6
Continuous
 62
     7
100
AcDbLine
 10
674.7725079091599
 20
232.9558013256704
 30
0.0
 11
674.9091079174875
 21
232.9191991709326
 31
0.0
  0
LINE
  5
F4
330
83
100
AcDbEntity
  8
減速機
  6
Continuous
 62
     7
100
AcDbLine
 10
688.7655235684196
 20
240.9192132527257
 30
0.0
 11
684.3655239534197
 21
248.540236139189
 31
0.0
  0
ARC
  5
F5
330
83
100
AcDbEntity
  8
減速機
  6
Continuous
 62
     7
100
AcDbCircle
 10
695.4994908646353
 20
227.255639759173
 30
0.0
 40
1.0
100
AcDbArc
 50
300.0
 51
29.99998
  0
LINE
  5
F6
330
83
100
AcDbEntity
  8
減速機
  6
Continuous
 62
     7
100
AcDbLine
 10
688.7655235684196
 20
240.9192132527257
 30
0.0
 11
691.5368022624535
 21
242.5192117527257
 31
0.0
  0
LINE
  5
F7
330
83
100
AcDbEntity
  8
減速機
  6
Continuous
 62
     7
100
AcDbLine
 10
675.5110421586932
 20
225.876662482349
 30
0.0
 11
677.935909825188
 21
227.276660482349
 31
0.0
  0
LINE
  5
F8
330
83
100
AcDbEntity
  8
減速機
  6
Continuous
 62
     7
100
AcDbLine
 10
697.8776950949107
 20
239.1364692015606
 30
0.0
 11
697.6777015949107
 21
239.4828681047442
 31
0.0
  0
LINE
  5
F9
330
83
100
AcDbEntity
  8
減速機
  6
Continuous
 62
     7
100
AcDbLine
 10
689.5315485722041
 20
241.5924190263029
 30
0.0
 11
690.6573841952
 21
242.2424205263029
 31
0.0
  0
LINE
  5
FA
330
83
100
AcDbEntity
  8
減速機
  6
Continuous
 62
     7
100
AcDbLine
 10
678.1091123078687
 20
227.376658982349
 30
0.0
 11
691.9655187684197
 21
235.376658982349
 31
0.0
  0
LINE
  5
FB
330
83
100
AcDbEntity
  8
減速機
  6
Continuous
 62
     7
100
AcDbLine
 10
683.3961686630323
 20
237.8192147527256
 30
0.0
 11
678.9961690480324
 21
245.440237639189
 31
0.0
  0
ARC
  5
FC
330
83
100
AcDbEntity
  8
減速機
  6
Continuous
 62
     7
100
AcDbCircle
 10
691.8621867668168
 20
225.1556412591731
 30
0.0
 40
1.0
100
AcDbArc
 50
210.000018
 51
300.0
  0
LINE
  5
FD
330
83
100
AcDbEntity
  8
減速機
  6
Continuous
 62
     7
100
AcDbLine
 10
691.9655187684197
 20
235.376658982349
 30
0.0
 11
694.7367974624536
 21
236.9766574823491
 31
0.0
  0
ARC
  5
FE
330
83
100
AcDbEntity
  8
減速機
  6
Continuous
 62
     7
100
AcDbCircle
 10
683.4994985496352
 20
248.040236139189
 30
0.0
 40
1.0
100
AcDbArc
 50
29.99997000000008
 51
120.0000200000001
  0
LINE
  5
FF
330
83
100
AcDbEntity
  8
減速機
  6
Continuous
 62
     7
100
AcDbLine
 10
694.7367974624536
 20
236.9766574823491
 30
0.0
 11
691.5368022624535
 21
242.5192117527257
 31
0.0
  0
CIRCLE
  5
100
330
83
100
AcDbEntity
  8
センサー
100
AcDbCircle
 10
692.6769973364177
 20
227.9151239540799
 30
0.0
 40
1.5
  0
LINE
  5
101
330
83
100
AcDbEntity
  8
減速機
  6
Continuous
 62
     7
100
AcDbLine
 10
693.0618019624536
 20
239.8778347907983
 30
0.0
 11
698.4311430114344
 21
242.9778252907983
 31
0.0
  0
LINE
  5
102
330
83
100
AcDbEntity
  8
減速機
  6
Continuous
 62
     7
100
AcDbLine
 10
678.0725119014647
 20
227.2400507458182
 30
0.0
 11
678.1091132097924
 21
227.3766514201712
 31
0.0
  0
LINE
  5
103
330
83
100
AcDbEntity
  8
減速機
  6
Continuous
 62
     7
100
AcDbLine
 10
679.3621944668167
 20
246.8062630169927
 30
0.0
 11
682.9994985646352
 21
248.9062615169927
 31
0.0
  0
ARC
  5
104
330
83
100
AcDbEntity
  8
減速機
  6
Continuous
 62
     7
100
AcDbCircle
 10
679.8621944518168
 20
245.940237639189
 30
0.0
 40
1.0
100
AcDbArc
 50
120.00004
 51
210.000018
  0
LINE
  5
105
330
83
100
AcDbEntity
  8
減速機
  6
Continuous
 62
     7
100
AcDbLine
 10
695.0198086643458
 20
237.4864677015606
 30
0.0
 11
697.8776950949107
 21
239.1364692015606
 31
0.0
  0
CIRCLE
  5
106
330
83
100
AcDbEntity
  8
センサー
100
AcDbCircle
 10
682.6769973364177
 20
245.2356320297687
 30
0.0
 40
1.5
  0
LINE
  5
107
330
83
100
AcDbEntity
  8
減速機
  6
Continuous
 62
     7
100
AcDbLine
 10
693.2118034624535
 20
239.6180245715868
 30
0.0
 11
698.5811445114344
 21
242.7180150715868
 31
0.0
  0
LINE
  5
108
330
83
100
AcDbEntity
  8
減速機
  6
Continuous
 62
     7
100
AcDbLine
 10
692.3621867668168
 20
224.2896158553886
 30
0.0
 11
695.9994908646353
 21
226.3896143553886
 31
0.0
  0
LINE
  5
109
330
83
100
AcDbEntity
  8
減速機
  6
Continuous
 62
     7
100
AcDbLine
 10
696.3655162684196
 20
227.755639759173
 30
0.0
 11
691.9655187684197
 21
235.376658982349
 31
0.0
  0
LINE
  5
10A
330
83
100
AcDbEntity
  8
減速機
  6
CENTER
 62
     2
100
AcDbLine
 10
673.8996711713377
 20
234.4676129022911
 30
0.0
 11
678.6610330713378
 21
226.2206921782683
 31
0.0
  0
LWPOLYLINE
  5
10B
330
83
100
AcDbEntity
  8
センサー
100
AcDbPolyline
 90
        6
 70
     0
 43
0.0
 10
716.3302790000002
 20
236.9756443470178
 10
702.3302790000002
 20
261.2243556529821
 10
699.5982281924313
 20
261.9564064605511
 10
677.0815676940359
 20
248.9564064605511
 10
676.3495168864671
 20
246.2243556529821
 10
681.749521886467
 20
236.8712726318562
  0
LWPOLYLINE
  5
10C
330
83
100
AcDbEntity
  8
センサー
100
AcDbPolyline
 90
        4
 70
     0
 43
0.0
 10
721.5751881291484
 20
237.8045103268628
 10
705.5751881291484
 20
265.5173232479648
 10
680.4604514193996
 20
251.0173232479648
 10
680.4255456152908
 20
250.8870530135517
  0
LWPOLYLINE
  5
10D
330
83
100
AcDbEntity
  8
センサー
100
AcDbPolyline
 90
        2
 70
     0
 43
0.0
 10
698.514309099247
 20
224.4903056111998
 10
721.5751881291484
 20
237.8045103268628
  0
LWPOLYLINE
  5
10E
330
83
100
AcDbEntity
  8
センサー
100
AcDbPolyline
 90
        3
 70
     0
 43
0.0
 10
563.8968725623148
 20
265.517323247965
 10
547.8968725623148
 20
237.8045103268629
 10
570.9577005116404
 20
224.4903351025845
  0
LWPOLYLINE
  5
10F
330
83
100
AcDbEntity
  8
センサー
100
AcDbPolyline
 90
        3
 70
     0
 43
0.0
 10
589.0303189446271
 20
250.9474977993657
 10
589.0116092720637
 20
251.0173232479653
 10
563.8968725623148
 20
265.517323247965
  0
LWPOLYLINE
  5
110
330
83
100
AcDbEntity
  8
センサー
100
AcDbPolyline
 90
        5
 70
     0
 43
0.0
 10
595.1969047967406
 20
227.8639984492028
 10
597.6129323867852
 20
226.4691042697209
 10
594.7379323867852
 20
221.4894581979604
 10
595.5279958962464
 20
217.8578883375532
 10
617.6116436927495
 20
205.1078883375532
  0
LWPOLYLINE
  5
111
330
83
100
AcDbEntity
  8
センサー
100
AcDbPolyline
 90
        6
 70
     0
 43
0.0
 10
617.6116436927495
 20
205.1078883375532
 10
627.6116436927495
 20
222.428396413242
 10
605.5279958962464
 20
235.178396413242
 10
601.987932386785
 20
234.0468265528345
 10
599.1129323867852
 20
229.0671804810743
 10
596.6969047967406
 20
230.4620746605561
  0
ARC
  5
112
330
83
100
AcDbEntity
  8
センサー
  6
ACAD_ISO02W100
370
    13
100
AcDbCircle
 10
578.4135330607102
 20
238.6609167874139
 30
0.0
 40
3.25
100
AcDbArc
 50
148.2142324120294
 51
153.5056023978734
  0
ARC
  5
113
330
83
100
AcDbEntity
  8
センサー
  6
ACAD_ISO02W100
370
    13
100
AcDbCircle
 10
578.4135330607102
 20
238.6609167874139
 30
0.0
 40
3.25
100
AcDbArc
 50
104.2225778314458
 51
108.5526606982882
  0
ARC
  5
114
330
83
100
AcDbEntity
  8
センサー
  6
ACAD_ISO02W100
370
    13
100
AcDbCircle
 10
578.4135330607102
 20
238.6609167874139
 30
0.0
 40
3.25
100
AcDbArc
 50
45.84092608441129
 51
48.91979909022473
  0
ARC
  5
115
330
83
100
AcDbEntity
  8
センサー
  6
ACAD_ISO02W100
370
    13
100
AcDbCircle
 10
578.4135330607102
 20
238.6609167874139
 30
0.0
 40
3.25
100
AcDbArc
 50
233.7578930370133
 51
241.6053755614026
  0
ARC
  5
116
330
83
100
AcDbEntity
  8
センサー
  6
ACAD_ISO02W100
370
    13
100
AcDbCircle
 10
691.0585276307529
 20
238.6609167874139
 30
0.0
 40
3.25
100
AcDbArc
 50
102.6568664098733
 51
117.4720223443478
  0
ARC
  5
117
330
83
100
AcDbEntity
  8
センサー
  6
ACAD_ISO02W100
370
    13
100
AcDbCircle
 10
691.0585276307529
 20
238.6609167874139
 30
0.0
 40
3.25
100
AcDbArc
 50
131.0802009097753
 51
137.3431335901275
  0
LWPOLYLINE
  5
118
330
83
100
AcDbEntity
  8
View_0_PV
100
AcDbPolyline
 90
        5
 70
     1
 43
0.0
 10
392.5012574250502
 20
221.4995256193509
 10
395.7012574250502
 20
221.4995256193509
 10
395.7012574250502
 20
261.6595256193509
 10
392.5012574250502
 20
261.6595256193509
 10
392.5012574250502
 20
221.4995256193509
  0
LINE
  5
119
330
83
100
AcDbEntity
  8
View_0_PV
 62
     7
370
    18
100
AcDbLine
 10
386.5135035707343
 20
233.1537260563459
 30
0.0
 11
386.5102790000002
 21
225.4899999999998
 31
0.0
  0
LINE
  5
11A
330
83
100
AcDbEntity
  8
新しいレイヤ 2
370
    18
100
AcDbLine
 10
386.5102790000002
 20
225.4899999999998
 30
0.0
 11
392.3935340883124
 21
225.4911784655616
 31
0.0
  0
LINE
  5
11B
330
83
100
AcDbEntity
  8
新しいレイヤ 2
370
    18
100
AcDbLine
 10
392.5135340883124
 20
221.9512620633122
 30
0.0
 11
392.4884289447103
 21
235.9354100088058
 31
0.0
  0
LINE
  5
11C
330
83
100
AcDbEntity
  8
新しいレイヤ 2
370
    18
100
AcDbLine
 10
278.3902790000002
 20
225.49
 30
0.0
 11
284.3902790000002
 21
225.49
 31
0.0
  0
LINE
  5
11D
330
83
100
AcDbEntity
  8
新しいレイヤ 2
370
    18
100
AcDbLine
 10
278.3950634005849
 20
235.9322938806528
 30
0.0
 11
278.3950634005849
 21
225.49
 31
0.0
  0
LINE
  5
11E
330
83
100
AcDbEntity
  8
新しいレイヤ 2
  6
Continuous
370
    18
100
AcDbLine
 10
286.3950634005849
 20
235.1532617368562
 30
0.0
 11
384.5134941062644
 21
235.1537260563235
 31
0.0
  0
LINE
  5
11F
330
83
100
AcDbEntity
  8
新しいレイヤ 2
370
    18
100
AcDbLine
 10
280.3950634005849
 20
238.2706215354778
 30
0.0
 11
390.4884321676512
 21
238.2706215354778
 31
0.0
  0
LINE
  5
120
330
83
100
AcDbEntity
  8
新しいレイヤ 2
370
    18
100
AcDbLine
 10
392.5135340883124
 20
225.4472990496856
 30
0.0
 11
392.5012626357559
 21
263.6446324211055
 31
0.0
  0
LINE
  5
121
330
83
100
AcDbEntity
  8
新しいレイヤ 2
370
    18
100
AcDbLine
 10
390.5135121865563
 20
265.6446324210869
 30
0.0
 11
280.3950634005849
 21
265.6451068017549
 31
0.0
  0
LINE
  5
122
330
83
100
AcDbEntity
  8
新しいレイヤ 2
370
    18
100
AcDbLine
 10
278.3950634005849
 20
263.6451068017549
 30
0.0
 11
278.3950634005849
 21
235.9322938806528
 31
0.0
  0
ARC
  5
123
330
83
100
AcDbEntity
  8
新しいレイヤ 2
370
    18
100
AcDbCircle
 10
390.5135035707309
 20
263.6446324211055
 30
0.0
 40
2.0
100
AcDbArc
 50
0.0
 51
90.0
  0
ARC
  5
124
330
83
100
AcDbEntity
  8
新しいレイヤ 2
370
    18
100
AcDbCircle
 10
390.4884321676512
 20
236.2706215354778
 30
0.0
 40
2.0
100
AcDbArc
 50
359.5698588415644
 51
90.0
  0
ARC
  5
125
330
83
100
AcDbEntity
  8
新しいレイヤ 2
370
    18
100
AcDbCircle
 10
280.3950634005849
 20
263.6451068017549
 30
0.0
 40
2.0
100
AcDbArc
 50
90.0
 51
180.0
  0
ARC
  5
126
330
83
100
AcDbEntity
  8
新しいレイヤ 2
370
    18
100
AcDbCircle
 10
384.5135035707343
 20
233.1537260563459
 30
0.0
 40
2.0
100
AcDbArc
 50
0.0
 51
90.0
  0
ARC
  5
127
330
83
100
AcDbEntity
  8
新しいレイヤ 2
370
    18
100
AcDbCircle
 10
280.3950634005849
 20
236.2706215354778
 30
0.0
 40
2.0
100
AcDbArc
 50
90.0
 51
180.0
  0
ARC
  5
128
330
83
100
AcDbEntity
  8
新しいレイヤ 2
370
    18
100
AcDbCircle
 10
286.3950634005849
 20
233.1532617368562
 30
0.0
 40
2.0
100
AcDbArc
 50
90.0
 51
157.2761518977272
  0
LWPOLYLINE
  5
129
330
83
100
AcDbEntity
  8
AM_4
370
    13
100
AcDbPolyline
 90
        5
 70
     1
 43
0.0
 10
402.4302790000003
 20
213.7
 10
404.7302790000002
 20
213.7
 10
404.7302790000002
 20
237.7
 10
402.4302790000003
 20
237.7
 10
402.4302790000003
 20
213.7
  0
LWPOLYLINE
  5
12A
330
83
100
AcDbEntity
  8
AM_4
370
    13
100
AcDbPolyline
 90
        2
 70
     0
 43
0.0
 10
384.6302790000002
 20
235.1503140206289
 10
384.6302790000002
 20
176.5975672125862
  0
LWPOLYLINE
  5
12B
330
83
100
AcDbEntity
  8
AM_4
370
    13
100
AcDbPolyline
 90
        3
 70
     0
 43
0.0
 10
384.6302790000002
 20
176.5975672125862
 10
394.6302790000002
 20
176.5975672125862
 10
394.6302790000002
 20
221.4995256193509
  0
LWPOLYLINE
  5
12C
330
83
100
AcDbEntity
  8
AM_4
370
    13
100
AcDbPolyline
 90
        2
 70
     0
 43
0.0
 10
392.5099519014245
 20
236.5975672125862
 10
392.4615278379673
 20
236.5975672125862
  0
LWPOLYLINE
  5
12D
330
83
100
AcDbEntity
  8
AM_4
370
    13
100
AcDbPolyline
 90
        2
 70
     0
 43
0.0
 10
394.7302790000002
 20
221.4995256193509
 10
394.7302790000002
 20
176.5975672125862
  0
LWPOLYLINE
  5
12E
330
83
100
AcDbEntity
  8
AM_4
370
    13
100
AcDbPolyline
 90
        3
 70
     0
 43
0.0
 10
394.7302790000002
 20
176.5975672125862
 10
404.7302790000002
 20
176.5975672125862
 10
404.7302790000002
 20
236.5975672125862
  0
LWPOLYLINE
  5
12F
330
83
100
AcDbEntity
  8
AM_4
370
    13
100
AcDbPolyline
 90
        2
 70
     0
 43
0.0
 10
395.7012574250502
 20
228.3
 10
402.4302790000003
 20
228.3
  0
LWPOLYLINE
  5
130
330
83
100
AcDbEntity
  8
AM_4
370
    13
100
AcDbPolyline
 90
        5
 70
     0
 43
0.0
 10
404.7302790000002
 20
228.3
 10
409.4499849999999
 20
228.3
 10
409.4499849999999
 20
247.5
 10
395.7499849999998
 20
247.5
 10
395.7499849999998
 20
228.3
  0
LINE
  5
131
330
83
100
AcDbEntity
  8
新しいレイヤ 2
100
AcDbLine
 10
627.6116436927495
 20
222.428396413242
 30
0.0
 11
630.7359993457316
 21
220.6245488359487
 31
0.0
  0
ENDBLK
  5
85
330
83
100
AcDbEntity
  8
0
100
AcDbBlockEnd
  0
ENDSEC
  0
SECTION
  2
ENTITIES
  0
INSERT
  5
132
330
1F
100
AcDbEntity
  8
0
100
AcDbBlockReference
  2
用紙 1
 10
-66.40216300563233
 20
-62.5181443753976
 30
0.0
  0
LWPOLYLINE
  5
133
330
1F
100
AcDbEntity
  8
センサー
100
AcDbPolyline
 90
        5
 70
     0
 43
0.0
 10
611.6362605633268
 20
174.330101057638
 10
602.9760065254823
 20
169.330101057638
 10
601.8510065254823
 20
171.278658216153
 10
598.3109430160213
 20
172.4102280765602
 10
588.5978369943676
 20
166.8023637002911
  0
LWPOLYLINE
  5
134
330
1F
100
AcDbEntity
  8
センサー
100
AcDbPolyline
 90
        5
 70
     0
 43
0.0
 10
598.5978369943676
 20
149.4818556246024
 10
608.3109430160212
 20
155.0897200008715
 10
609.101006525482
 20
158.721289861279
 10
607.976006525482
 20
160.6698470197938
 10
616.6362605633267
 20
165.6698470197939
  0
LINE
  5
135
330
1F
100
AcDbEntity
  8
減速機
100
AcDbLine
 10
612.6052547882716
 20
172.6517538277927
 30
0.0
 11
611.6362605633268
 21
174.330101057638
 31
0.0
  0
LINE
  5
136
330
1F
100
AcDbEntity
  8
減速機
100
AcDbLine
 10
616.6362605633267
 20
165.6698470197939
 30
0.0
 11
615.8052499882717
 21
167.109199557416
 31
0.0
  0
LINE
  5
137
330
1F
100
AcDbEntity
  8
減速機
100
AcDbLine
 10
614.2052549882717
 20
169.8804721892724
 30
0.0
 11
614.1362605633268
 21
169.9999740387159
 31
0.0
  0
POINT
  5
138
330
1F
100
AcDbEntity
  8
2d ConnectionPoints
100
AcDbPoint
 10
76.5889634248334
 20
205.0322662984776
 30
0.0
  0
POINT
  5
139
330
1F
100
AcDbEntity
  8
2d ConnectionPoints
100
AcDbPoint
 10
73.19900999999999
 20
150.4342028421591
 30
0.0
  0
POINT
  5
13A
330
1F
100
AcDbEntity
  8
2d ConnectionPoints
100
AcDbPoint
 10
117.39781
 20
212.4165028421592
 30
0.0
  0
POINT
  5
13B
330
1F
100
AcDbEntity
  8
2d ConnectionPoints
100
AcDbPoint
 10
117.39781
 20
212.4165028421592
 30
0.0
  0
POINT
  5
13C
330
1F
100
AcDbEntity
  8
2d ConnectionPoints
100
AcDbPoint
 10
107.19901
 20
150.4342028421591
 30
0.0
  0
POINT
  5
13D
330
1F
100
AcDbEntity
  8
2d ConnectionPoints
100
AcDbPoint
 10
107.19901
 20
150.4342028421591
 30
0.0
  0
POINT
  5
13E
330
1F
100
AcDbEntity
  8
2d ConnectionPoints
100
AcDbPoint
 10
73.19900999999999
 20
150.4342028421591
 30
0.0
  0
POINT
  5
13F
330
1F
100
AcDbEntity
  8
2d ConnectionPoints
100
AcDbPoint
 10
149.19901
 20
120.4342028421592
 30
0.0
  0
LINE
  5
140
330
1F
100
AcDbEntity
  8
AM_9
100
AcDbLine
 10
73.29901000000001
 20
107.4492028421591
 30
0.0
 11
73.19901000000002
 21
107.4492028421591
 31
0.0
  0
LINE
  5
141
330
1F
100
AcDbEntity
  8
AM_9
100
AcDbLine
 10
73.29901000000001
 20
104.2642028421592
 30
0.0
 11
73.19901000000002
 21
104.2642028421592
 31
0.0
  0
LINE
  5
142
330
1F
100
AcDbEntity
  8
AM_9
100
AcDbLine
 10
73.29901000000001
 20
146.4042028421592
 30
0.0
 11
73.19901000000002
 21
146.4042028421592
 31
0.0
  0
LINE
  5
143
330
1F
100
AcDbEntity
  8
AM_9
100
AcDbLine
 10
73.29901000000001
 20
143.2192028421591
 30
0.0
 11
73.19901000000002
 21
143.2192028421591
 31
0.0
  0
LINE
  5
144
330
1F
100
AcDbEntity
  8
AM_9
100
AcDbLine
 10
73.29901000000001
 20
93.93420284215915
 30
0.0
 11
74.19901000000002
 21
93.93420284215915
 31
0.0
  0
LINE
  5
145
330
1F
100
AcDbEntity
  8
AM_9
100
AcDbLine
 10
70.69901000000002
 20
93.93420284215915
 30
0.0
 11
73.19901000000002
 21
93.93420284215915
 31
0.0
  0
LINE
  5
146
330
1F
100
AcDbEntity
  8
AM_9
100
AcDbLine
 10
70.69901000000002
 20
136.9342028421592
 30
0.0
 11
73.19901000000002
 21
136.9342028421592
 31
0.0
  0
LINE
  5
147
330
1F
100
AcDbEntity
  8
AM_9
100
AcDbLine
 10
73.29901000000001
 20
136.9342028421592
 30
0.0
 11
74.19901000000002
 21
136.9342028421592
 31
0.0
  0
LINE
  5
148
330
1F
100
AcDbEntity
  8
AM_9
100
AcDbLine
 10
53.17921000000001
 20
96.73740191216467
 30
0.0
 11
53.17921000000001
 21
96.13013455554989
 31
0.0
  0
LINE
  5
149
330
1F
100
AcDbEntity
  8
AM_9
100
AcDbLine
 10
53.17921000000001
 20
144.7382711287683
 30
0.0
 11
53.17921000000001
 21
144.1310037721537
 31
0.0
  0
LINE
  5
14A
330
1F
100
AcDbEntity
  8
AM_7
100
AcDbLine
 10
145.32401
 20
136.9342028421592
 30
0.0
 11
149.17401
 21
136.9342028421592
 31
0.0
  0
LINE
  5
14B
330
1F
100
AcDbEntity
  8
AM_7
100
AcDbLine
 10
147.69901
 20
120.4342028421592
 30
0.0
 11
180.69901
 21
120.4342028421592
 31
0.0
  0
LINE
  5
14C
330
1F
100
AcDbEntity
  8
AM_7
100
AcDbLine
 10
44.8
 20
120.4342028421592
 30
0.0
 11
53.57822000000002
 21
120.4342028421592
 31
0.0
  0
LINE
  5
14D
330
1F
100
AcDbEntity
  8
AM_7
100
AcDbLine
 10
70.52401000000003
 20
136.9342028421592
 30
0.0
 11
74.37401
 21
136.9342028421592
 31
0.0
  0
LINE
  5
14E
330
1F
100
AcDbEntity
  8
AM_7
100
AcDbLine
 10
70.52401000000003
 20
93.93420284215915
 30
0.0
 11
74.37401
 21
93.93420284215915
 31
0.0
  0
LINE
  5
14F
330
1F
100
AcDbEntity
  8
AM_7
100
AcDbLine
 10
50.68021000000002
 20
146.9342028421592
 30
0.0
 11
53.29821000000001
 21
146.9342028421592
 31
0.0
  0
LINE
  5
150
330
1F
100
AcDbEntity
  8
AM_7
100
AcDbLine
 10
50.68021000000002
 20
103.9342028421592
 30
0.0
 11
53.29821000000001
 21
103.9342028421592
 31
0.0
  0
LINE
  5
151
330
1F
100
AcDbEntity
  8
AM_7
100
AcDbLine
 10
50.68021000000002
 20
93.93420284215915
 30
0.0
 11
53.29821000000001
 21
93.93420284215915
 31
0.0
  0
ARC
  5
152
330
1F
100
AcDbEntity
  8
AM_0
100
AcDbCircle
 10
57.79920999999985
 20
93.93420284215912
 30
0.0
 40
6.999999999999845
100
AcDbArc
 50
162.47322175277
 51
197.52677824723
  0
ARC
  5
153
330
1F
100
AcDbEntity
  8
AM_0
100
AcDbCircle
 10
51.88703690188004
 20
92.06706351745274
 30
0.0
 40
0.80000000000009
100
AcDbArc
 50
197.526778247232
 51
264.9999999999938
  0
ARC
  5
154
330
1F
100
AcDbEntity
  8
AM_0
100
AcDbCircle
 10
51.88703690188004
 20
95.80134216686557
 30
0.0
 40
0.8000000000000844
100
AcDbArc
 50
95.00000000000624
 51
162.473221752768
  0
LINE
  5
155
330
1F
100
AcDbEntity
  8
AM_4
100
AcDbLine
 10
51.12417585696124
 20
96.04226337005358
 30
0.0
 11
51.12417585696124
 21
91.82614231426473
 31
0.0
  0
LINE
  5
156
330
1F
100
AcDbEntity
  8
AM_0
100
AcDbLine
 10
51.81731230768182
 20
91.27010775897926
 30
0.0
 11
52.79921
 21
91.18420284215915
 31
0.0
  0
LINE
  5
157
330
1F
100
AcDbEntity
  8
AM_0
100
AcDbLine
 10
51.99295921545787
 20
96.61366503855285
 30
0.0
 11
51.81731230768182
 21
96.59829792533904
 31
0.0
  0
LINE
  5
158
330
1F
100
AcDbEntity
  8
AM_4
100
AcDbLine
 10
51.81731230768182
 20
96.59829792533904
 30
0.0
 11
51.81731230768182
 21
91.27010775897926
 31
0.0
  0
LINE
  5
159
330
1F
100
AcDbEntity
  8
AM_0
100
AcDbLine
 10
52.79921
 20
90.93420284215915
 30
0.0
 11
53.17921000000001
 21
90.93420284215915
 31
0.0
  0
LINE
  5
15A
330
1F
100
AcDbEntity
  8
AM_0
100
AcDbLine
 10
52.79921
 20
93.77303916186926
 30
0.0
 11
52.79921
 21
90.93420284215915
 31
0.0
  0
LINE
  5
15B
330
1F
100
AcDbEntity
  8
AM_0
100
AcDbLine
 10
50.19901000000002
 20
150.4342028421592
 30
0.0
 11
50.19901000000002
 21
105.0216900546962
 31
0.0
  0
LINE
  5
15C
330
1F
100
AcDbEntity
  8
AM_0
100
AcDbLine
 10
73.29901000000001
 20
91.03420284215915
 30
0.0
 11
73.19901000000002
 21
91.03420284215915
 31
0.0
  0
LINE
  5
15D
330
1F
100
AcDbEntity
  8
AM_0
100
AcDbLine
 10
73.19901000000002
 20
91.18420284215915
 30
0.0
 11
73.19901000000002
 21
90.43420284215915
 31
0.0
  0
LINE
  5
15E
330
1F
100
AcDbEntity
  8
AM_0
100
AcDbLine
 10
53.17921000000001
 20
90.43420284215915
 30
0.0
 11
73.19901000000002
 21
90.43420284215915
 31
0.0
  0
LINE
  5
15F
330
1F
100
AcDbEntity
  8
AM_0
100
AcDbLine
 10
73.29901000000001
 20
91.18420284215915
 30
0.0
 11
73.29901000000001
 21
90.43420284215915
 31
0.0
  0
LINE
  5
160
330
1F
100
AcDbEntity
  8
AM_0
100
AcDbLine
 10
73.29901000000001
 20
90.43420284215915
 30
0.0
 11
78.19901000000002
 21
90.43420284215915
 31
0.0
  0
LINE
  5
161
330
1F
100
AcDbEntity
  8
AM_4
100
AcDbLine
 10
69.19901000000002
 20
93.93420284215915
 30
0.0
 11
70.69901000000002
 21
93.93420284215915
 31
0.0
  0
ARC
  5
162
330
1F
100
AcDbEntity
  8
AM_0
100
AcDbCircle
 10
57.79920999999996
 20
146.9342028421592
 30
0.0
 40
6.999999999999937
100
AcDbArc
 50
162.4732217527703
 51
197.5267782472299
  0
ARC
  5
163
330
1F
100
AcDbEntity
  8
AM_0
100
AcDbCircle
 10
51.88703690187999
 20
145.0670635174527
 30
0.0
 40
0.8000000000000492
100
AcDbArc
 50
197.5267782472329
 51
264.9999999999966
  0
ARC
  5
164
330
1F
100
AcDbEntity
  8
AM_0
100
AcDbCircle
 10
51.88703690187995
 20
148.8013421668657
 30
0.0
 40
0.7999999999999354
100
AcDbArc
 50
95.00000000000102
 51
162.4732217527749
  0
LINE
  5
165
330
1F
100
AcDbEntity
  8
AM_4
100
AcDbLine
 10
51.12417585696124
 20
149.0422633700535
 30
0.0
 11
51.12417585696124
 21
144.8261423142647
 31
0.0
  0
LINE
  5
166
330
1F
100
AcDbEntity
  8
AM_0
100
AcDbLine
 10
70.94901000000002
 20
91.18420284215915
 30
0.0
 11
73.69901000000002
 21
91.18420284215915
 31
0.0
  0
LINE
  5
167
330
1F
100
AcDbEntity
  8
AM_0
100
AcDbLine
 10
73.69901000000002
 20
96.68420284215915
 30
0.0
 11
70.94901000000002
 21
96.68420284215915
 31
0.0
  0
LINE
  5
168
330
1F
100
AcDbEntity
  8
AM_0
100
AcDbLine
 10
70.69901000000002
 20
91.43420284215915
 30
0.0
 11
70.94901000000002
 21
91.18420284215915
 31
0.0
  0
LINE
  5
169
330
1F
100
AcDbEntity
  8
AM_0
100
AcDbLine
 10
70.94901000000002
 20
96.68420284215915
 30
0.0
 11
70.69901000000002
 21
96.43420284215915
 31
0.0
  0
LINE
  5
16A
330
1F
100
AcDbEntity
  8
AM_0
100
AcDbLine
 10
70.94901000000002
 20
96.68420284215915
 30
0.0
 11
70.94901000000002
 21
91.18420284215915
 31
0.0
  0
LINE
  5
16B
330
1F
100
AcDbEntity
  8
AM_0
100
AcDbLine
 10
70.69901000000002
 20
96.43420284215915
 30
0.0
 11
70.69901000000002
 21
91.43420284215915
 31
0.0
  0
LINE
  5
16C
330
1F
100
AcDbEntity
  8
AM_0
100
AcDbLine
 10
51.81731230768182
 20
144.2701077589793
 30
0.0
 11
52.79921
 21
144.1842028421592
 31
0.0
  0
LINE
  5
16D
330
1F
100
AcDbEntity
  8
AM_0
100
AcDbLine
 10
52.79921
 20
149.6842028421592
 30
0.0
 11
51.81731230768182
 21
149.598297925339
 31
0.0
  0
LINE
  5
16E
330
1F
100
AcDbEntity
  8
AM_4
100
AcDbLine
 10
51.81731230768182
 20
149.598297925339
 30
0.0
 11
51.81731230768182
 21
144.2701077589793
 31
0.0
  0
LINE
  5
16F
330
1F
100
AcDbEntity
  8
AM_0
100
AcDbLine
 10
73.69901000000002
 20
90.93420284215915
 30
0.0
 11
74.19901000000002
 21
90.93420284215915
 31
0.0
  0
LINE
  5
170
330
1F
100
AcDbEntity
  8
AM_0
100
AcDbLine
 10
74.19901000000002
 20
96.93420284215915
 30
0.0
 11
73.69901000000002
 21
96.93420284215915
 31
0.0
  0
LINE
  5
171
330
1F
100
AcDbEntity
  8
AM_0
100
AcDbLine
 10
73.69901000000002
 20
96.93420284215915
 30
0.0
 11
73.69901000000002
 21
90.93420284215915
 31
0.0
  0
LINE
  5
172
330
1F
100
AcDbEntity
  8
AM_0
100
AcDbLine
 10
52.79921
 20
143.9342028421592
 30
0.0
 11
53.17921000000001
 21
143.9342028421592
 31
0.0
  0
LINE
  5
173
330
1F
100
AcDbEntity
  8
AM_0
100
AcDbLine
 10
53.17921000000001
 20
149.9342028421592
 30
0.0
 11
52.79921
 21
149.9342028421592
 31
0.0
  0
LINE
  5
174
330
1F
100
AcDbEntity
  8
AM_0
100
AcDbLine
 10
52.79921
 20
149.9342028421592
 30
0.0
 11
52.79921
 21
143.9342028421592
 31
0.0
  0
LWPOLYLINE
  5
175
330
1F
100
AcDbEntity
  8
AM_0
100
AcDbPolyline
 90
        5
 70
     0
 43
0.0
 10
50.7689849397605
 20
136.2286970708508
 10
50.50739746411335
 20
134.8867219969706
 10
50.33019263801023
 20
133.5253559972273
 10
50.22998008289505
 20
132.1418107912239
 10
50.19901000000002
 20
130.7513269774844
  0
ARC
  5
176
330
1F
100
AcDbEntity
  8
AM_0
100
AcDbCircle
 10
65.19901000000195
 20
105.0216900546964
 30
0.0
 40
15.00000000000193
100
AcDbArc
 50
180.000000000001
 51
195.8454569755333
  0
LINE
  5
177
330
1F
100
AcDbEntity
  8
AM_0
100
AcDbLine
 10
141.39901
 20
149.8342028421592
 30
0.0
 11
141.49901
 21
149.8342028421592
 31
0.0
  0
LINE
  5
178
330
1F
100
AcDbEntity
  8
AM_0
100
AcDbLine
 10
78.29901000000001
 20
91.03420284215915
 30
0.0
 11
78.19901000000002
 21
91.03420284215915
 31
0.0
  0
LINE
  5
179
330
1F
100
AcDbEntity
  8
AM_4
100
AcDbLine
 10
78.29901000000001
 20
147.8742028421591
 30
0.0
 11
78.19901000000002
 21
147.8742028421591
 31
0.0
  0
LINE
  5
17A
330
1F
100
AcDbEntity
  8
AM_0
100
AcDbLine
 10
78.29901000000001
 20
149.8342028421592
 30
0.0
 11
78.19901000000002
 21
149.8342028421592
 31
0.0
  0
LINE
  5
17B
330
1F
100
AcDbEntity
  8
AM_4
100
AcDbLine
 10
141.39901
 20
147.8742028421591
 30
0.0
 11
141.49901
 21
147.8742028421591
 31
0.0
  0
LINE
  5
17C
330
1F
100
AcDbEntity
  8
AM_4
100
AcDbLine
 10
73.29901000000001
 20
147.8742028421591
 30
0.0
 11
73.19901000000002
 21
147.8742028421591
 31
0.0
  0
LINE
  5
17D
330
1F
100
AcDbEntity
  8
AM_0
100
AcDbLine
 10
73.29901000000001
 20
149.8342028421592
 30
0.0
 11
73.19901000000002
 21
149.8342028421592
 31
0.0
  0
LINE
  5
17E
330
1F
100
AcDbEntity
  8
AM_4
100
AcDbLine
 10
141.39901
 20
92.99420284215915
 30
0.0
 11
141.49901
 21
92.99420284215915
 31
0.0
  0
LINE
  5
17F
330
1F
100
AcDbEntity
  8
AM_0
100
AcDbLine
 10
141.39901
 20
91.03420284215915
 30
0.0
 11
141.49901
 21
91.03420284215915
 31
0.0
  0
LINE
  5
180
330
1F
100
AcDbEntity
  8
AM_4
100
AcDbLine
 10
78.29901000000001
 20
92.99420284215915
 30
0.0
 11
78.19901000000002
 21
92.99420284215915
 31
0.0
  0
LINE
  5
181
330
1F
100
AcDbEntity
  8
AM_0
100
AcDbLine
 10
78.19901000000002
 20
150.4342028421592
 30
0.0
 11
73.29901000000001
 21
150.4342028421592
 31
0.0
  0
LINE
  5
182
330
1F
100
AcDbEntity
  8
AM_0
100
AcDbLine
 10
149.19901
 20
150.4342028421592
 30
0.0
 11
141.49901
 21
150.4342028421592
 31
0.0
  0
LINE
  5
183
330
1F
100
AcDbEntity
  8
AM_4
100
AcDbLine
 10
142.69901
 20
148.4342028421592
 30
0.0
 11
141.49901
 21
148.4342028421592
 31
0.0
  0
LINE
  5
184
330
1F
100
AcDbEntity
  8
AM_0
100
AcDbLine
 10
69.19901000000002
 20
97.18420284215915
 30
0.0
 11
69.19901000000002
 21
90.43420284215915
 31
0.0
  0
LINE
  5
185
330
1F
100
AcDbEntity
  8
AM_0
100
AcDbLine
 10
141.39901
 20
90.43420284215915
 30
0.0
 11
78.29901000000001
 21
90.43420284215915
 31
0.0
  0
LINE
  5
186
330
1F
100
AcDbEntity
  8
AM_4
100
AcDbLine
 10
78.19901000000002
 20
148.4342028421592
 30
0.0
 11
73.29901000000001
 21
148.4342028421592
 31
0.0
  0
LINE
  5
187
330
1F
100
AcDbEntity
  8
AM_4
100
AcDbLine
 10
141.39901
 20
92.43420284215915
 30
0.0
 11
78.29901000000001
 21
92.43420284215915
 31
0.0
  0
LINE
  5
188
330
1F
100
AcDbEntity
  8
AM_4
100
AcDbLine
 10
73.19901000000002
 20
148.4342028421592
 30
0.0
 11
53.17921000000001
 21
148.4342028421592
 31
0.0
  0
LINE
  5
189
330
1F
100
AcDbEntity
  8
AM_0
100
AcDbLine
 10
73.19901000000002
 20
150.4342028421592
 30
0.0
 11
50.19901000000002
 21
150.4342028421592
 31
0.0
  0
LINE
  5
18A
330
1F
100
AcDbEntity
  8
AM_0
100
AcDbLine
 10
141.39901
 20
150.4342028421592
 30
0.0
 11
78.29901000000001
 21
150.4342028421592
 31
0.0
  0
LINE
  5
18B
330
1F
100
AcDbEntity
  8
AM_4
100
AcDbLine
 10
69.19901000000002
 20
92.43420284215915
 30
0.0
 11
53.17921000000001
 21
92.43420284215915
 31
0.0
  0
LINE
  5
18C
330
1F
100
AcDbEntity
  8
AM_0
100
AcDbLine
 10
74.19901000000002
 20
97.18420284215915
 30
0.0
 11
74.19901000000002
 21
90.43420284215915
 31
0.0
  0
LINE
  5
18D
330
1F
100
AcDbEntity
  8
AM_4
100
AcDbLine
 10
78.19901000000002
 20
92.43420284215915
 30
0.0
 11
74.19901000000002
 21
92.43420284215915
 31
0.0
  0
LINE
  5
18E
330
1F
100
AcDbEntity
  8
AM_4
100
AcDbLine
 10
141.39901
 20
148.4342028421592
 30
0.0
 11
78.29901000000001
 21
148.4342028421592
 31
0.0
  0
LINE
  5
18F
330
1F
100
AcDbEntity
  8
AM_0
100
AcDbLine
 10
149.19901
 20
90.43420284215915
 30
0.0
 11
141.49901
 21
90.43420284215915
 31
0.0
  0
LINE
  5
190
330
1F
100
AcDbEntity
  8
AM_4
100
AcDbLine
 10
142.69901
 20
92.43420284215915
 30
0.0
 11
141.49901
 21
92.43420284215915
 31
0.0
  0
LINE
  5
191
330
1F
100
AcDbEntity
  8
AM_4
100
AcDbLine
 10
73.29901000000001
 20
143.9542028421592
 30
0.0
 11
73.19901000000002
 21
143.9542028421592
 31
0.0
  0
LINE
  5
192
330
1F
100
AcDbEntity
  8
AM_0
100
AcDbLine
 10
73.29901000000001
 20
140.1037255990113
 30
0.0
 11
73.19901000000002
 21
140.1037255990113
 31
0.0
  0
LINE
  5
193
330
1F
100
AcDbEntity
  8
AM_0
100
AcDbLine
 10
73.19901000000002
 20
150.4342028421592
 30
0.0
 11
73.19901000000002
 21
139.6842028421592
 31
0.0
  0
LINE
  5
194
330
1F
100
AcDbEntity
  8
AM_0
100
AcDbLine
 10
73.29901000000001
 20
150.4342028421592
 30
0.0
 11
73.29901000000001
 21
139.6842028421592
 31
0.0
  0
LINE
  5
195
330
1F
100
AcDbEntity
  8
AM_4
100
AcDbLine
 10
141.39901
 20
96.91420284215914
 30
0.0
 11
141.49901
 21
96.91420284215914
 31
0.0
  0
LINE
  5
196
330
1F
100
AcDbEntity
  8
AM_4
100
AcDbLine
 10
78.29901000000001
 20
143.9542028421592
 30
0.0
 11
78.19901000000002
 21
143.9542028421592
 31
0.0
  0
LINE
  5
197
330
1F
100
AcDbEntity
  8
AM_0
100
AcDbLine
 10
73.29901000000001
 20
97.64920284215916
 30
0.0
 11
73.19901000000002
 21
97.64920284215916
 31
0.0
  0
LINE
  5
198
330
1F
100
AcDbEntity
  8
AM_4
100
AcDbLine
 10
78.29901000000001
 20
96.91420284215914
 30
0.0
 11
78.19901000000002
 21
96.91420284215914
 31
0.0
  0
LINE
  5
199
330
1F
100
AcDbEntity
  8
AM_4
100
AcDbLine
 10
141.39901
 20
143.9542028421592
 30
0.0
 11
141.49901
 21
143.9542028421592
 31
0.0
  0
LINE
  5
19A
330
1F
100
AcDbEntity
  8
AM_4
100
AcDbLine
 10
142.69901
 20
144.4342028421592
 30
0.0
 11
141.49901
 21
144.4342028421592
 31
0.0
  0
LINE
  5
19B
330
1F
100
AcDbEntity
  8
AM_0
100
AcDbLine
 10
69.19901000000002
 20
97.18420284215915
 30
0.0
 11
73.19901000000002
 21
97.18420284215915
 31
0.0
  0
LINE
  5
19C
330
1F
100
AcDbEntity
  8
AM_4
100
AcDbLine
 10
69.19901000000002
 20
96.43420284215915
 30
0.0
 11
53.17921000000001
 21
96.43420284215915
 31
0.0
  0
LINE
  5
19D
330
1F
100
AcDbEntity
  8
AM_0
100
AcDbLine
 10
73.29901000000001
 20
97.18420284215915
 30
0.0
 11
74.19901000000002
 21
97.18420284215915
 31
0.0
  0
LINE
  5
19E
330
1F
100
AcDbEntity
  8
AM_4
100
AcDbLine
 10
78.19901000000002
 20
96.43420284215915
 30
0.0
 11
74.19901000000002
 21
96.43420284215915
 31
0.0
  0
LINE
  5
19F
330
1F
100
AcDbEntity
  8
AM_0
100
AcDbLine
 10
74.19901000000002
 20
133.6842028421592
 30
0.0
 11
74.19901000000002
 21
140.5051444307838
 31
0.0
  0
LINE
  5
1A0
330
1F
100
AcDbEntity
  8
AM_0
100
AcDbLine
 10
73.29901000000001
 20
140.5051444307838
 30
0.0
 11
74.19901000000002
 21
140.5051444307838
 31
0.0
  0
LINE
  5
1A1
330
1F
100
AcDbEntity
  8
AM_4
100
AcDbLine
 10
78.19901000000002
 20
144.4342028421592
 30
0.0
 11
73.29901000000001
 21
144.4342028421592
 31
0.0
  0
LINE
  5
1A2
330
1F
100
AcDbEntity
  8
AM_4
100
AcDbLine
 10
141.39901
 20
144.4342028421592
 30
0.0
 11
78.29901000000001
 21
144.4342028421592
 31
0.0
  0
LINE
  5
1A3
330
1F
100
AcDbEntity
  8
AM_0
100
AcDbLine
 10
69.19901000000002
 20
133.6842028421592
 30
0.0
 11
69.19901000000002
 21
140.5051444307838
 31
0.0
  0
LINE
  5
1A4
330
1F
100
AcDbEntity
  8
AM_0
100
AcDbLine
 10
69.19901000000002
 20
140.5051444307838
 30
0.0
 11
73.19901000000002
 21
140.5051444307838
 31
0.0
  0
LINE
  5
1A5
330
1F
100
AcDbEntity
  8
AM_4
100
AcDbLine
 10
73.19901000000002
 20
144.4342028421592
 30
0.0
 11
53.17921000000001
 21
144.4342028421592
 31
0.0
  0
LINE
  5
1A6
330
1F
100
AcDbEntity
  8
AM_4
100
AcDbLine
 10
141.39901
 20
96.43420284215915
 30
0.0
 11
78.29901000000001
 21
96.43420284215915
 31
0.0
  0
LINE
  5
1A7
330
1F
100
AcDbEntity
  8
AM_4
100
AcDbLine
 10
142.69901
 20
96.43420284215915
 30
0.0
 11
141.49901
 21
96.43420284215915
 31
0.0
  0
LINE
  5
1A8
330
1F
100
AcDbEntity
  8
AM_4
100
AcDbLine
 10
69.19901000000002
 20
136.9342028421592
 30
0.0
 11
70.69901000000002
 21
136.9342028421592
 31
0.0
  0
LINE
  5
1A9
330
1F
100
AcDbEntity
  8
AM_0
100
AcDbLine
 10
52.71746901370425
 20
144.1921818745966
 30
0.0
 11
50.7689849397605
 21
136.2286970708508
 31
0.0
  0
LINE
  5
1AA
330
1F
100
AcDbEntity
  8
AM_4
100
AcDbLine
 10
50.7689849397605
 20
136.2286970708508
 30
0.0
 11
50.7689849397605
 21
100.9260366561699
 31
0.0
  0
LINE
  5
1AB
330
1F
100
AcDbEntity
  8
AM_0
100
AcDbLine
 10
50.7689849397605
 20
100.9260366561699
 30
0.0
 11
53.10321334136528
 21
92.70195833362439
 31
0.0
  0
LINE
  5
1AC
330
1F
100
AcDbEntity
  8
AM_4
100
AcDbLine
 10
53.10321334136528
 20
100.9342028421592
 30
0.0
 11
53.10321334136528
 21
92.70195833362439
 31
0.0
  0
LINE
  5
1AD
330
1F
100
AcDbEntity
  8
AM_4
100
AcDbLine
 10
53.10321334136528
 20
143.9342028421592
 30
0.0
 11
53.10321334136528
 21
106.9342028421592
 31
0.0
  0
ARC
  5
1AE
330
1F
100
AcDbEntity
  8
AM_0
100
AcDbCircle
 10
51.17921000000005
 20
92.15587121382089
 30
0.0
 40
1.999999999999957
100
AcDbArc
 50
0.0000000000004071
 51
15.84545697553477
  0
ARC
  5
1AF
330
1F
100
AcDbEntity
  8
AM_0
100
AcDbCircle
 10
57.79920999999985
 20
103.9342028421592
 30
0.0
 40
6.999999999999829
100
AcDbArc
 50
162.4732207770288
 51
197.5267792229714
  0
ARC
  5
1B0
330
1F
100
AcDbEntity
  8
AM_0
100
AcDbCircle
 10
51.88703690187997
 20
102.0670635174527
 30
0.0
 40
0.8000000000000178
100
AcDbArc
 50
197.5267867849673
 51
264.9999999999985
  0
ARC
  5
1B1
330
1F
100
AcDbEntity
  8
AM_0
100
AcDbCircle
 10
51.88703690187997
 20
105.8013421668656
 30
0.0
 40
0.8000000000000216
100
AcDbArc
 50
95.00000000000146
 51
162.4732132150327
  0
LINE
  5
1B2
330
1F
100
AcDbEntity
  8
AM_4
100
AcDbLine
 10
51.1241758928613
 20
106.0422634837287
 30
0.0
 11
51.1241758928613
 21
101.8261422005896
 31
0.0
  0
LINE
  5
1B3
330
1F
100
AcDbEntity
  8
AM_0
100
AcDbLine
 10
70.94901000000002
 20
134.1842028421592
 30
0.0
 11
73.69901000000002
 21
134.1842028421592
 31
0.0
  0
LINE
  5
1B4
330
1F
100
AcDbEntity
  8
AM_0
100
AcDbLine
 10
73.69901000000002
 20
139.6842028421592
 30
0.0
 11
70.94901000000002
 21
139.6842028421592
 31
0.0
  0
LINE
  5
1B5
330
1F
100
AcDbEntity
  8
AM_0
100
AcDbLine
 10
51.81731230768182
 20
101.2701077589793
 30
0.0
 11
52.79921
 21
101.1842028421592
 31
0.0
  0
LINE
  5
1B6
330
1F
100
AcDbEntity
  8
AM_0
100
AcDbLine
 10
52.79921
 20
106.6842028421592
 30
0.0
 11
51.81731230768182
 21
106.598297925339
 31
0.0
  0
LINE
  5
1B7
330
1F
100
AcDbEntity
  8
AM_4
100
AcDbLine
 10
51.81731230768182
 20
106.598297925339
 30
0.0
 11
51.81731230768182
 21
101.2701077589793
 31
0.0
  0
LINE
  5
1B8
330
1F
100
AcDbEntity
  8
AM_0
100
AcDbLine
 10
148.99901
 20
139.4342028421592
 30
0.0
 11
148.74901
 21
139.6842028421592
 31
0.0
  0
LINE
  5
1B9
330
1F
100
AcDbEntity
  8
AM_0
100
AcDbLine
 10
148.74901
 20
134.1842028421592
 30
0.0
 11
148.99901
 21
134.4342028421592
 31
0.0
  0
LINE
  5
1BA
330
1F
100
AcDbEntity
  8
AM_0
100
AcDbLine
 10
148.99901
 20
139.4342028421592
 30
0.0
 11
148.99901
 21
134.4342028421592
 31
0.0
  0
LINE
  5
1BB
330
1F
100
AcDbEntity
  8
AM_0
100
AcDbLine
 10
70.69901000000002
 20
134.4342028421592
 30
0.0
 11
70.94901000000002
 21
134.1842028421592
 31
0.0
  0
LINE
  5
1BC
330
1F
100
AcDbEntity
  8
AM_0
100
AcDbLine
 10
70.94901000000002
 20
139.6842028421592
 30
0.0
 11
70.69901000000002
 21
139.4342028421592
 31
0.0
  0
LINE
  5
1BD
330
1F
100
AcDbEntity
  8
AM_0
100
AcDbLine
 10
70.94901000000002
 20
139.6842028421592
 30
0.0
 11
70.94901000000002
 21
134.1842028421592
 31
0.0
  0
LINE
  5
1BE
330
1F
100
AcDbEntity
  8
AM_0
100
AcDbLine
 10
70.69901000000002
 20
139.4342028421592
 30
0.0
 11
70.69901000000002
 21
134.4342028421592
 31
0.0
  0
LINE
  5
1BF
330
1F
100
AcDbEntity
  8
AM_0
100
AcDbLine
 10
145.99901
 20
134.1842028421592
 30
0.0
 11
148.74901
 21
134.1842028421592
 31
0.0
  0
LINE
  5
1C0
330
1F
100
AcDbEntity
  8
AM_0
100
AcDbLine
 10
148.74901
 20
139.6842028421592
 30
0.0
 11
145.99901
 21
139.6842028421592
 31
0.0
  0
LINE
  5
1C1
330
1F
100
AcDbEntity
  8
AM_0
100
AcDbLine
 10
148.74901
 20
139.6842028421592
 30
0.0
 11
148.74901
 21
134.1842028421592
 31
0.0
  0
LINE
  5
1C2
330
1F
100
AcDbEntity
  8
AM_0
100
AcDbLine
 10
141.39901
 20
140.0342028421591
 30
0.0
 11
141.49901
 21
140.0342028421591
 31
0.0
  0
LINE
  5
1C3
330
1F
100
AcDbEntity
  8
AM_4
100
AcDbLine
 10
78.29901000000001
 20
138.0742028421592
 30
0.0
 11
78.19901000000002
 21
138.0742028421592
 31
0.0
  0
LINE
  5
1C4
330
1F
100
AcDbEntity
  8
AM_0
100
AcDbLine
 10
78.29901000000001
 20
140.0342028421591
 30
0.0
 11
78.19901000000002
 21
140.0342028421591
 31
0.0
  0
LINE
  5
1C5
330
1F
100
AcDbEntity
  8
AM_0
100
AcDbLine
 10
73.29901000000001
 20
100.8342028421592
 30
0.0
 11
73.19901000000002
 21
100.8342028421592
 31
0.0
  0
LINE
  5
1C6
330
1F
100
AcDbEntity
  8
AM_0
100
AcDbLine
 10
73.29901000000001
 20
133.4192028421591
 30
0.0
 11
73.19901000000002
 21
133.4192028421591
 31
0.0
  0
LINE
  5
1C7
330
1F
100
AcDbEntity
  8
AM_4
100
AcDbLine
 10
73.29901000000001
 20
102.7942028421591
 30
0.0
 11
73.19901000000002
 21
102.7942028421591
 31
0.0
  0
LINE
  5
1C8
330
1F
100
AcDbEntity
  8
AM_4
100
AcDbLine
 10
141.39901
 20
138.0742028421592
 30
0.0
 11
141.49901
 21
138.0742028421592
 31
0.0
  0
LINE
  5
1C9
330
1F
100
AcDbEntity
  8
AM_4
100
AcDbLine
 10
141.39901
 20
102.7942028421591
 30
0.0
 11
141.49901
 21
102.7942028421591
 31
0.0
  0
LINE
  5
1CA
330
1F
100
AcDbEntity
  8
AM_0
100
AcDbLine
 10
141.39901
 20
100.8342028421592
 30
0.0
 11
141.49901
 21
100.8342028421592
 31
0.0
  0
LINE
  5
1CB
330
1F
100
AcDbEntity
  8
AM_0
100
AcDbLine
 10
78.29901000000001
 20
100.8342028421592
 30
0.0
 11
78.19901000000002
 21
100.8342028421592
 31
0.0
  0
LINE
  5
1CC
330
1F
100
AcDbEntity
  8
AM_4
100
AcDbLine
 10
78.29901000000001
 20
102.7942028421591
 30
0.0
 11
78.19901000000002
 21
102.7942028421591
 31
0.0
  0
LINE
  5
1CD
330
1F
100
AcDbEntity
  8
AM_0
100
AcDbLine
 10
145.49901
 20
133.9342028421592
 30
0.0
 11
145.99901
 21
133.9342028421592
 31
0.0
  0
LINE
  5
1CE
330
1F
100
AcDbEntity
  8
AM_0
100
AcDbLine
 10
145.99901
 20
139.9342028421592
 30
0.0
 11
145.49901
 21
139.9342028421592
 31
0.0
  0
LINE
  5
1CF
330
1F
100
AcDbEntity
  8
AM_0
100
AcDbLine
 10
145.99901
 20
139.9342028421592
 30
0.0
 11
145.99901
 21
133.9342028421592
 31
0.0
  0
LINE
  5
1D0
330
1F
100
AcDbEntity
  8
AM_0
100
AcDbLine
 10
73.69901000000002
 20
133.9342028421592
 30
0.0
 11
74.19901000000002
 21
133.9342028421592
 31
0.0
  0
LINE
  5
1D1
330
1F
100
AcDbEntity
  8
AM_0
100
AcDbLine
 10
74.19901000000002
 20
139.9342028421592
 30
0.0
 11
73.69901000000002
 21
139.9342028421592
 31
0.0
  0
LINE
  5
1D2
330
1F
100
AcDbEntity
  8
AM_0
100
AcDbLine
 10
73.69901000000002
 20
139.9342028421592
 30
0.0
 11
73.69901000000002
 21
133.9342028421592
 31
0.0
  0
LINE
  5
1D3
330
1F
100
AcDbEntity
  8
AM_0
100
AcDbLine
 10
52.79921
 20
100.9342028421592
 30
0.0
 11
53.17921000000001
 21
100.9342028421592
 31
0.0
  0
LINE
  5
1D4
330
1F
100
AcDbEntity
  8
AM_0
100
AcDbLine
 10
53.17921000000001
 20
106.9342028421592
 30
0.0
 11
52.79921
 21
106.9342028421592
 31
0.0
  0
LINE
  5
1D5
330
1F
100
AcDbEntity
  8
AM_0
100
AcDbLine
 10
52.79921
 20
106.9342028421592
 30
0.0
 11
52.79921
 21
100.9342028421592
 31
0.0
  0
LINE
  5
1D6
330
1F
100
AcDbEntity
  8
AM_0
100
AcDbLine
 10
142.69901
 20
100.4342028421592
 30
0.0
 11
141.49901
 21
100.4342028421592
 31
0.0
  0
LINE
  5
1D7
330
1F
100
AcDbEntity
  8
AM_0
100
AcDbLine
 10
142.69901
 20
90.43420284215915
 30
0.0
 11
142.69901
 21
102.4342028421592
 31
0.0
  0
LINE
  5
1D8
330
1F
100
AcDbEntity
  8
AM_0
100
AcDbLine
 10
69.19901000000002
 20
133.6842028421592
 30
0.0
 11
73.19901000000002
 21
133.6842028421592
 31
0.0
  0
LINE
  5
1D9
330
1F
100
AcDbEntity
  8
AM_0
100
AcDbLine
 10
73.29901000000001
 20
134.1842028421592
 30
0.0
 11
73.29901000000001
 21
96.68420284215915
 31
0.0
  0
LINE
  5
1DA
330
1F
100
AcDbEntity
  8
AM_0
100
AcDbLine
 10
78.19901000000002
 20
100.4342028421592
 30
0.0
 11
73.29901000000001
 21
100.4342028421592
 31
0.0
  0
LINE
  5
1DB
330
1F
100
AcDbEntity
  8
AM_0
100
AcDbLine
 10
145.49901
 20
133.6842028421592
 30
0.0
 11
149.19901
 21
133.6842028421592
 31
0.0
  0
LINE
  5
1DC
330
1F
100
AcDbEntity
  8
AM_0
100
AcDbLine
 10
53.17921000000001
 20
90.43420284215915
 30
0.0
 11
53.17921000000001
 21
150.4342028421592
 31
0.0
  0
LINE
  5
1DD
330
1F
100
AcDbEntity
  8
AM_0
100
AcDbLine
 10
73.19901000000002
 20
134.1842028421592
 30
0.0
 11
73.19901000000002
 21
96.68420284215915
 31
0.0
  0
LINE
  5
1DE
330
1F
100
AcDbEntity
  8
AM_0
100
AcDbLine
 10
73.19901000000002
 20
100.4342028421592
 30
0.0
 11
53.17921000000001
 21
100.4342028421592
 31
0.0
  0
LINE
  5
1DF
330
1F
100
AcDbEntity
  8
AM_4
100
AcDbLine
 10
73.19901000000002
 20
102.4342028421592
 30
0.0
 11
53.17921000000001
 21
102.4342028421592
 31
0.0
  0
LINE
  5
1E0
330
1F
100
AcDbEntity
  8
AM_4
100
AcDbLine
 10
141.39901
 20
102.4342028421592
 30
0.0
 11
78.29901000000001
 21
102.4342028421592
 31
0.0
  0
LINE
  5
1E1
330
1F
100
AcDbEntity
  8
AM_0
100
AcDbLine
 10
141.39901
 20
100.4342028421592
 30
0.0
 11
78.29901000000001
 21
100.4342028421592
 31
0.0
  0
LINE
  5
1E2
330
1F
100
AcDbEntity
  8
AM_0
100
AcDbLine
 10
145.49901
 20
140.1842028421592
 30
0.0
 11
149.19901
 21
140.1842028421592
 31
0.0
  0
LINE
  5
1E3
330
1F
100
AcDbEntity
  8
AM_0
100
AcDbLine
 10
73.29901000000001
 20
133.6842028421592
 30
0.0
 11
74.19901000000002
 21
133.6842028421592
 31
0.0
  0
LINE
  5
1E4
330
1F
100
AcDbEntity
  8
AM_4
100
AcDbLine
 10
78.19901000000002
 20
102.4342028421592
 30
0.0
 11
73.29901000000001
 21
102.4342028421592
 31
0.0
  0
LINE
  5
1E5
330
1F
100
AcDbEntity
  8
AM_0
100
AcDbLine
 10
141.39901
 20
140.4342028421592
 30
0.0
 11
78.29901000000001
 21
140.4342028421592
 31
0.0
  0
LINE
  5
1E6
330
1F
100
AcDbEntity
  8
AM_0
100
AcDbLine
 10
78.29901000000001
 20
150.4342028421592
 30
0.0
 11
78.29901000000001
 21
90.43420284215915
 31
0.0
  0
LINE
  5
1E7
330
1F
100
AcDbEntity
  8
AM_4
100
AcDbLine
 10
141.39901
 20
138.4342028421592
 30
0.0
 11
78.29901000000001
 21
138.4342028421592
 31
0.0
  0
LINE
  5
1E8
330
1F
100
AcDbEntity
  8
AM_0
100
AcDbLine
 10
141.39901
 20
150.4342028421592
 30
0.0
 11
141.39901
 21
90.43420284215915
 31
0.0
  0
LINE
  5
1E9
330
1F
100
AcDbEntity
  8
AM_0
100
AcDbLine
 10
142.69901
 20
138.4342028421592
 30
0.0
 11
142.69901
 21
150.4342028421592
 31
0.0
  0
LINE
  5
1EA
330
1F
100
AcDbEntity
  8
AM_4
100
AcDbLine
 10
142.69901
 20
102.4342028421592
 30
0.0
 11
141.49901
 21
102.4342028421592
 31
0.0
  0
LINE
  5
1EB
330
1F
100
AcDbEntity
  8
AM_4
100
AcDbLine
 10
142.69901
 20
95.43420284215915
 30
0.0
 11
149.19901
 21
95.43420284215915
 31
0.0
  0
LINE
  5
1EC
330
1F
100
AcDbEntity
  8
AM_4
100
AcDbLine
 10
145.49901
 20
133.1842028421592
 30
0.0
 11
149.19901
 21
133.1842028421592
 31
0.0
  0
LINE
  5
1ED
330
1F
100
AcDbEntity
  8
AM_0
100
AcDbLine
 10
145.49901
 20
133.1842028421592
 30
0.0
 11
145.49901
 21
140.6842028421592
 31
0.0
  0
LINE
  5
1EE
330
1F
100
AcDbEntity
  8
AM_4
100
AcDbLine
 10
145.49901
 20
140.6842028421592
 30
0.0
 11
149.19901
 21
140.6842028421592
 31
0.0
  0
LINE
  5
1EF
330
1F
100
AcDbEntity
  8
AM_0
100
AcDbLine
 10
78.19901000000002
 20
140.4342028421592
 30
0.0
 11
74.19901000000002
 21
140.4342028421592
 31
0.0
  0
LINE
  5
1F0
330
1F
100
AcDbEntity
  8
AM_4
100
AcDbLine
 10
78.19901000000002
 20
138.4342028421592
 30
0.0
 11
74.19901000000002
 21
138.4342028421592
 31
0.0
  0
LINE
  5
1F1
330
1F
100
AcDbEntity
  8
AM_0
100
AcDbLine
 10
78.19901000000002
 20
150.4342028421592
 30
0.0
 11
78.19901000000002
 21
90.43420284215915
 31
0.0
  0
LINE
  5
1F2
330
1F
100
AcDbEntity
  8
AM_0
100
AcDbLine
 10
69.19901000000002
 20
140.4342028421592
 30
0.0
 11
53.17921000000001
 21
140.4342028421592
 31
0.0
  0
LINE
  5
1F3
330
1F
100
AcDbEntity
  8
AM_4
100
AcDbLine
 10
69.19901000000002
 20
138.4342028421592
 30
0.0
 11
53.17921000000001
 21
138.4342028421592
 31
0.0
  0
LINE
  5
1F4
330
1F
100
AcDbEntity
  8
AM_0
100
AcDbLine
 10
142.69901
 20
140.4342028421592
 30
0.0
 11
141.49901
 21
140.4342028421592
 31
0.0
  0
LINE
  5
1F5
330
1F
100
AcDbEntity
  8
AM_0
100
AcDbLine
 10
141.49901
 20
150.4342028421592
 30
0.0
 11
141.49901
 21
90.43420284215915
 31
0.0
  0
LINE
  5
1F6
330
1F
100
AcDbEntity
  8
AM_4
100
AcDbLine
 10
142.69901
 20
138.4342028421592
 30
0.0
 11
141.49901
 21
138.4342028421592
 31
0.0
  0
LINE
  5
1F7
330
1F
100
AcDbEntity
  8
AM_0
100
AcDbLine
 10
149.19901
 20
150.4342028421592
 30
0.0
 11
149.19901
 21
90.43420284215915
 31
0.0
  0
LINE
  5
1F8
330
1F
100
AcDbEntity
  8
AM_4
100
AcDbLine
 10
142.69901
 20
145.4342028421592
 30
0.0
 11
149.19901
 21
145.4342028421592
 31
0.0
  0
LINE
  5
1F9
330
1F
100
AcDbEntity
  8
AM_0
100
AcDbLine
 10
69.00436342483334
 20
222.4322662984775
 30
0.0
 11
66.25436342483334
 21
222.4322662984775
 31
0.0
  0
LINE
  5
1FA
330
1F
100
AcDbEntity
  8
AM_0
100
AcDbLine
 10
67.25436342483334
 20
224.4322662984775
 30
0.0
 11
68.25436342483334
 21
224.4322662984775
 31
0.0
  0
LINE
  5
1FB
330
1F
100
AcDbEntity
  8
AM_0
100
AcDbLine
 10
66.25436342483334
 20
223.9322662984775
 30
0.0
 11
67.25436342483334
 21
224.4322662984775
 31
0.0
  0
LINE
  5
1FC
330
1F
100
AcDbEntity
  8
AM_0
100
AcDbLine
 10
69.00436342483334
 20
223.1822662984775
 30
0.0
 11
69.00436342483334
 21
222.4322662984775
 31
0.0
  0
LINE
  5
1FD
330
1F
100
AcDbEntity
  8
AM_0
100
AcDbLine
 10
68.25436342483334
 20
224.4322662984775
 30
0.0
 11
69.00436342483334
 21
223.1822662984775
 31
0.0
  0
LINE
  5
1FE
330
1F
100
AcDbEntity
  8
AM_0
100
AcDbLine
 10
68.00436342483334
 20
218.4473060905243
 30
0.0
 11
68.00436342483334
 21
222.4322662984775
 31
0.0
  0
LINE
  5
1FF
330
1F
100
AcDbEntity
  8
AM_0
100
AcDbLine
 10
69.23810109945225
 20
219.4322662984775
 30
0.0
 11
83.58896342483331
 21
219.4322662984775
 31
0.0
  0
LINE
  5
200
330
1F
100
AcDbEntity
  8
AM_0
100
AcDbLine
 10
66.83896342483334
 20
211.4322662984775
 30
0.0
 11
65.58896342483331
 21
211.4322662984775
 31
0.0
  0
LINE
  5
201
330
1F
100
AcDbEntity
  8
AM_0
100
AcDbLine
 10
65.58896342483331
 20
211.4322662984775
 30
0.0
 11
65.58896342483331
 21
212.4322662984775
 31
0.0
  0
ARC
  5
202
330
1F
100
AcDbEntity
  8
AM_0
100
AcDbCircle
 10
67.78896342483324
 20
219.9822662984778
 30
0.0
 40
1.550000000000143
100
AcDbArc
 50
277.9881183344306
 51
339.2164404041503
  0
LINE
  5
203
330
1F
100
AcDbEntity
  8
AM_0
100
AcDbLine
 10
68.00436342483334
 20
218.7322662984776
 30
0.0
 11
66.25436342483334
 21
218.7322662984776
 31
0.0
  0
LINE
  5
204
330
1F
100
AcDbEntity
  8
AM_0
100
AcDbLine
 10
66.25436342483334
 20
213.8523552661098
 30
0.0
 11
66.25436342483334
 21
223.9322662984775
 31
0.0
  0
LINE
  5
205
330
1F
100
AcDbEntity
  8
AM_0
100
AcDbLine
 10
66.00396342483333
 20
212.4322662984775
 30
0.0
 11
66.25436342483334
 21
213.8523552661098
 31
0.0
  0
LINE
  5
206
330
1F
100
AcDbEntity
  8
AM_0
100
AcDbLine
 10
65.58896342483331
 20
212.4322662984775
 30
0.0
 11
66.00396342483333
 21
212.4322662984775
 31
0.0
  0
LINE
  5
207
330
1F
100
AcDbEntity
  8
AM_0
100
AcDbLine
 10
67.67651658319852
 20
216.1822662984775
 30
0.0
 11
66.83896342483334
 21
211.4322662984775
 31
0.0
  0
LINE
  5
208
330
1F
100
AcDbEntity
  8
AM_0
100
AcDbLine
 10
67.75134499577035
 20
216.413332201171
 30
0.0
 11
67.67651658319852
 21
216.1822662984775
 31
0.0
  0
ARC
  5
209
330
1F
100
AcDbEntity
  8
AM_0
100
AcDbCircle
 10
68.46486342483334
 20
216.1822662984775
 30
0.0
 40
0.7500000000000284
100
AcDbArc
 50
90.0000000000011
 51
162.0559656042441
  0
LINE
  5
20A
330
1F
100
AcDbEntity
  8
AM_0
100
AcDbLine
 10
68.58896342483334
 20
216.9322662984775
 30
0.0
 11
68.46486342483331
 21
216.9322662984775
 31
0.0
  0
ARC
  5
20B
330
1F
100
AcDbEntity
  8
AM_0
100
AcDbCircle
 10
68.58896342483337
 20
216.1822662984776
 30
0.0
 40
0.7499999999999574
100
AcDbArc
 50
0.0
 51
90.00000000000217
  0
LINE
  5
20C
330
1F
100
AcDbEntity
  8
AM_0
100
AcDbLine
 10
69.58896342483331
 20
216.1822662984775
 30
0.0
 11
69.33896342483331
 21
216.1822662984775
 31
0.0
  0
LINE
  5
20D
330
1F
100
AcDbEntity
  8
AM_0
100
AcDbLine
 10
82.45396342483332
 20
228.7322662984776
 30
0.0
 11
82.45396342483332
 21
219.4322662984775
 31
0.0
  0
LINE
  5
20E
330
1F
100
AcDbEntity
  8
AM_0
100
AcDbLine
 10
82.45396342483332
 20
228.7322662984776
 30
0.0
 11
79.00396342483333
 21
228.7322662984776
 31
0.0
  0
LINE
  5
20F
330
1F
100
AcDbEntity
  8
AM_0
100
AcDbLine
 10
79.00396342483333
 20
228.7322662984776
 30
0.0
 11
79.00396342483333
 21
219.4322662984775
 31
0.0
  0
LINE
  5
210
330
1F
100
AcDbEntity
  8
AM_0
100
AcDbLine
 10
74.86396342483332
 20
228.7322662984776
 30
0.0
 11
74.86396342483332
 21
219.4322662984775
 31
0.0
  0
LINE
  5
211
330
1F
100
AcDbEntity
  8
AM_0
100
AcDbLine
 10
78.3139634248333
 20
228.7322662984776
 30
0.0
 11
78.3139634248333
 21
219.4322662984775
 31
0.0
  0
LINE
  5
212
330
1F
100
AcDbEntity
  8
AM_0
100
AcDbLine
 10
78.3139634248333
 20
228.7322662984776
 30
0.0
 11
74.86396342483332
 21
228.7322662984776
 31
0.0
  0
LINE
  5
213
330
1F
100
AcDbEntity
  8
AM_0
100
AcDbLine
 10
74.17396342483329
 20
228.7322662984776
 30
0.0
 11
74.17396342483329
 21
219.4322662984775
 31
0.0
  0
LINE
  5
214
330
1F
100
AcDbEntity
  8
AM_0
100
AcDbLine
 10
74.17396342483329
 20
228.7322662984776
 30
0.0
 11
70.72396342483333
 21
228.7322662984776
 31
0.0
  0
LINE
  5
215
330
1F
100
AcDbEntity
  8
AM_0
100
AcDbLine
 10
70.72396342483333
 20
228.7322662984776
 30
0.0
 11
70.72396342483333
 21
219.4322662984775
 31
0.0
  0
LINE
  5
216
330
1F
100
AcDbEntity
  8
AM_0
100
AcDbLine
 10
69.08896342483334
 20
206.0322662984775
 30
0.0
 11
70.08896342483331
 21
206.0322662984775
 31
0.0
  0
LINE
  5
217
330
1F
100
AcDbEntity
  8
AM_0
100
AcDbLine
 10
83.58896342483331
 20
206.0322662984775
 30
0.0
 11
83.58896342483331
 21
219.4322662984775
 31
0.0
  0
LINE
  5
218
330
1F
100
AcDbEntity
  8
AM_0
100
AcDbLine
 10
68.58896342483334
 20
205.0322662984775
 30
0.0
 11
84.58896342483331
 21
205.0322662984775
 31
0.0
  0
LWPOLYLINE
  5
219
330
1F
100
AcDbEntity
  8
AM_0
100
AcDbPolyline
 90
       19
 70
     0
 43
0.0
 10
68.58896342483334
 20
205.5322662984775
 10
68.59086607578746
 20
205.5758441698513
 10
68.5965595483272
 20
205.619090387311
 10
68.60600051168879
 20
205.6616758210288
 10
68.61911711444037
 20
205.7032763701405
 10
68.635809531315
 20
205.7435754293479
 10
68.6559507229411
 20
205.7822662984775
 10
68.67938740268883
 20
205.8190545166532
 10
68.70594120327382
 20
205.8536601033208
 10
68.73541003424006
 20
205.8858196890708
 10
68.76756961999007
 20
205.9152885200371
 10
68.80217520665781
 20
205.941842320622
 10
68.83896342483334
 20
205.9652790003697
 10
68.87765429396299
 20
205.9854201919958
 10
68.9179533531705
 20
206.0021126088705
 10
68.95955390228207
 20
206.0152292116221
 10
69.00213933599986
 20
206.0246701749836
 10
69.04538555345948
 20
206.0303636475234
 10
69.08896342483334
 20
206.0322662984775
  0
LINE
  5
21A
330
1F
100
AcDbEntity
  8
AM_4
100
AcDbLine
 10
69.08896342483334
 20
205.0322662984775
 30
0.0
 11
69.08896342483334
 21
206.0322662984775
 31
0.0
  0
LINE
  5
21B
330
1F
100
AcDbEntity
  8
AM_0
100
AcDbLine
 10
68.58896342483334
 20
205.0322662984775
 30
0.0
 11
68.58896342483334
 21
205.5322662984775
 31
0.0
  0
LINE
  5
21C
330
1F
100
AcDbEntity
  8
AM_4
100
AcDbLine
 10
70.08896342483331
 20
206.0322662984775
 30
0.0
 11
70.08896342483331
 21
219.4322662984775
 31
0.0
  0
LINE
  5
21D
330
1F
100
AcDbEntity
  8
AM_0
100
AcDbLine
 10
69.58896342483331
 20
206.0322662984775
 30
0.0
 11
69.58896342483331
 21
219.4322662984775
 31
0.0
  0
LINE
  5
21E
330
1F
100
AcDbEntity
  8
AM_0
100
AcDbLine
 10
83.08896342483331
 20
206.0322662984775
 30
0.0
 11
84.08896342483331
 21
206.0322662984775
 31
0.0
  0
LINE
  5
21F
330
1F
100
AcDbEntity
  8
AM_4
100
AcDbLine
 10
83.08896342483331
 20
206.0322662984775
 30
0.0
 11
83.08896342483331
 21
219.4322662984775
 31
0.0
  0
LINE
  5
220
330
1F
100
AcDbEntity
  8
AM_0
100
AcDbLine
 10
84.58896342483331
 20
205.5322662984775
 30
0.0
 11
84.58896342483331
 21
205.0322662984775
 31
0.0
  0
LWPOLYLINE
  5
221
330
1F
100
AcDbEntity
  8
AM_0
100
AcDbPolyline
 90
       19
 70
     0
 43
0.0
 10
84.08896346564183
 20
206.0322662984775
 10
84.13254133686041
 20
206.0303636439668
 10
84.17578755385532
 20
206.0246701678973
 10
84.21837298680259
 20
206.01522920106
 10
84.2599735348436
 20
206.0021125949131
 10
84.30027259268871
 20
205.9854201747494
 10
84.33896346017451
 20
205.9652789799655
 10
84.3757516764372
 20
205.9418422972153
 10
84.4103572609377
 20
205.9152884938059
 10
84.44251684428261
 20
205.8858196602148
 10
84.47198567262402
 20
205.8536600720597
 10
84.49853947038463
 20
205.8190544832247
 10
84.5219761471298
 20
205.7822662631363
 10
84.5421173355981
 20
205.7435753923629
 10
84.55880974918361
 20
205.7032763317929
 10
84.5719263485399
 20
205.6616757816109
 10
84.58136730842571
 20
205.6190903471224
 10
84.58706077743591
 20
205.5758441291981
 10
84.58896342483331
 20
205.5322662984775
  0
LINE
  5
222
330
1F
100
AcDbEntity
  8
AM_4
100
AcDbLine
 10
84.08896342483331
 20
205.0322662984775
 30
0.0
 11
84.08896342483331
 21
206.0322662984775
 31
0.0
  0
LINE
  5
223
330
1F
100
AcDbEntity
  8
AM_0
100
AcDbLine
 10
70.83946342483333
 20
205.0322662984775
 30
0.0
 11
70.83946342483333
 21
219.4322662984775
 31
0.0
  0
LINE
  5
224
330
1F
100
AcDbEntity
  8
AM_0
100
AcDbLine
 10
71.33946342483333
 20
205.0322662984775
 30
0.0
 11
71.33946342483333
 21
219.4322662984775
 31
0.0
  0
ARC
  5
225
330
1F
100
AcDbEntity
  8
AM_9
100
AcDbCircle
 10
74.00396342483361
 20
181.3216662984775
 30
0.0
 40
0.0349999999998846
100
AcDbArc
 50
334.9999999998968
 51
0.0
  0
LINE
  5
226
330
1F
100
AcDbEntity
  8
AM_0
100
AcDbLine
 10
75.33896342483342
 20
205.0322662984775
 30
0.0
 11
75.33896342483342
 21
198.2864662984775
 31
0.0
  0
LINE
  5
227
330
1F
100
AcDbEntity
  8
AM_0
100
AcDbLine
 10
76.33896342483342
 20
198.2864662984775
 30
0.0
 11
76.33896342483342
 21
205.0322662984775
 31
0.0
  0
LINE
  5
228
330
1F
100
AcDbEntity
  8
AM_0
100
AcDbLine
 10
76.83896342483342
 20
205.0322662984775
 30
0.0
 11
76.83896342483342
 21
198.2864662984775
 31
0.0
  0
LINE
  5
229
330
1F
100
AcDbEntity
  8
AM_0
100
AcDbLine
 10
77.83896342483342
 20
198.2864662984775
 30
0.0
 11
77.83896342483342
 21
205.0322662984775
 31
0.0
  0
LINE
  5
22A
330
1F
100
AcDbEntity
  8
AM_0
100
AcDbLine
 10
74.33896342483342
 20
198.2864662984775
 30
0.0
 11
74.33896342483342
 21
195.7864662984775
 31
0.0
  0
LINE
  5
22B
330
1F
100
AcDbEntity
  8
AM_0
100
AcDbLine
 10
78.83896342483342
 20
195.7864662984775
 30
0.0
 11
78.83896342483342
 21
198.2864662984775
 31
0.0
  0
LINE
  5
22C
330
1F
100
AcDbEntity
  8
AM_0
100
AcDbLine
 10
78.83896342483342
 20
198.2864662984775
 30
0.0
 11
74.33896342483342
 21
198.2864662984775
 31
0.0
  0
LINE
  5
22D
330
1F
100
AcDbEntity
  8
AM_0
100
AcDbLine
 10
74.03896342483341
 20
191.0364662984775
 30
0.0
 11
74.03896342483341
 21
181.3216662984775
 31
0.0
  0
LINE
  5
22E
330
1F
100
AcDbEntity
  8
AM_0
100
AcDbLine
 10
79.1389634248334
 20
181.3216662984775
 30
0.0
 11
79.1389634248334
 21
191.0364662984775
 31
0.0
  0
ARC
  5
22F
330
1F
100
AcDbEntity
  8
AM_0
100
AcDbCircle
 10
74.0039634248335
 20
181.3216662984775
 30
0.0
 40
5.134999999999938
100
AcDbArc
 50
335.0000000000082
 51
0.0
  0
LINE
  5
230
330
1F
100
AcDbEntity
  8
AM_0
100
AcDbLine
 10
73.58896342483342
 20
194.2864662984775
 30
0.0
 11
73.58896342483342
 21
191.0364662984775
 31
0.0
  0
LINE
  5
231
330
1F
100
AcDbEntity
  8
AM_0
100
AcDbLine
 10
79.58896342483342
 20
191.0364662984775
 30
0.0
 11
79.58896342483342
 21
194.2864662984775
 31
0.0
  0
LINE
  5
232
330
1F
100
AcDbEntity
  8
AM_0
100
AcDbLine
 10
79.58896342483342
 20
191.0364662984775
 30
0.0
 11
73.58896342483342
 21
191.0364662984775
 31
0.0
  0
LINE
  5
233
330
1F
100
AcDbEntity
  8
AM_0
100
AcDbLine
 10
74.33896342483342
 20
195.7864662984775
 30
0.0
 11
73.58896342483342
 21
194.2864662984775
 31
0.0
  0
LINE
  5
234
330
1F
100
AcDbEntity
  8
AM_0
100
AcDbLine
 10
79.58896342483342
 20
194.2864662984775
 30
0.0
 11
78.83896342483342
 21
195.7864662984775
 31
0.0
  0
LINE
  5
235
330
1F
100
AcDbEntity
  8
AM_0
100
AcDbLine
 10
79.58896342483342
 20
194.2864662984775
 30
0.0
 11
73.58896342483342
 21
194.2864662984775
 31
0.0
  0
LINE
  5
236
330
1F
100
AcDbEntity
  8
AM_0
100
AcDbLine
 10
78.83896342483342
 20
195.7864662984775
 30
0.0
 11
74.33896342483342
 21
195.7864662984775
 31
0.0
  0
LWPOLYLINE
  5
237
330
1F
100
AcDbEntity
  8
AM_9
100
AcDbPolyline
 90
        9
 70
     0
 43
0.0
 10
117.2621482142588
 20
226.9305300451902
 10
117.2375690381997
 20
226.9395199532954
 10
117.2138669154442
 20
226.9506178684315
 10
117.1912222334583
 20
226.9637393287636
 10
117.1698073319452
 20
226.9787844720554
 10
117.149785191236
 20
226.9956387956819
 10
117.1313081919112
 20
227.0141740280634
 10
117.1145169550924
 20
227.0342491048898
 10
117.1011097669341
 20
227.0532637761407
  0
LWPOLYLINE
  5
238
330
1F
100
AcDbEntity
  8
AM_9
100
AcDbPolyline
 90
        3
 70
     0
 43
0.0
 10
117.5771765065006
 20
226.9482759942659
 10
117.553287691224
 20
226.9375858657274
 10
117.5334717857412
 20
226.9305300451902
  0
LINE
  5
239
330
1F
100
AcDbEntity
  8
AM_0
100
AcDbLine
 10
111.16301
 20
225.9175971434616
 30
0.0
 11
111.16301
 21
229.9165028421591
 31
0.0
  0
LINE
  5
23A
330
1F
100
AcDbEntity
  8
AM_0
100
AcDbLine
 10
109.41301
 20
221.4165028421591
 30
0.0
 11
109.41301
 21
231.4165028421591
 31
0.0
  0
LINE
  5
23B
330
1F
100
AcDbEntity
  8
AM_0
100
AcDbLine
 10
109.4277004710627
 20
221.4165028421591
 30
0.0
 11
109.41301
 21
221.4165028421591
 31
0.0
  0
LINE
  5
23C
330
1F
100
AcDbEntity
  8
AM_0
100
AcDbLine
 10
111.16301
 20
227.7165028421591
 30
0.0
 11
109.41301
 21
227.7165028421591
 31
0.0
  0
LINE
  5
23D
330
1F
100
AcDbEntity
  8
AM_0
100
AcDbLine
 10
111.41301
 20
231.9165028421591
 30
0.0
 11
112.16301
 21
230.6665028421591
 31
0.0
  0
LINE
  5
23E
330
1F
100
AcDbEntity
  8
AM_0
100
AcDbLine
 10
112.16301
 20
230.6665028421591
 30
0.0
 11
112.16301
 21
229.9165028421591
 31
0.0
  0
LINE
  5
23F
330
1F
100
AcDbEntity
  8
AM_0
100
AcDbLine
 10
110.41301
 20
231.9165028421591
 30
0.0
 11
111.41301
 21
231.9165028421591
 31
0.0
  0
LINE
  5
240
330
1F
100
AcDbEntity
  8
AM_0
100
AcDbLine
 10
109.41301
 20
231.4165028421591
 30
0.0
 11
110.41301
 21
231.9165028421591
 31
0.0
  0
LINE
  5
241
330
1F
100
AcDbEntity
  8
AM_0
100
AcDbLine
 10
112.16301
 20
229.9165028421591
 30
0.0
 11
111.16301
 21
229.9165028421591
 31
0.0
  0
LWPOLYLINE
  5
242
330
1F
100
AcDbEntity
  8
AM_0
100
AcDbPolyline
 90
        5
 70
     0
 43
0.0
 10
121.49281
 20
226.9305300451902
 10
121.5268493025006
 20
226.9228474352226
 10
121.5614286587564
 20
226.9181607805973
 10
121.5962848989867
 20
226.916505749586
 10
121.59781
 20
226.9165028421591
  0
ARC
  5
243
330
1F
100
AcDbEntity
  8
AM_0
100
AcDbCircle
 10
111.047454635241
 20
227.4632837086085
 30
0.0
 40
1.550000000000075
100
AcDbArc
 50
266.306683969134
 51
339.3436645001283
  0
LINE
  5
244
330
1F
100
AcDbEntity
  8
AM_0
100
AcDbLine
 10
110.2211718842508
 20
225.9165028421591
 30
0.0
 11
110.94761
 21
225.9165028421591
 31
0.0
  0
LINE
  5
245
330
1F
100
AcDbEntity
  8
AM_0
100
AcDbLine
 10
109.16321
 20
219.9165028421591
 30
0.0
 11
110.2211718842508
 21
225.9165028421591
 31
0.0
  0
LINE
  5
246
330
1F
100
AcDbEntity
  8
AM_0
100
AcDbLine
 10
108.74781
 20
219.9165028421591
 30
0.0
 11
109.16321
 21
219.9165028421591
 31
0.0
  0
LINE
  5
247
330
1F
100
AcDbEntity
  8
AM_0
100
AcDbLine
 10
108.74781
 20
218.9165028421591
 30
0.0
 11
108.74781
 21
219.9165028421591
 31
0.0
  0
LINE
  5
248
330
1F
100
AcDbEntity
  8
AM_0
100
AcDbLine
 10
109.99761
 20
218.9165028421591
 30
0.0
 11
108.74781
 21
218.9165028421591
 31
0.0
  0
LINE
  5
249
330
1F
100
AcDbEntity
  8
AM_0
100
AcDbLine
 10
110.8856067106548
 20
223.8006622021281
 30
0.0
 11
109.99761
 21
218.9165028421591
 31
0.0
  0
ARC
  5
24A
330
1F
100
AcDbEntity
  8
AM_0
100
AcDbCircle
 10
111.6235100011561
 20
223.6665028421591
 30
0.0
 40
0.75
100
AcDbArc
 50
90.00000008832029
 51
169.6955199216074
  0
LINE
  5
24B
330
1F
100
AcDbEntity
  8
AM_0
100
AcDbLine
 10
111.74761
 20
224.4165028421591
 30
0.0
 11
111.62351
 21
224.4165028421591
 31
0.0
  0
ARC
  5
24C
330
1F
100
AcDbEntity
  8
AM_0
100
AcDbCircle
 10
111.74761
 20
223.6665028421591
 30
0.0
 40
0.75
100
AcDbArc
 50
0.0
 51
90.0
  0
LINE
  5
24D
330
1F
100
AcDbEntity
  8
AM_0
100
AcDbLine
 10
117.05281
 20
236.1165028421592
 30
0.0
 11
117.05281
 21
227.2165028421591
 31
0.0
  0
LINE
  5
24E
330
1F
100
AcDbEntity
  8
AM_0
100
AcDbLine
 10
113.59781
 20
227.3165028421591
 30
0.0
 11
113.59781
 21
236.1165028421592
 31
0.0
  0
LINE
  5
24F
330
1F
100
AcDbEntity
  8
AM_0
100
AcDbLine
 10
117.05281
 20
236.1165028421592
 30
0.0
 11
113.59781
 21
236.1165028421592
 31
0.0
  0
LINE
  5
250
330
1F
100
AcDbEntity
  8
AM_0
100
AcDbLine
 10
117.74281
 20
227.2165028421591
 30
0.0
 11
117.74281
 21
236.1165028421592
 31
0.0
  0
LINE
  5
251
330
1F
100
AcDbEntity
  8
AM_0
100
AcDbLine
 10
121.19781
 20
236.1165028421592
 30
0.0
 11
117.74281
 21
236.1165028421592
 31
0.0
  0
LINE
  5
252
330
1F
100
AcDbEntity
  8
AM_0
100
AcDbLine
 10
121.19781
 20
236.1165028421592
 30
0.0
 11
121.19781
 21
227.3165028421591
 31
0.0
  0
LINE
  5
253
330
1F
100
AcDbEntity
  8
AM_0
100
AcDbLine
 10
121.49281
 20
226.9305300451902
 30
0.0
 11
121.49281
 21
226.9165028421591
 31
0.0
  0
ARC
  5
254
330
1F
100
AcDbEntity
  8
AM_0
100
AcDbCircle
 10
117.4428099999999
 20
227.2165028421593
 30
0.0
 40
0.3000000000000966
100
AcDbArc
 50
270.000000000011
 51
287.5901460267343
  0
LINE
  5
255
330
1F
100
AcDbEntity
  8
AM_0
100
AcDbLine
 10
113.30281
 20
226.9305300451902
 30
0.0
 11
113.30281
 21
226.9165028421591
 31
0.0
  0
ARC
  5
256
330
1F
100
AcDbEntity
  8
AM_0
100
AcDbCircle
 10
117.3528100000001
 20
227.2165028421597
 30
0.0
 40
0.3000000000004603
100
AcDbArc
 50
252.4098539732818
 51
269.9999999999836
  0
LINE
  5
257
330
1F
100
AcDbEntity
  8
AM_4
100
AcDbLine
 10
113.59781
 20
227.3165028421591
 30
0.0
 11
117.05281
 21
227.3165028421591
 31
0.0
  0
LWPOLYLINE
  5
258
330
1F
100
AcDbEntity
  8
AM_0
100
AcDbPolyline
 90
       16
 70
     0
 43
0.0
 10
113.30281
 20
226.9305300451902
 10
113.3360501890999
 20
226.9411501411996
 10
113.3682382868889
 20
226.9546268979073
 10
113.3991293225074
 20
226.9708577490577
 10
113.4284881965216
 20
226.9897191680726
 10
113.456091470173
 20
227.0110676081648
 10
113.4817290658818
 20
227.0347405948143
 10
113.5052058660642
 20
227.0605579622989
 10
113.5263431980952
 20
227.0883232248632
 10
113.5449801941148
 20
227.1178250720934
 10
113.5609750153302
 20
227.148838977119
 10
113.5742059314939
 20
227.1811289053956
 10
113.5845722473448
 20
227.2144491110721
 10
113.59199506896
 20
227.2485460072639
 10
113.596417904185
 20
227.2831600960025
 10
113.59781
 20
227.3165028421591
  0
LINE
  5
259
330
1F
100
AcDbEntity
  8
AM_0
100
AcDbLine
 10
117.2621482142588
 20
226.9305300451902
 30
0.0
 11
113.30281
 21
226.9305300451902
 31
0.0
  0
LWPOLYLINE
  5
25A
330
1F
100
AcDbEntity
  8
AM_0
100
AcDbPolyline
 90
        5
 70
     0
 43
0.0
 10
117.05281
 20
227.2165028421591
 10
117.0666319699625
 20
227.1264909811418
 10
117.1017584454958
 20
227.0522678977012
 10
117.1815927477714
 20
226.9701602909438
 10
117.2621482142585
 20
226.93053004519
  0
LWPOLYLINE
  5
25B
330
1F
100
AcDbEntity
  8
AM_0
100
AcDbPolyline
 90
        5
 70
     0
 43
0.0
 10
117.5334717857412
 20
226.9305300451902
 10
117.6540100698846
 20
227.003442919882
 10
117.7118221344879
 20
227.0837155253768
 10
117.7388446577597
 20
227.1678871923632
 10
117.74281
 20
227.2165028421591
  0
LINE
  5
25C
330
1F
100
AcDbEntity
  8
AM_0
100
AcDbLine
 10
121.49281
 20
226.9305300451902
 30
0.0
 11
117.5334717857412
 21
226.9305300451902
 31
0.0
  0
LWPOLYLINE
  5
25D
330
1F
100
AcDbEntity
  8
AM_0
100
AcDbPolyline
 90
       16
 70
     0
 43
0.0
 10
121.19781
 20
227.3165028421591
 10
121.1993321207633
 20
227.2816405450602
 10
121.2038868987951
 20
227.2470435710925
 10
121.2114396694844
 20
227.2129752241181
 10
121.2219329516856
 20
227.1796947848289
 10
121.2352868851854
 20
227.1474555374628
 10
121.2513998384862
 20
227.1165028421592
 10
121.2701491822844
 20
227.0870722676187
 10
121.2913922227524
 20
227.0593877982845
 10
121.3149672875254
 20
227.0336601296845
 10
121.3406949561254
 20
227.0100850649115
 10
121.3683794254596
 20
226.9888420244435
 10
121.39781
 20
226.9700926806454
 10
121.4287626953037
 20
226.9539797273445
 10
121.4610019426697
 20
226.9406257938449
 10
121.49281
 20
226.9305300451902
  0
LINE
  5
25E
330
1F
100
AcDbEntity
  8
AM_4
100
AcDbLine
 10
117.74281
 20
227.3165028421591
 30
0.0
 11
121.19781
 21
227.3165028421591
 31
0.0
  0
LINE
  5
25F
330
1F
100
AcDbEntity
  8
AM_0
100
AcDbLine
 10
112.49781
 20
213.4165028421591
 30
0.0
 11
112.49781
 21
226.9165028421591
 31
0.0
  0
LINE
  5
260
330
1F
100
AcDbEntity
  8
AM_0
100
AcDbLine
 10
123.29781
 20
213.4165028421591
 30
0.0
 11
122.29781
 21
213.4165028421591
 31
0.0
  0
LINE
  5
261
330
1F
100
AcDbEntity
  8
AM_0
100
AcDbLine
 10
123.29781
 20
212.4165028421591
 30
0.0
 11
111.49781
 21
212.4165028421591
 31
0.0
  0
LINE
  5
262
330
1F
100
AcDbEntity
  8
AM_0
100
AcDbLine
 10
122.29781
 20
213.4165028421591
 30
0.0
 11
122.29781
 21
226.9165028421591
 31
0.0
  0
LINE
  5
263
330
1F
100
AcDbEntity
  8
AM_0
100
AcDbLine
 10
122.29781
 20
226.9165028421591
 30
0.0
 11
112.49781
 21
226.9165028421591
 31
0.0
  0
LINE
  5
264
330
1F
100
AcDbEntity
  8
AM_0
100
AcDbLine
 10
123.29781
 20
213.4165028421591
 30
0.0
 11
123.29781
 21
212.4165028421591
 31
0.0
  0
LINE
  5
265
330
1F
100
AcDbEntity
  8
AM_0
100
AcDbLine
 10
112.49781
 20
213.4165028421591
 30
0.0
 11
111.49781
 21
213.4165028421591
 31
0.0
  0
LINE
  5
266
330
1F
100
AcDbEntity
  8
AM_0
100
AcDbLine
 10
111.49781
 20
213.4165028421591
 30
0.0
 11
111.49781
 21
212.4165028421591
 31
0.0
  0
LINE
  5
267
330
1F
100
AcDbEntity
  8
AM_0
100
AcDbLine
 10
116.14781
 20
212.4165028421591
 30
0.0
 11
116.14781
 21
204.3436028421592
 31
0.0
  0
LINE
  5
268
330
1F
100
AcDbEntity
  8
AM_0
100
AcDbLine
 10
117.14781
 20
204.3436028421592
 30
0.0
 11
117.14781
 21
212.4165028421591
 31
0.0
  0
LINE
  5
269
330
1F
100
AcDbEntity
  8
AM_0
100
AcDbLine
 10
117.64781
 20
212.4165028421591
 30
0.0
 11
117.64781
 21
204.3436028421592
 31
0.0
  0
LINE
  5
26A
330
1F
100
AcDbEntity
  8
AM_0
100
AcDbLine
 10
118.64781
 20
204.3436028421592
 30
0.0
 11
118.64781
 21
212.4165028421591
 31
0.0
  0
LINE
  5
26B
330
1F
100
AcDbEntity
  8
AM_0
100
AcDbLine
 10
114.89781
 20
204.3436028421592
 30
0.0
 11
114.89781
 21
201.8436028421592
 31
0.0
  0
LINE
  5
26C
330
1F
100
AcDbEntity
  8
AM_0
100
AcDbLine
 10
119.89781
 20
201.8436028421592
 30
0.0
 11
119.89781
 21
204.3436028421592
 31
0.0
  0
LINE
  5
26D
330
1F
100
AcDbEntity
  8
AM_0
100
AcDbLine
 10
119.89781
 20
204.3436028421592
 30
0.0
 11
114.89781
 21
204.3436028421592
 31
0.0
  0
LINE
  5
26E
330
1F
100
AcDbEntity
  8
AM_0
100
AcDbLine
 10
113.99821
 20
197.0936028421592
 30
0.0
 11
113.99821
 21
180.2838028421591
 31
0.0
  0
LINE
  5
26F
330
1F
100
AcDbEntity
  8
AM_0
100
AcDbLine
 10
120.79741
 20
180.2838028421591
 30
0.0
 11
120.79741
 21
197.0936028421592
 31
0.0
  0
LINE
  5
270
330
1F
100
AcDbEntity
  8
AM_0
100
AcDbLine
 10
114.89781
 20
201.8436028421592
 30
0.0
 11
113.49781
 21
200.3436028421592
 31
0.0
  0
LINE
  5
271
330
1F
100
AcDbEntity
  8
AM_0
100
AcDbLine
 10
121.29781
 20
200.3436028421592
 30
0.0
 11
119.89781
 21
201.8436028421592
 31
0.0
  0
LINE
  5
272
330
1F
100
AcDbEntity
  8
AM_0
100
AcDbLine
 10
119.89781
 20
201.8436028421592
 30
0.0
 11
114.89781
 21
201.8436028421592
 31
0.0
  0
LINE
  5
273
330
1F
100
AcDbEntity
  8
AM_0
100
AcDbLine
 10
113.49781
 20
200.3436028421592
 30
0.0
 11
113.49781
 21
197.0936028421592
 31
0.0
  0
LINE
  5
274
330
1F
100
AcDbEntity
  8
AM_0
100
AcDbLine
 10
121.29781
 20
197.0936028421592
 30
0.0
 11
121.29781
 21
200.3436028421592
 31
0.0
  0
LINE
  5
275
330
1F
100
AcDbEntity
  8
AM_0
100
AcDbLine
 10
121.29781
 20
197.0936028421592
 30
0.0
 11
113.49781
 21
197.0936028421592
 31
0.0
  0
LINE
  5
276
330
1F
100
AcDbEntity
  8
AM_0
100
AcDbLine
 10
121.29781
 20
200.3436028421592
 30
0.0
 11
113.49781
 21
200.3436028421592
 31
0.0
  0
LINE
  5
277
330
1F
100
AcDbEntity
  8
AM_9
100
AcDbLine
 10
78.6548819218898
 20
179.1529073858453
 30
0.0
 11
78.6611331387202
 21
179.1663131635999
 31
0.0
  0
LINE
  5
278
330
1F
100
AcDbEntity
  8
AM_0
100
AcDbLine
 10
68.51827670194177
 20
157.4148873411935
 30
0.0
 11
78.6548819218898
 21
179.1529073858453
 31
0.0
  0
LINE
  5
279
330
1F
100
AcDbEntity
  8
AM_0
100
AcDbLine
 10
74.0389634248333
 20
181.3216662984775
 30
0.0
 11
63.89610698805484
 21
159.570240476071
 31
0.0
  0
ARC
  5
27A
330
1F
100
AcDbEntity
  8
AM_0
100
AcDbCircle
 10
64.39000999999996
 20
154.5954028421592
 30
0.0
 40
5.99999999999989
100
AcDbArc
 50
65.00081530989712
 51
80.4437621300527
  0
ARC
  5
27B
330
1F
100
AcDbEntity
  8
AM_0
100
AcDbCircle
 10
64.3898552406003
 20
154.5954750076548
 30
0.0
 40
5.999999999997859
100
AcDbArc
 50
49.55623786994441
 51
64.99918469010512
  0
LINE
  5
27C
330
1F
100
AcDbEntity
  8
AM_4
100
AcDbLine
 10
65.38610360611932
 20
160.5121415999419
 30
0.0
 11
68.28206345928379
 21
159.1617333427018
 31
0.0
  0
ARC
  5
27D
330
1F
100
AcDbEntity
  8
AM_0
100
AcDbCircle
 10
67.76310233397405
 20
158.5528989231613
 30
0.0
 40
0.8000000000000052
100
AcDbArc
 50
339.9999999999997
 51
49.55623509518191
  0
ARC
  5
27E
330
1F
100
AcDbEntity
  8
AM_0
100
AcDbCircle
 10
65.25329116350878
 20
159.7232430924722
 30
0.0
 40
0.7999999999999717
100
AcDbArc
 50
80.44376490481662
 51
150.0000000000025
  0
LINE
  5
27F
330
1F
100
AcDbEntity
  8
AM_4
100
AcDbLine
 10
64.56047084048126
 20
160.1232430924723
 30
0.0
 11
68.51485643060278
 21
158.2792828085007
 31
0.0
  0
LINE
  5
280
330
1F
100
AcDbEntity
  8
AM_0
100
AcDbLine
 10
64.56047084048126
 20
160.1232430924723
 30
0.0
 11
64.16799591792363
 21
159.4434565859057
 31
0.0
  0
LINE
  5
281
330
1F
100
AcDbEntity
  8
AM_0
100
AcDbLine
 10
68.24638777207298
 20
157.5416712313589
 30
0.0
 11
68.51485643060278
 21
158.2792828085007
 31
0.0
  0
LINE
  5
282
330
1F
100
AcDbEntity
  8
AM_0
100
AcDbLine
 10
50.69901000000002
 20
150.4342028421592
 30
0.0
 11
53.17921000000001
 21
150.4342028421592
 31
0.0
  0
LINE
  5
283
330
1F
100
AcDbEntity
  8
AM_0
100
AcDbLine
 10
73.19901000000002
 20
150.4342028421592
 30
0.0
 11
73.19901000000002
 21
151.3704028421591
 31
0.0
  0
ARC
  5
284
330
1F
100
AcDbEntity
  8
AM_0
100
AcDbCircle
 10
71.56070686639583
 20
154.8928009371444
 30
0.0
 40
1.000000000000037
100
AcDbArc
 50
9.439000000002185
 51
64.99999999999844
  0
ARC
  5
285
330
1F
100
AcDbEntity
  8
AM_0
100
AcDbCircle
 10
73.0269718950629
 20
151.560963319882
 30
0.0
 40
0.0999999999999713
100
AcDbArc
 50
244.9999999999837
 51
9.439000000024267
  0
LINE
  5
286
330
1F
100
AcDbEntity
  8
AM_0
100
AcDbLine
 10
50.69901000000002
 20
154.7642179292866
 30
0.0
 11
50.69901000000002
 21
150.4342028421592
 31
0.0
  0
LINE
  5
287
330
1F
100
AcDbEntity
  8
AM_0
100
AcDbLine
 10
73.12561797112372
 20
151.5773630661542
 30
0.0
 11
72.54716762700463
 21
155.0567983998664
 31
0.0
  0
LINE
  5
288
330
1F
100
AcDbEntity
  8
AM_0
100
AcDbLine
 10
55.88831733726862
 20
158.9640872664965
 30
0.0
 11
51.68392124349072
 21
156.4874691635552
 31
0.0
  0
ARC
  5
289
330
1F
100
AcDbEntity
  8
AM_0
100
AcDbCircle
 10
52.69901000000002
 20
154.7642179292866
 30
0.0
 40
2.000000000000026
100
AcDbArc
 50
120.5003999999997
 51
179.9999999999991
  0
LINE
  5
28A
330
1F
100
AcDbEntity
  8
AM_0
100
AcDbLine
 10
73.19901000000002
 20
151.3704028421591
 30
0.0
 11
72.98471006888883
 21
151.4703325411784
 31
0.0
  0
LINE
  5
28B
330
1F
100
AcDbEntity
  8
AM_0
100
AcDbLine
 10
71.98332512813653
 20
155.7991087241809
 30
0.0
 11
60.43114161796228
 21
161.1859803633872
 31
0.0
  0
LWPOLYLINE
  5
28C
330
1F
100
AcDbEntity
  8
AM_0
100
AcDbPolyline
 90
        7
 70
     0
 43
0.0
 10
59.99671388883957
 20
161.2796028421591
 10
59.9096091624159
 20
161.2747685427094
 10
59.82325723273314
 20
161.2623609621004
 10
59.73831529011687
 20
161.2424745295122
 10
59.65542979403972
 20
161.2152605927047
 10
59.57523155317455
 20
161.1809262661695
 10
59.50006794686414
 20
161.1407608974276
  0
LINE
  5
28D
330
1F
100
AcDbEntity
  8
AM_0
100
AcDbLine
 10
59.50006794686414
 20
161.1407608974276
 30
0.0
 11
56.46284513026343
 21
159.3473416479445
 31
0.0
  0
LWPOLYLINE
  5
28E
330
1F
100
AcDbEntity
  8
AM_0
100
AcDbPolyline
 90
       26
 70
     0
 43
0.0
 10
56.46284513026343
 20
159.3473416479445
 10
56.45553373367791
 20
159.3425824969557
 10
56.44866494650303
 20
159.3372042257733
 10
56.44229104435669
 20
159.3312477662886
 10
56.43646053648291
 20
159.3247584507546
 10
56.43121779656714
 20
159.3177856667811
 10
56.42660272502582
 20
159.3103824814644
 10
56.42265044534
 20
159.3026052375149
 10
56.41939103674457
 20
159.2945131244551
 10
56.41684930530701
 20
159.2861677281516
 10
56.41504459513831
 20
159.277632562109
 10
56.41399064117255
 20
159.2689725840951
 10
56.41369546463584
 20
159.2602537017711
 10
56.41416131199982
 20
159.2515422710966
 10
56.41538463788477
 20
159.2429045913187
 10
56.41735613204206
 20
159.2344064003964
 10
56.4200607902107
 20
159.2261123746937
 10
56.42347802830896
 20
159.2180856367546
 10
56.42758183909147
 20
159.2103872749011
 10
56.43234099008029
 20
159.2030758783156
 10
56.43771926126267
 20
159.1962070911407
 10
56.44367572074748
 20
159.1898331889944
 10
56.4501650362814
 20
159.1840026811205
 10
56.45713782025487
 20
159.1787599412048
 10
56.46454100557158
 20
159.1741448696635
 10
56.4714288450251
 20
159.1706020371331
  0
LINE
  5
28F
330
1F
100
AcDbEntity
  8
AM_0
100
AcDbLine
 10
56.4714288450251
 20
159.1706020371331
 30
0.0
 11
56.81847997726396
 21
159.0087694363988
 31
0.0
  0
LWPOLYLINE
  5
290
330
1F
100
AcDbEntity
  8
AM_0
100
AcDbPolyline
 90
       13
 70
     0
 43
0.0
 10
56.81847997726396
 20
159.0087694363988
 10
56.73788185884892
 20
159.0421542701482
 10
56.65468076062578
 20
159.0683874756512
 10
56.56950989319019
 20
159.0872694023745
 10
56.48301745827091
 20
159.098656347454
 10
56.39586171552325
 20
159.1024616493623
 10
56.30870597277558
 20
159.098656347454
 10
56.22221353785632
 20
159.0872694023745
 10
56.13704267042073
 20
159.0683874756512
 10
56.05384157219758
 20
159.0421542701482
 10
55.97324345378256
 20
159.0087694363988
 10
55.89586171552325
 20
158.9684870531466
 10
55.88831733726862
 20
158.9640872664965
  0
LINE
  5
291
330
1F
100
AcDbEntity
  8
AM_0
100
AcDbLine
 10
66.59809613614152
 20
158.3102822440667
 30
0.0
 11
54.77839438260224
 21
158.3102822440667
 31
0.0
  0
LWPOLYLINE
  5
292
330
1F
100
AcDbEntity
  8
AM_0
100
AcDbPolyline
 90
        6
 70
     0
 43
0.0
 10
60.43114161796228
 20
161.1859803633872
 10
60.35054349954726
 20
161.2193651971365
 10
60.2673424013241
 20
161.2455984026396
 10
60.18217153388849
 20
161.2644803293628
 10
60.09567909896924
 20
161.2758672744422
 10
60.02033282360358
 20
161.2796028421591
  0
LINE
  5
293
330
1F
100
AcDbEntity
  8
AM_0
100
AcDbLine
 10
60.02033282360327
 20
161.2796028421591
 30
0.0
 11
59.99671388883985
 21
161.2796028421591
 31
0.0
  0
LINE
  5
294
330
1F
100
AcDbEntity
  8
AM_7
100
AcDbLine
 10
94.69901000000002
 20
158.8912028421591
 30
0.0
 11
94.69901000000002
 21
156.3172028421591
 31
0.0
  0
LINE
  5
295
330
1F
100
AcDbEntity
  8
AM_7
100
AcDbLine
 10
107.15905
 20
154.8842028421591
 30
0.0
 11
108.03817
 21
154.8842028421591
 31
0.0
  0
ARC
  5
296
330
1F
100
AcDbEntity
  8
AM_0
100
AcDbCircle
 10
107.99821
 20
164.2838028421591
 30
0.0
 40
12.79919999999998
100
AcDbArc
 50
270.0
 51
0.0000000000001272
  0
ARC
  5
297
330
1F
100
AcDbEntity
  8
AM_0
100
AcDbCircle
 10
107.9982099999999
 20
164.2838028421592
 30
0.0
 40
6.000000000000085
100
AcDbArc
 50
270.0000000000007
 51
0.0
  0
LINE
  5
298
330
1F
100
AcDbEntity
  8
AM_0
100
AcDbLine
 10
107.99821
 20
158.2838028421591
 30
0.0
 11
107.19901
 21
158.2838028421591
 31
0.0
  0
LINE
  5
299
330
1F
100
AcDbEntity
  8
AM_0
100
AcDbLine
 10
107.19901
 20
151.4846028421591
 30
0.0
 11
107.99821
 21
151.4846028421591
 31
0.0
  0
LINE
  5
29A
330
1F
100
AcDbEntity
  8
AM_4
100
AcDbLine
 10
107.99821
 20
158.2838028421591
 30
0.0
 11
107.99821
 21
151.4846028421591
 31
0.0
  0
LINE
  5
29B
330
1F
100
AcDbEntity
  8
AM_0
100
AcDbLine
 10
113.99821
 20
180.2838028421591
 30
0.0
 11
113.99821
 21
164.2838028421591
 31
0.0
  0
LINE
  5
29C
330
1F
100
AcDbEntity
  8
AM_0
100
AcDbLine
 10
120.79741
 20
164.2838028421591
 30
0.0
 11
120.79741
 21
180.2838028421591
 31
0.0
  0
LINE
  5
29D
330
1F
100
AcDbEntity
  8
AM_0
100
AcDbLine
 10
75.5405057226817
 20
156.4330113346738
 30
0.0
 11
82.91624767851201
 21
162.8867798260972
 31
0.0
  0
LINE
  5
29E
330
1F
100
AcDbEntity
  8
AM_0
100
AcDbLine
 10
91.69901000000002
 20
163.1342028421591
 30
0.0
 11
91.69901000000002
 21
156.4342028421592
 31
0.0
  0
LWPOLYLINE
  5
29F
330
1F
100
AcDbEntity
  8
AM_0
100
AcDbPolyline
 90
       10
 70
     0
 43
0.0
 10
83.57475195583032
 20
163.1342028421591
 10
83.48759621308272
 20
163.130397540251
 10
83.40110377816342
 20
163.1190105951713
 10
83.31593291072781
 20
163.1001286684482
 10
83.23273181250471
 20
163.073895462945
 10
83.15213369408963
 20
163.0405106291958
 10
83.07475195583032
 20
163.0002282459436
 10
83.00117551947932
 20
162.9533548864482
 10
82.93196434614381
 20
162.9002472852781
 10
82.91624767851201
 20
162.8867798260974
  0
LINE
  5
2A0
330
1F
100
AcDbEntity
  8
AM_0
100
AcDbLine
 10
97.69901000000002
 20
156.4342028421592
 30
0.0
 11
97.69901000000002
 21
163.1342028421591
 31
0.0
  0
LWPOLYLINE
  5
2A1
330
1F
100
AcDbEntity
  8
AM_0
100
AcDbPolyline
 90
       15
 70
     0
 43
0.0
 10
107.1181550300181
 20
162.5281221407383
 10
107.0803250766311
 20
162.6067319266639
 10
107.0357877833583
 20
162.6817454809352
 10
106.984882105894
 20
162.7525919051104
 10
106.9279954671812
 20
162.818732015123
 10
106.8655608088898
 20
162.8796624447994
 10
106.7980532964683
 20
162.9349194767788
 10
106.7259867028484
 20
162.9840825716827
 10
106.6499094983227
 20
163.0267775686737
 10
106.5704006763541
 20
163.0626795330444
 10
106.4880653470867
 20
163.091515229168
 10
106.4035301320915
 20
163.1130651999854
 10
106.3174383953985
 20
163.1271654372065
 10
106.2304453471075
 20
163.1337086295123
 10
106.19901
 20
163.1342028421591
  0
LINE
  5
2A2
330
1F
100
AcDbEntity
  8
AM_0
100
AcDbLine
 10
83.57475195583032
 20
163.1342028421591
 30
0.0
 11
106.19901
 21
163.1342028421591
 31
0.0
  0
ARC
  5
2A3
330
1F
100
AcDbEntity
  8
AM_0
100
AcDbCircle
 10
94.69901000000002
 20
152.7742028421594
 30
0.0
 40
5.999999999999833
100
AcDbArc
 50
74.5572841724196
 51
105.4427158275804
  0
ARC
  5
2A4
330
1F
100
AcDbEntity
  8
AM_0
100
AcDbCircle
 10
93.31438100133971
 20
157.7864680522281
 30
0.0
 40
0.8000000000000581
100
AcDbArc
 50
105.4427158275804
 51
174.9999999999955
  0
ARC
  5
2A5
330
1F
100
AcDbEntity
  8
AM_0
100
AcDbCircle
 10
96.0836389986604
 20
157.7864680522283
 30
0.0
 40
0.7999999999999471
100
AcDbArc
 50
4.9999999999989
 51
74.55728417242194
  0
LINE
  5
2A6
330
1F
100
AcDbEntity
  8
AM_4
100
AcDbLine
 10
96.29665884460809
 20
158.5575857768542
 30
0.0
 11
93.10136115539191
 21
158.5575857768542
 31
0.0
  0
LINE
  5
2A7
330
1F
100
AcDbEntity
  8
AM_0
100
AcDbLine
 10
92.51742524286621
 20
157.8561926464263
 30
0.0
 11
92.44901000000002
 21
157.0742028421591
 31
0.0
  0
LINE
  5
2A8
330
1F
100
AcDbEntity
  8
AM_0
100
AcDbLine
 10
96.94901000000002
 20
157.0742028421591
 30
0.0
 11
96.88059475713379
 21
157.8561926464263
 31
0.0
  0
LINE
  5
2A9
330
1F
100
AcDbEntity
  8
AM_4
100
AcDbLine
 10
96.88059475713379
 20
157.8561926464263
 30
0.0
 11
92.51742524286621
 21
157.8561926464263
 31
0.0
  0
LINE
  5
2AA
330
1F
100
AcDbEntity
  8
AM_0
100
AcDbLine
 10
92.19901000000002
 20
157.0742028421591
 30
0.0
 11
92.19901000000002
 21
156.4342028421592
 31
0.0
  0
LINE
  5
2AB
330
1F
100
AcDbEntity
  8
AM_0
100
AcDbLine
 10
97.19901000000002
 20
156.4342028421592
 30
0.0
 11
97.19901000000002
 21
157.0742028421591
 31
0.0
  0
LINE
  5
2AC
330
1F
100
AcDbEntity
  8
AM_0
100
AcDbLine
 10
97.19901000000002
 20
157.0742028421591
 30
0.0
 11
92.19901000000002
 21
157.0742028421591
 31
0.0
  0
LWPOLYLINE
  5
2AD
330
1F
100
AcDbEntity
  8
AM_0
100
AcDbPolyline
 90
        3
 70
     0
 43
0.0
 10
75.432665702722
 20
156.3228644387837
 10
75.49157334562602
 20
156.3872111047735
 10
75.5405057226817
 20
156.4330113346738
  0
LINE
  5
2AE
330
1F
100
AcDbEntity
  8
AM_4
100
AcDbLine
 10
97.69901000000002
 20
162.5281221407383
 30
0.0
 11
107.1181550300181
 21
162.5281221407383
 31
0.0
  0
LINE
  5
2AF
330
1F
100
AcDbEntity
  8
AM_0
100
AcDbLine
 10
97.69901000000002
 20
156.4342028421592
 30
0.0
 11
91.69901000000002
 21
156.4342028421592
 31
0.0
  0
LINE
  5
2B0
330
1F
100
AcDbEntity
  8
AM_4
100
AcDbLine
 10
82.5063528176724
 20
162.5281221407383
 30
0.0
 11
91.69901000000002
 21
162.5281221407383
 31
0.0
  0
LWPOLYLINE
  5
2B1
330
1F
100
AcDbEntity
  8
AM_0
100
AcDbPolyline
 90
        6
 70
     0
 43
0.0
 10
107.1181550300181
 20
162.5281221407383
 10
107.1489897347317
 20
162.4465143910956
 10
107.1725945200505
 20
162.3625297619867
 10
107.1887897393054
 20
162.2768074271505
 10
107.1974521370988
 20
162.1899997853153
 10
107.19901
 20
162.1342028421591
  0
LWPOLYLINE
  5
2B2
330
1F
100
AcDbEntity
  8
AM_0
100
AcDbPolyline
 90
        3
 70
     0
 43
0.0
 10
75.432665702722
 20
156.3228644387837
 10
75.28686393281941
 20
156.0902996360757
 10
75.2303808720477
 20
155.9289451402045
  0
LINE
  5
2B3
330
1F
100
AcDbEntity
  8
AM_4
100
AcDbLine
 10
75.432665702722
 20
156.3228644387837
 30
0.0
 11
107.19901
 21
156.3228644387837
 31
0.0
  0
LINE
  5
2B4
330
1F
100
AcDbEntity
  8
AM_0
100
AcDbLine
 10
75.19901000000002
 20
150.4342028421592
 30
0.0
 11
107.19901
 21
150.4342028421592
 31
0.0
  0
LINE
  5
2B5
330
1F
100
AcDbEntity
  8
AM_0
100
AcDbLine
 10
75.19901000000002
 20
155.6804343507357
 30
0.0
 11
75.19901000000002
 21
150.4342028421592
 31
0.0
  0
ARC
  5
2B6
330
1F
100
AcDbEntity
  8
AM_0
100
AcDbCircle
 10
76.1990100000013
 20
155.6804343507355
 30
0.0
 40
1.000000000001274
100
AcDbArc
 50
165.6105941327521
 51
179.9999999999919
  0
LINE
  5
2B7
330
1F
100
AcDbEntity
  8
AM_4
100
AcDbLine
 10
75.2303808720477
 20
155.9289451402045
 30
0.0
 11
107.19901
 21
155.9289451402045
 31
0.0
  0
LINE
  5
2B8
330
1F
100
AcDbEntity
  8
AM_0
100
AcDbLine
 10
107.19901
 20
162.1342028421591
 30
0.0
 11
107.19901
 21
150.4342028421592
 31
0.0
  0
LINE
  5
2B9
330
1F
100
AcDbEntity
  8
減速機
  6
Continuous
100
AcDbLine
 10
218.2287759943674
 20
60.67665541201627
 30
0.0
 11
218.2287759943674
 21
69.17665941201636
 31
0.0
  0
LINE
  5
2BA
330
1F
100
AcDbEntity
  8
減速機
  6
CENTER
 62
     4
100
AcDbLine
 10
211.0750279943675
 20
64.92665941201628
 30
0.0
 11
220.6474159943675
 21
64.92665941201628
 31
0.0
  0
LINE
  5
2BB
330
1F
100
AcDbEntity
  8
減速機
  6
Continuous
100
AcDbLine
 10
655.9543563400991
 20
34.05000200000001
 30
0.0
 11
647.4145613400992
 21
125.549266
 31
0.0
  0
LINE
  5
2BC
330
1F
100
AcDbEntity
  8
減速機
  6
Continuous
100
AcDbLine
 10
480.875010340099
 20
34.05000200000001
 30
0.0
 11
489.4152023400991
 21
125.548777
 31
0.0
  0
LINE
  5
2BD
330
1F
100
AcDbEntity
  8
減速機
  6
Continuous
100
AcDbLine
 10
582.9345813400992
 20
72.04999799999996
 30
0.0
 11
587.4947613400991
 21
72.04999799999996
 31
0.0
  0
LINE
  5
2BE
330
1F
100
AcDbEntity
  8
減速機
  6
Continuous
100
AcDbLine
 10
573.9345813400992
 20
72.04999799999996
 30
0.0
 11
577.8347883400991
 21
72.04999799999996
 31
0.0
  0
LINE
  5
2BF
330
1F
100
AcDbEntity
  8
減速機
  6
Continuous
100
AcDbLine
 10
573.9345813400992
 20
84.04999799999996
 30
0.0
 11
573.9345813400992
 21
72.04999799999996
 31
0.0
  0
LINE
  5
2C0
330
1F
100
AcDbEntity
  8
減速機
  6
Continuous
100
AcDbLine
 10
583.6338003400992
 20
84.04999799999996
 30
0.0
 11
573.9345813400992
 21
84.04999799999996
 31
0.0
  0
LINE
  5
2C1
330
1F
100
AcDbEntity
  8
減速機
  6
Continuous
100
AcDbLine
 10
587.4947613400991
 20
72.04999799999996
 30
0.0
 11
585.6947743400992
 21
75.04999799999996
 31
0.0
  0
LINE
  5
2C2
330
1F
100
AcDbEntity
  8
減速機
  6
Continuous
100
AcDbLine
 10
579.3347883400991
 20
78.04999799999996
 30
0.0
 11
582.9345813400992
 21
72.04999799999996
 31
0.0
  0
LINE
  5
2C3
330
1F
100
AcDbEntity
  8
減速機
  6
Continuous
100
AcDbLine
 10
579.3347883400991
 20
78.04999799999996
 30
0.0
 11
582.0348003400991
 21
78.04999799999996
 31
0.0
  0
LINE
  5
2C4
330
1F
100
AcDbEntity
  8
減速機
  6
Continuous
100
AcDbLine
 10
577.8347883400991
 20
79.84997799999996
 30
0.0
 11
577.8347883400991
 21
72.04999799999996
 31
0.0
  0
LINE
  5
2C5
330
1F
100
AcDbEntity
  8
減速機
  6
Continuous
100
AcDbLine
 10
577.8347883400991
 20
79.84997799999996
 30
0.0
 11
582.0348003400991
 21
79.84997799999996
 31
0.0
  0
LINE
  5
2C6
330
1F
100
AcDbEntity
  8
減速機
  6
Continuous
100
AcDbLine
 10
566.1345933400992
 20
72.04999799999996
 30
0.0
 11
570.3347883400991
 21
72.04999799999996
 31
0.0
  0
LINE
  5
2C7
330
1F
100
AcDbEntity
  8
減速機
  6
Continuous
100
AcDbLine
 10
564.0348003400991
 20
84.04999799999996
 30
0.0
 11
564.0348003400991
 21
79.84997799999996
 31
0.0
  0
LINE
  5
2C8
330
1F
100
AcDbEntity
  8
減速機
  6
Continuous
100
AcDbLine
 10
572.4345813400992
 20
84.04999799999996
 30
0.0
 11
572.4345813400992
 21
79.84997799999996
 31
0.0
  0
LINE
  5
2C9
330
1F
100
AcDbEntity
  8
減速機
  6
Continuous
100
AcDbLine
 10
564.0348003400991
 20
84.04999799999996
 30
0.0
 11
572.4345813400992
 21
84.04999799999996
 31
0.0
  0
LINE
  5
2CA
330
1F
100
AcDbEntity
  8
減速機
  6
Continuous
100
AcDbLine
 10
570.3347883400991
 20
79.84997799999996
 30
0.0
 11
570.3347883400991
 21
72.04999799999996
 31
0.0
  0
LINE
  5
2CB
330
1F
100
AcDbEntity
  8
減速機
  6
Continuous
100
AcDbLine
 10
566.1345933400992
 20
79.84997799999996
 30
0.0
 11
566.1345933400992
 21
72.04999799999996
 31
0.0
  0
LINE
  5
2CC
330
1F
100
AcDbEntity
  8
減速機
  6
Continuous
100
AcDbLine
 10
570.3347883400991
 20
79.84997799999996
 30
0.0
 11
572.4345813400992
 21
79.84997799999996
 31
0.0
  0
LINE
  5
2CD
330
1F
100
AcDbEntity
  8
減速機
  6
Continuous
100
AcDbLine
 10
564.0348003400991
 20
79.84997799999996
 30
0.0
 11
566.1345933400992
 21
79.84997799999996
 31
0.0
  0
LINE
  5
2CE
330
1F
100
AcDbEntity
  8
減速機
  6
Continuous
100
AcDbLine
 10
555.537364340099
 20
84.04999799999996
 30
0.0
 11
562.5348003400991
 21
84.04999799999996
 31
0.0
  0
LINE
  5
2CF
330
1F
100
AcDbEntity
  8
減速機
  6
Continuous
100
AcDbLine
 10
562.5348003400991
 20
79.84997799999996
 30
0.0
 11
562.5348003400991
 21
84.04999799999996
 31
0.0
  0
LINE
  5
2D0
330
1F
100
AcDbEntity
  8
減速機
  6
Continuous
100
AcDbLine
 10
562.5348003400991
 20
78.04999799999996
 30
0.0
 11
562.5348003400991
 21
72.04999799999996
 31
0.0
  0
LINE
  5
2D1
330
1F
100
AcDbEntity
  8
減速機
  6
Continuous
100
AcDbLine
 10
558.6345933400992
 20
78.04999799999996
 30
0.0
 11
562.5348003400991
 21
78.04999799999996
 31
0.0
  0
LINE
  5
2D2
330
1F
100
AcDbEntity
  8
減速機
  6
Continuous
100
AcDbLine
 10
550.774791340099
 20
72.04999799999996
 30
0.0
 11
562.5348003400991
 21
72.04999799999996
 31
0.0
  0
LINE
  5
2D3
330
1F
100
AcDbEntity
  8
減速機
  6
Continuous
100
AcDbLine
 10
556.449779340099
 20
79.84997799999996
 30
0.0
 11
562.5348003400991
 21
79.84997799999996
 31
0.0
  0
LINE
  5
2D4
330
1F
100
AcDbEntity
  8
減速機
  6
Continuous
100
AcDbLine
 10
554.998546340099
 20
73.24995699999997
 30
0.0
 11
558.6345933400992
 21
73.24995699999997
 31
0.0
  0
LINE
  5
2D5
330
1F
100
AcDbEntity
  8
減速機
  6
Continuous
100
AcDbLine
 10
558.6345933400992
 20
78.04999799999996
 30
0.0
 11
558.6345933400992
 21
73.24995699999997
 31
0.0
  0
LINE
  5
2D6
330
1F
100
AcDbEntity
  8
減速機
  6
Continuous
100
AcDbLine
 10
602.9147443400991
 20
34.05000200000001
 30
0.0
 11
655.9543563400991
 21
34.05000200000001
 31
0.0
  0
LINE
  5
2D7
330
1F
100
AcDbEntity
  8
減速機
  6
Continuous
100
AcDbLine
 10
533.9147443400991
 20
34.05000200000001
 30
0.0
 11
480.875010340099
 21
34.05000200000001
 31
0.0
  0
LINE
  5
2D8
330
1F
100
AcDbEntity
  8
減速機
  6
Continuous
100
AcDbLine
 10
521.168010340099
 20
71.72590099999996
 30
0.0
 11
514.1122243400989
 21
52.33906099999997
 31
0.0
  0
LINE
  5
2D9
330
1F
100
AcDbEntity
  8
減速機
  6
Continuous
100
AcDbLine
 10
602.9147443400991
 20
34.05000200000001
 30
0.0
 11
604.1199453400991
 21
44.61657999999997
 31
0.0
  0
LINE
  5
2DA
330
1F
100
AcDbEntity
  8
減速機
  6
Continuous
100
AcDbLine
 10
609.6877553400991
 20
64.74788199999998
 30
0.0
 11
613.935985340099
 21
53.07612099999997
 31
0.0
  0
LINE
  5
2DB
330
1F
100
AcDbEntity
  8
減速機
  6
Continuous
100
AcDbLine
 10
615.6612043400992
 20
71.72664099999997
 30
0.0
 11
622.7173573400992
 21
52.33991899999997
 31
0.0
  0
LINE
  5
2DC
330
1F
100
AcDbEntity
  8
減速機
  6
Continuous
100
AcDbLine
 10
533.9147443400991
 20
34.05000200000001
 30
0.0
 11
532.709605340099
 21
44.61657999999997
 31
0.0
  0
LINE
  5
2DD
330
1F
100
AcDbEntity
  8
減速機
  6
DASHED
100
AcDbLine
 10
503.914775340099
 20
49.05000199999998
 30
0.0
 11
503.914775340099
 21
34.05000200000001
 31
0.0
  0
LINE
  5
2DE
330
1F
100
AcDbEntity
  8
減速機
  6
DASHED
100
AcDbLine
 10
492.914775340099
 20
49.05000199999998
 30
0.0
 11
492.914775340099
 21
34.05000200000001
 31
0.0
  0
LINE
  5
2DF
330
1F
100
AcDbEntity
  8
減速機
  6
CENTER
 62
     4
100
AcDbLine
 10
498.414775340099
 20
55.78521999999997
 30
0.0
 11
498.414775340099
 21
27.34932000000001
 31
0.0
  0
LINE
  5
2E0
330
1F
100
AcDbEntity
  8
減速機
  6
Continuous
100
AcDbLine
 10
527.1420093400991
 20
64.74788199999998
 30
0.0
 11
522.8935963400991
 21
53.07612099999997
 31
0.0
  0
LINE
  5
2E1
330
1F
100
AcDbEntity
  8
減速機
  6
Continuous
100
AcDbLine
 10
527.7418013400991
 20
49.05000199999998
 30
0.0
 11
486.830211340099
 21
49.04987999999997
 31
0.0
  0
LINE
  5
2E2
330
1F
100
AcDbEntity
  8
減速機
  6
DASHED
100
AcDbLine
 10
632.9145613400992
 20
49.05000199999998
 30
0.0
 11
632.9145613400992
 21
34.05000200000001
 31
0.0
  0
LINE
  5
2E3
330
1F
100
AcDbEntity
  8
減速機
  6
DASHED
100
AcDbLine
 10
643.9145613400992
 20
49.05000199999998
 30
0.0
 11
643.9145613400992
 21
34.05000200000001
 31
0.0
  0
LINE
  5
2E4
330
1F
100
AcDbEntity
  8
減速機
  6
CENTER
 62
     4
100
AcDbLine
 10
638.4145613400992
 20
55.78521999999997
 30
0.0
 11
638.4145613400992
 21
27.34932000000001
 31
0.0
  0
LINE
  5
2E5
330
1F
100
AcDbEntity
  8
減速機
  6
Continuous
100
AcDbLine
 10
609.0877793400991
 20
49.05000199999998
 30
0.0
 11
649.9994003400991
 21
49.05000199999998
 31
0.0
  0
LINE
  5
2E6
330
1F
100
AcDbEntity
  8
減速機
  6
CENTER
 62
     4
100
AcDbLine
 10
458.614787340099
 20
120.549998
 30
0.0
 11
678.2147323400991
 21
120.549998
 31
0.0
  0
LINE
  5
2E7
330
1F
100
AcDbEntity
  8
減速機
  6
CENTER
 62
     4
100
AcDbLine
 10
527.5741993400991
 20
144.049998
 30
0.0
 11
608.9917713400991
 21
144.049998
 31
0.0
  0
LINE
  5
2E8
330
1F
100
AcDbEntity
  8
減速機
  6
CENTER
 62
     4
100
AcDbLine
 10
568.4147443400991
 20
222.6599989999999
 30
0.0
 11
568.4147443400991
 21
16.3
 31
0.0
  0
LINE
  5
2E9
330
1F
100
AcDbEntity
  8
減速機
  6
Continuous
100
AcDbLine
 10
223.8617259943675
 20
79.50264741201636
 30
0.0
 11
219.5333259943674
 21
79.50264741201636
 31
0.0
  0
LINE
  5
2EA
330
1F
100
AcDbEntity
  8
減速機
  6
Continuous
100
AcDbLine
 10
223.8617259943675
 20
65.85665141201628
 30
0.0
 11
219.5333259943674
 21
65.85665141201628
 31
0.0
  0
LINE
  5
2EB
330
1F
100
AcDbEntity
  8
減速機
  6
Continuous
100
AcDbLine
 10
311.9594119943674
 20
44.60316941201627
 30
0.0
 11
313.2289439943675
 21
33.93417041201631
 31
0.0
  0
LINE
  5
2EC
330
1F
100
AcDbEntity
  8
減速機
  6
Continuous
100
AcDbLine
 10
189.4942789943674
 20
44.60136041201628
 30
0.0
 11
188.2289439943675
 21
33.93417041201631
 31
0.0
  0
LINE
  5
2ED
330
1F
100
AcDbEntity
  8
減速機
  6
Continuous
100
AcDbLine
 10
313.7287299943674
 20
158.9342884120163
 30
0.0
 11
315.7287299943674
 21
158.9342884120163
 31
0.0
  0
LINE
  5
2EE
330
1F
100
AcDbEntity
  8
減速機
  6
Continuous
100
AcDbLine
 10
360.7287299943674
 20
157.9342884120163
 30
0.0
 11
360.7287299943674
 21
129.9342884120163
 31
0.0
  0
LINE
  5
2EF
330
1F
100
AcDbEntity
  8
減速機
  6
Continuous
100
AcDbLine
 10
313.7287299943674
 20
128.9342884120163
 30
0.0
 11
315.7287299943674
 21
128.9342884120163
 31
0.0
  0
LINE
  5
2F0
330
1F
100
AcDbEntity
  8
減速機
  6
Continuous
100
AcDbLine
 10
315.7287299943674
 20
158.9342884120163
 30
0.0
 11
315.7287299943674
 21
128.9342884120163
 31
0.0
  0
LINE
  5
2F1
330
1F
100
AcDbEntity
  8
減速機
  6
DASHED
100
AcDbLine
 10
290.2289439943675
 20
49.30574841201627
 30
0.0
 11
290.2289439943675
 21
33.93417041201631
 31
0.0
  0
LINE
  5
2F2
330
1F
100
AcDbEntity
  8
減速機
  6
CENTER
 62
     4
100
AcDbLine
 10
280.2287299943674
 20
120.4340524120163
 30
0.0
 11
127.7978369943675
 21
120.4342274120164
 31
0.0
  0
LINE
  5
2F3
330
1F
100
AcDbEntity
  8
減速機
  6
Continuous
100
AcDbLine
 10
194.3721929943674
 20
49.01163141201627
 30
0.0
 11
218.8683329943673
 21
49.43927041201627
 31
0.0
  0
LINE
  5
2F4
330
1F
100
AcDbEntity
  8
減速機
  6
Continuous
100
AcDbLine
 10
307.1341259943674
 20
49.01070841201627
 30
0.0
 11
284.4033209943673
 21
49.40749041201627
 31
0.0
  0
LINE
  5
2F5
330
1F
100
AcDbEntity
  8
減速機
  6
Continuous
100
AcDbLine
 10
226.3103339943673
 20
65.85665141201628
 30
0.0
 11
225.0369269943674
 21
65.85665141201628
 31
0.0
  0
LINE
  5
2F6
330
1F
100
AcDbEntity
  8
減速機
  6
Continuous
100
AcDbLine
 10
226.2677319943675
 20
79.50264741201636
 30
0.0
 11
225.0369269943674
 21
79.50264741201636
 31
0.0
  0
LINE
  5
2F7
330
1F
100
AcDbEntity
  8
減速機
  6
Continuous
100
AcDbLine
 10
313.2289439943675
 20
33.93417041201631
 30
0.0
 11
188.2289439943675
 21
33.93417041201631
 31
0.0
  0
LINE
  5
2F8
330
1F
100
AcDbEntity
  8
減速機
  6
CENTER
 62
     4
100
AcDbLine
 10
295.7289439943675
 20
57.35548841201627
 30
0.0
 11
295.7289439943675
 21
27.47201041201632
 31
0.0
  0
LINE
  5
2F9
330
1F
100
AcDbEntity
  8
減速機
  6
Continuous
100
AcDbLine
 10
226.7283329943675
 20
57.43795041201628
 30
0.0
 11
226.7283329943675
 21
122.1841664120163
 31
0.0
  0
LINE
  5
2FA
330
1F
100
AcDbEntity
  8
減速機
  6
CENTER
 62
     4
100
AcDbLine
 10
255.6865239943675
 20
143.9342884120163
 30
0.0
 11
375.7287299943674
 21
143.9342884120163
 31
0.0
  0
LINE
  5
2FB
330
1F
100
AcDbEntity
  8
減速機
  6
DASHED
100
AcDbLine
 10
301.2287299943674
 20
49.11378941201627
 30
0.0
 11
301.2287299943674
 21
33.93417041201631
 31
0.0
  0
LINE
  5
2FC
330
1F
100
AcDbEntity
  8
減速機
  6
Continuous
100
AcDbLine
 10
313.7287299943674
 20
116.9342884120163
 30
0.0
 11
313.7287299943674
 21
170.9342884120163
 31
0.0
  0
LINE
  5
2FD
330
1F
100
AcDbEntity
  8
減速機
  6
DASHED
100
AcDbLine
 10
200.2289439943675
 20
49.11378941201627
 30
0.0
 11
200.2289439943675
 21
33.93417041201631
 31
0.0
  0
LINE
  5
2FE
330
1F
100
AcDbEntity
  8
減速機
  6
DASHED
100
AcDbLine
 10
211.2289279943674
 20
49.30588941201627
 30
0.0
 11
211.2289279943674
 21
33.93417041201631
 31
0.0
  0
LINE
  5
2FF
330
1F
100
AcDbEntity
  8
減速機
  6
CENTER
 62
     4
100
AcDbLine
 10
205.7289439943675
 20
57.35548841201627
 30
0.0
 11
205.7289439943675
 21
27.47201041201632
 31
0.0
  0
ARC
  5
300
330
1F
100
AcDbEntity
  8
減速機
  6
Continuous
100
AcDbCircle
 10
194.4594729943673
 20
44.01239441201628
 30
0.0
 40
5.0
100
AcDbArc
 50
91.00013
 51
173.23526
  0
ARC
  5
301
330
1F
100
AcDbEntity
  8
減速機
  6
Continuous
100
AcDbCircle
 10
307.9483649943675
 20
51.95531141201627
 30
0.0
 40
3.0
100
AcDbArc
 50
196.193069
 51
263.151733
  0
ARC
  5
302
330
1F
100
AcDbEntity
  8
減速機
  6
Continuous
100
AcDbCircle
 10
306.9944469943675
 20
44.01238641201627
 30
0.0
 40
5.0
100
AcDbArc
 50
6.785721000000001
 51
88.99996900000002
  0
ARC
  5
303
330
1F
100
AcDbEntity
  8
減速機
  6
Continuous
100
AcDbCircle
 10
568.4146833400991
 20
120.549998
 30
0.0
 40
81.0
100
AcDbArc
 50
79.65975999999998
 51
100.3433
  0
ARC
  5
304
330
1F
100
AcDbEntity
  8
減速機
  6
Continuous
100
AcDbCircle
 10
568.4145613400992
 20
120.549998
 30
0.0
 40
81.0
100
AcDbArc
 50
79.423531
 51
100.463799
  0
ARC
  5
305
330
1F
100
AcDbEntity
  8
減速機
  6
Continuous
100
AcDbCircle
 10
649.9994003400991
 20
44.05011999999998
 30
0.0
 40
5.0
100
AcDbArc
 50
5.332099999999999
 51
90.0
  0
ARC
  5
306
330
1F
100
AcDbEntity
  8
減速機
  6
Continuous
100
AcDbCircle
 10
486.830211340099
 20
44.05005899999998
 30
0.0
 40
5.0
100
AcDbArc
 50
90.0
 51
174.667694
  0
ARC
  5
307
330
1F
100
AcDbEntity
  8
減速機
  6
Continuous
100
AcDbCircle
 10
599.0415753400991
 20
33.80586099999999
 30
0.0
 40
4.0
100
AcDbArc
 50
10.71911
 51
80.54208399999999
  0
ARC
  5
308
330
1F
100
AcDbEntity
  8
減速機
  6
Continuous
100
AcDbCircle
 10
537.790355340099
 20
33.818179
 30
0.0
 40
4.0
100
AcDbArc
 50
96.95707700000003
 51
169.458496
  0
ARC
  5
309
330
1F
100
AcDbEntity
  8
減速機
  6
Continuous
100
AcDbCircle
 10
568.416758340099
 20
71.04999799999996
 30
0.0
 40
130.0
100
AcDbArc
 50
89.56044000000001
 51
108.801201
  0
ARC
  5
30A
330
1F
100
AcDbEntity
  8
減速機
  6
Continuous
100
AcDbCircle
 10
568.4151723400992
 20
71.04999799999996
 30
0.0
 40
130.0
100
AcDbArc
 50
71.19986
 51
89.55969199999998
  0
ARC
  5
30B
330
1F
100
AcDbEntity
  8
減速機
  6
Continuous
100
AcDbCircle
 10
568.4147443400991
 20
-108.950002
 30
0.0
 40
150.0
100
AcDbArc
 50
77.820557
 51
102.244003
  0
ARC
  5
30C
330
1F
100
AcDbEntity
  8
減速機
  6
Continuous
100
AcDbCircle
 10
568.4127913400991
 20
71.04999799999996
 30
0.0
 40
123.5
100
AcDbArc
 50
72.003166
 51
90.0
  0
ARC
  5
30D
330
1F
100
AcDbEntity
  8
減速機
  6
Continuous
100
AcDbCircle
 10
568.4165753400991
 20
71.04999799999996
 30
0.0
 40
123.5
100
AcDbArc
 50
90.0
 51
107.996803
  0
ARC
  5
30E
330
1F
100
AcDbEntity
  8
減速機
  6
Continuous
100
AcDbCircle
 10
583.6338003400992
 20
81.64998099999997
 30
0.0
 40
2.4
100
AcDbArc
 50
59.133099
 51
90.0
  0
ARC
  5
30F
330
1F
100
AcDbEntity
  8
減速機
  6
Continuous
100
AcDbCircle
 10
582.094798340099
 20
79.07489999999999
 30
0.0
 40
5.4
100
AcDbArc
 50
311.810425
 51
59.132992
  0
ARC
  5
310
330
1F
100
AcDbEntity
  8
減速機
  6
Continuous
100
AcDbCircle
 10
582.0348003400991
 20
78.95002199999996
 30
0.0
 40
0.9
100
AcDbArc
 50
270.0
 51
90.0
  0
ARC
  5
311
330
1F
100
AcDbEntity
  8
減速機
  6
Continuous
100
AcDbCircle
 10
556.449779340099
 20
77.45002199999996
 30
0.0
 40
2.4
100
AcDbArc
 50
90.0
 51
135.546204
  0
ARC
  5
312
330
1F
100
AcDbEntity
  8
減速機
  6
Continuous
100
AcDbCircle
 10
555.537364340099
 20
80.45002199999996
 30
0.0
 40
3.6
100
AcDbArc
 50
90.0
 51
112.352699
  0
ARC
  5
313
330
1F
100
AcDbEntity
  8
減速機
  6
Continuous
100
AcDbCircle
 10
554.998546340099
 20
73.84997799999996
 30
0.0
 40
0.6
100
AcDbArc
 50
220.530197
 51
270.0
  0
ARC
  5
314
330
1F
100
AcDbEntity
  8
減速機
  6
Continuous
100
AcDbCircle
 10
557.734752340099
 20
76.18940199999997
 30
0.0
 40
4.2
100
AcDbArc
 50
135.546097
 51
220.529007
  0
ARC
  5
315
330
1F
100
AcDbEntity
  8
減速機
  6
Continuous
100
AcDbCircle
 10
557.134593340099
 20
76.56562299999996
 30
0.0
 40
7.8
100
AcDbArc
 50
112.352501
 51
215.374496
  0
ARC
  5
316
330
1F
100
AcDbEntity
  8
減速機
  6
Continuous
100
AcDbCircle
 10
596.1468003400992
 20
87.29841900000008
 30
0.0
 40
22.9
100
AcDbArc
 50
292.62207
 51
294.4543150000001
  0
ARC
  5
317
330
1F
100
AcDbEntity
  8
減速機
  6
Continuous
100
AcDbCircle
 10
596.1468003400992
 20
87.29841900000008
 30
0.0
 40
22.9
100
AcDbArc
 50
330.209381
 51
336.421875
  0
ARC
  5
318
330
1F
100
AcDbEntity
  8
減速機
  6
Continuous
100
AcDbCircle
 10
620.3599963400991
 20
73.43671699999996
 30
0.0
 40
5.0
100
AcDbArc
 50
150.209396
 51
199.999802
  0
ARC
  5
319
330
1F
100
AcDbEntity
  8
減速機
  6
Continuous
100
AcDbCircle
 10
606.8686023400992
 20
63.72188099999997
 30
0.0
 40
3.0
100
AcDbArc
 50
19.999969
 51
114.454597
  0
ARC
  5
31A
330
1F
100
AcDbEntity
  8
減速機
  6
Continuous
100
AcDbCircle
 10
609.0877793400991
 20
44.05000199999998
 30
0.0
 40
5.0
100
AcDbArc
 50
90.0
 51
173.492493
  0
ARC
  5
31B
330
1F
100
AcDbEntity
  8
減速機
  6
Continuous
100
AcDbCircle
 10
596.1468003400992
 20
87.29841900000008
 30
0.0
 40
30.0
100
AcDbArc
 50
320.972504
 51
331.775604
  0
ARC
  5
31C
330
1F
100
AcDbEntity
  8
減速機
  6
Continuous
100
AcDbCircle
 10
596.1468003400992
 20
87.29841900000008
 30
0.0
 40
30.0
100
AcDbArc
 50
283.362091
 51
290.019714
  0
ARC
  5
31D
330
1F
100
AcDbEntity
  8
減速機
  6
Continuous
100
AcDbCircle
 10
623.3359483400991
 20
65.25885999999997
 30
0.0
 40
5.0
100
AcDbArc
 50
140.972397
 51
200.000397
  0
ARC
  5
31E
330
1F
100
AcDbEntity
  8
減速機
  6
Continuous
100
AcDbCircle
 10
608.1285503400991
 20
54.41316099999997
 30
0.0
 40
5.0
100
AcDbArc
 50
20.00031099999999
 51
110.0196
  0
ARC
  5
31F
330
1F
100
AcDbEntity
  8
減速機
  6
Continuous
100
AcDbCircle
 10
627.4157823400992
 20
54.05000199999998
 30
0.0
 40
5.0
100
AcDbArc
 50
199.999893
 51
270.0
  0
ARC
  5
320
330
1F
100
AcDbEntity
  8
減速機
  6
Continuous
100
AcDbCircle
 10
611.116954340099
 20
52.05000199999998
 30
0.0
 40
3.0
100
AcDbArc
 50
270.0
 51
20.00031099999999
  0
ARC
  5
321
330
1F
100
AcDbEntity
  8
減速機
  6
Continuous
100
AcDbCircle
 10
540.6827503400991
 20
87.29841900000008
 30
0.0
 40
22.9
100
AcDbArc
 50
245.5457
 51
247.377899
  0
ARC
  5
322
330
1F
100
AcDbEntity
  8
減速機
  6
Continuous
100
AcDbCircle
 10
516.470012340099
 20
73.43671699999996
 30
0.0
 40
5.0
100
AcDbArc
 50
340.0001829999999
 51
29.790609
  0
ARC
  5
323
330
1F
100
AcDbEntity
  8
減速機
  6
Continuous
100
AcDbCircle
 10
529.9609483400991
 20
63.72188099999997
 30
0.0
 40
3.0
100
AcDbArc
 50
65.545433
 51
160.0
  0
ARC
  5
324
330
1F
100
AcDbEntity
  8
減速機
  6
Continuous
100
AcDbCircle
 10
527.7418013400991
 20
44.05000199999998
 30
0.0
 40
5.0
100
AcDbArc
 50
6.507492
 51
90.0
  0
ARC
  5
325
330
1F
100
AcDbEntity
  8
減速機
  6
Continuous
100
AcDbCircle
 10
540.6827503400991
 20
87.29841900000008
 30
0.0
 40
30.0
100
AcDbArc
 50
208.224396
 51
219.027496
  0
ARC
  5
326
330
1F
100
AcDbEntity
  8
減速機
  6
Continuous
100
AcDbCircle
 10
540.6827503400991
 20
87.29841900000008
 30
0.0
 40
30.0
100
AcDbArc
 50
249.980301
 51
256.637909
  0
ARC
  5
327
330
1F
100
AcDbEntity
  8
減速機
  6
Continuous
100
AcDbCircle
 10
513.4932053400989
 20
65.25885999999997
 30
0.0
 40
5.0
100
AcDbArc
 50
339.999603
 51
39.027561
  0
ARC
  5
328
330
1F
100
AcDbEntity
  8
減速機
  6
Continuous
100
AcDbCircle
 10
528.7010303400989
 20
54.41316099999997
 30
0.0
 40
5.0
100
AcDbArc
 50
69.980423
 51
159.999695
  0
ARC
  5
329
330
1F
100
AcDbEntity
  8
減速機
  6
Continuous
100
AcDbCircle
 10
509.413798340099
 20
54.05000199999998
 30
0.0
 40
5.0
100
AcDbArc
 50
270.0
 51
340.000092
  0
ARC
  5
32A
330
1F
100
AcDbEntity
  8
減速機
  6
Continuous
100
AcDbCircle
 10
525.7128103400989
 20
52.05000199999998
 30
0.0
 40
3.0
100
AcDbArc
 50
159.999695
 51
270.0
  0
ARC
  5
32B
330
1F
100
AcDbEntity
  8
減速機
  6
Continuous
100
AcDbCircle
 10
568.4147443400991
 20
204.049998
 30
0.0
 40
150.0
100
AcDbArc
 50
256.638
 51
270.0
  0
ARC
  5
32C
330
1F
100
AcDbEntity
  8
減速機
  6
Continuous
100
AcDbCircle
 10
646.4145613400992
 20
144.049998
 30
0.0
 40
150.0
100
AcDbArc
 50
190.777298
 51
208.224594
  0
ARC
  5
32D
330
1F
100
AcDbEntity
  8
減速機
  6
Continuous
100
AcDbCircle
 10
568.4147443400991
 20
204.049998
 30
0.0
 40
150.0
100
AcDbArc
 50
270.0
 51
283.362
  0
ARC
  5
32E
330
1F
100
AcDbEntity
  8
減速機
  6
Continuous
100
AcDbCircle
 10
490.414775340099
 20
144.049998
 30
0.0
 40
150.0
100
AcDbArc
 50
331.775391
 51
349.223602
  0
ARC
  5
32F
330
1F
100
AcDbEntity
  8
減速機
  6
Continuous
100
AcDbCircle
 10
237.6189279943674
 20
266.3258904120163
 30
0.0
 40
200.0
100
AcDbArc
 50
281.749207
 51
287.516693
  0
ARC
  5
330
330
1F
100
AcDbEntity
  8
減速機
  6
Continuous
100
AcDbCircle
 10
304.2289439943675
 20
74.00827041201626
 30
0.0
 40
3.0
100
AcDbArc
 50
121.096397
 51
182.9534
  0
ARC
  5
331
330
1F
100
AcDbEntity
  8
減速機
  6
Continuous
100
AcDbCircle
 10
218.7287299943674
 20
57.43795041201628
 30
0.0
 40
8.0
100
AcDbArc
 50
271.000214
 51
0.0
  0
ARC
  5
332
330
1F
100
AcDbEntity
  8
減速機
  6
Continuous
100
AcDbCircle
 10
284.4905399943673
 20
54.40688741201627
 30
0.0
 40
5.0
100
AcDbArc
 50
200.399399
 51
269.000092
  0
ARC
  5
333
330
1F
100
AcDbEntity
  8
減速機
  6
Continuous
100
AcDbCircle
 10
221.7289279943674
 20
122.1841664120163
 30
0.0
 40
5.0
100
AcDbArc
 50
0.0
 51
53.13131
  0
ARC
  5
334
330
1F
100
AcDbEntity
  8
減速機
  6
Continuous
100
AcDbCircle
 10
401.1001289943675
 20
79.00618741201626
 30
0.0
 40
100.0
100
AcDbArc
 50
182.907303
 51
196.193069
  0
ARC
  5
335
330
1F
100
AcDbEntity
  8
減速機
  6
Continuous
100
AcDbCircle
 10
290.3415229943674
 20
73.93392941201628
 30
0.0
 40
20.0
100
AcDbArc
 50
310.0136110000001
 51
356.582489
  0
ARC
  5
336
330
1F
100
AcDbEntity
  8
減速機
  6
Continuous
100
AcDbCircle
 10
310.7287299943674
 20
116.9342884120163
 30
0.0
 40
3.0
100
AcDbArc
 50
288.964691
 51
0.0
  0
ARC
  5
337
330
1F
100
AcDbEntity
  8
減速機
  6
Continuous
100
AcDbCircle
 10
594.6743883400991
 20
151.891307
 30
0.0
 40
38.5
100
AcDbArc
 50
64.31192772424198
 51
72.00289199999997
  0
ARC
  5
338
330
1F
100
AcDbEntity
  8
減速機
  6
Continuous
100
AcDbCircle
 10
594.6743883400991
 20
151.891307
 30
0.0
 40
38.5
100
AcDbArc
 50
33.72311229587069
 51
33.823059989593
  0
ARC
  5
339
330
1F
100
AcDbEntity
  8
減速機
  6
Continuous
100
AcDbCircle
 10
538.4147443400991
 20
127.049998
 30
0.0
 40
100.0
100
AcDbArc
 50
354.1475520000001
 51
20.31747159586653
  0
ARC
  5
33A
330
1F
100
AcDbEntity
  8
減速機
  6
Continuous
100
AcDbCircle
 10
594.6743883400991
 20
151.891307
 30
0.0
 40
38.5
100
AcDbArc
 50
43.36586801529308
 51
43.49924788317014
  0
ARC
  5
33B
330
1F
100
AcDbEntity
  8
減速機
  6
Continuous
100
AcDbCircle
 10
594.6743883400991
 20
151.891307
 30
0.0
 40
38.5
100
AcDbArc
 50
52.98698903804026
 51
56.42096313266277
  0
ARC
  5
33C
330
1F
100
AcDbEntity
  8
減速機
  6
Continuous
100
AcDbCircle
 10
595.8067733400992
 20
151.514781
 30
0.0
 40
45.0
100
AcDbArc
 50
60.13924891270154
 51
71.19866200000004
  0
ARC
  5
33D
330
1F
100
AcDbEntity
  8
減速機
  6
Continuous
100
AcDbCircle
 10
595.8067733400992
 20
151.514781
 30
0.0
 40
45.0
100
AcDbArc
 50
38.2308118191519
 51
38.6169541783212
  0
ARC
  5
33E
330
1F
100
AcDbEntity
  8
減速機
  6
Continuous
100
AcDbCircle
 10
499.862224340099
 20
114.049876
 30
0.0
 40
148.0
100
AcDbArc
 50
4.456284000000003
 51
20.33916442644892
  0
ARC
  5
33F
330
1F
100
AcDbEntity
  8
減速機
  6
Continuous
100
AcDbCircle
 10
541.022960340099
 20
151.514781
 30
0.0
 40
45.0
100
AcDbArc
 50
108.8013000000001
 51
119.7957179239503
  0
ARC
  5
340
330
1F
100
AcDbEntity
  8
減速機
  6
Continuous
100
AcDbCircle
 10
541.022960340099
 20
151.514781
 30
0.0
 40
45.0
100
AcDbArc
 50
141.3200144681426
 51
141.7062199492892
  0
ARC
  5
341
330
1F
100
AcDbEntity
  8
減速機
  6
Continuous
100
AcDbCircle
 10
636.9679673400992
 20
114.049876
 30
0.0
 40
148.0
100
AcDbArc
 50
159.6609614348204
 51
175.543701
  0
ARC
  5
342
330
1F
100
AcDbEntity
  8
減速機
  6
Continuous
100
AcDbCircle
 10
542.155162340099
 20
151.891307
 30
0.0
 40
38.5
100
AcDbArc
 50
107.997101
 51
115.6083098368597
  0
ARC
  5
343
330
1F
100
AcDbEntity
  8
減速機
  6
Continuous
100
AcDbCircle
 10
542.155162340099
 20
151.891307
 30
0.0
 40
38.5
100
AcDbArc
 50
123.4579931515388
 51
126.8022011582747
  0
ARC
  5
344
330
1F
100
AcDbEntity
  8
減速機
  6
Continuous
100
AcDbCircle
 10
598.4147443400991
 20
127.049998
 30
0.0
 40
100.0
100
AcDbArc
 50
159.6825103857668
 51
185.8535
  0
ARC
  5
345
330
1F
100
AcDbEntity
  8
減速機
  6
Continuous
100
AcDbCircle
 10
542.155162340099
 20
151.891307
 30
0.0
 40
38.5
100
AcDbArc
 50
146.176940010407
 51
146.5020217936412
  0
ARC
  5
346
330
1F
100
AcDbEntity
  8
減速機
  6
Continuous
100
AcDbCircle
 10
542.155162340099
 20
151.891307
 30
0.0
 40
38.5
100
AcDbArc
 50
136.5007521168299
 51
136.5591347081922
  0
ARC
  5
347
330
1F
100
AcDbEntity
  8
減速機
  6
Continuous
100
AcDbCircle
 10
429.7695319943675
 20
108.4342884120163
 30
0.0
 40
160.0
100
AcDbArc
 50
156.4213810514764
 51
200.399704
  0
ARC
  5
348
330
1F
100
AcDbEntity
  8
減速機
  6
Continuous
100
AcDbCircle
 10
310.7287299943674
 20
170.9342884120163
 30
0.0
 40
3.0
100
AcDbArc
 50
0.0
 51
30.02801678004679
  0
ARC
  5
349
330
1F
100
AcDbEntity
  8
減速機
  6
Continuous
100
AcDbCircle
 10
-488.2712700056325
 20
120.4340524120163
 30
0.0
 40
800.0
100
AcDbArc
 50
356.582275
 51
3.726960130520292
  0
LINE
  5
34A
330
1F
100
AcDbEntity
  8
減速機
  6
Continuous
100
AcDbLine
 10
224.7287299943674
 20
52.14642741201627
 30
0.0
 11
224.7285699196505
 21
172.4351393888838
 31
0.0
  0
LINE
  5
34B
330
1F
100
AcDbEntity
  8
減速機
  6
Continuous
100
AcDbLine
 10
218.2290536255836
 20
171.2076973514211
 30
0.0
 11
218.2287299943674
 21
49.42810841201627
 31
0.0
  0
LINE
  5
34C
330
1F
100
AcDbEntity
  8
減速機
  6
Continuous
100
AcDbLine
 10
338.4090239943678
 20
157.9342884120163
 30
0.0
 11
360.7287299943674
 21
157.9342884120163
 31
0.0
  0
LINE
  5
34D
330
1F
100
AcDbEntity
  8
減速機
  6
Continuous
100
AcDbLine
 10
328.3090239943677
 20
139.9342884120163
 30
0.0
 11
328.4090239943678
 21
139.9342884120163
 31
0.0
  0
LINE
  5
34E
330
1F
100
AcDbEntity
  8
減速機
  6
Continuous
100
AcDbLine
 10
328.3090239943677
 20
147.9342884120163
 30
0.0
 11
328.4090239943678
 21
147.9342884120163
 31
0.0
  0
LINE
  5
34F
330
1F
100
AcDbEntity
  8
減速機
  6
Continuous
100
AcDbLine
 10
315.7287299943674
 20
129.9342884120163
 30
0.0
 11
318.3090239943677
 21
129.9342884120163
 31
0.0
  0
LINE
  5
350
330
1F
100
AcDbEntity
  8
減速機
  6
Continuous
100
AcDbLine
 10
328.3090239943677
 20
129.9342884120163
 30
0.0
 11
328.4090239943678
 21
129.9342884120163
 31
0.0
  0
LINE
  5
351
330
1F
100
AcDbEntity
  8
減速機
  6
Continuous
100
AcDbLine
 10
338.4090239943678
 20
129.9342884120163
 30
0.0
 11
360.7287299943674
 21
129.9342884120163
 31
0.0
  0
LINE
  5
352
330
1F
100
AcDbEntity
  8
減速機
  6
Continuous
100
AcDbLine
 10
315.7287299943674
 20
157.9342884120163
 30
0.0
 11
318.3090239943677
 21
157.9342884120163
 31
0.0
  0
LINE
  5
353
330
1F
100
AcDbEntity
  8
減速機
  6
Continuous
100
AcDbLine
 10
328.3090239943677
 20
157.9342884120163
 30
0.0
 11
328.4090239943678
 21
157.9342884120163
 31
0.0
  0
LINE
  5
354
330
1F
100
AcDbEntity
  8
減速機
  6
Continuous
100
AcDbLine
 10
564.4147443400991
 20
161.049998
 30
0.0
 11
564.4147443400991
 21
154.049998
 31
0.0
  0
LINE
  5
355
330
1F
100
AcDbEntity
  8
減速機
  6
Continuous
100
AcDbLine
 10
572.4147443400991
 20
161.049998
 30
0.0
 11
572.4147443400991
 21
154.049998
 31
0.0
  0
LINE
  5
356
330
1F
100
AcDbEntity
  8
減速機
  6
Continuous
100
AcDbLine
 10
572.4147443400991
 20
161.049998
 30
0.0
 11
564.4147443400991
 21
161.049998
 31
0.0
  0
LINE
  5
357
330
1F
100
AcDbEntity
  8
減速機
  6
Continuous
100
AcDbLine
 10
572.4147443400991
 20
154.049998
 30
0.0
 11
564.4147443400991
 21
154.049998
 31
0.0
  0
ARC
  5
358
330
1F
100
AcDbEntity
  8
減速機
  6
Continuous
100
AcDbCircle
 10
568.4147443400991
 20
144.049998
 30
0.0
 40
14.0
100
AcDbArc
 50
106.6013949999999
 51
73.3983
  0
LINE
  5
359
330
1F
100
AcDbEntity
  8
0
100
AcDbLine
 10
155.199019
 20
82.76633709189653
 30
0.0
 11
155.199019
 21
156.9403609609215
 31
0.0
  0
LINE
  5
35A
330
1F
100
AcDbEntity
  8
0
100
AcDbLine
 10
152.199019
 20
90.43413200359655
 30
0.0
 11
149.19901
 21
90.43413200359655
 31
0.0
  0
ARC
  5
35B
330
1F
100
AcDbEntity
  8
0
100
AcDbCircle
 10
215.198866
 20
53.29261759159652
 30
0.0
 40
3.0
100
AcDbArc
 50
0.0
 51
88.0
  0
LINE
  5
35C
330
1F
100
AcDbEntity
  8
0
100
AcDbLine
 10
215.303572
 20
56.29078659159653
 30
0.0
 11
211.199019
 21
56.43412359159653
 31
0.0
  0
LINE
  5
35D
330
1F
100
AcDbEntity
  8
0
100
AcDbLine
 10
193.3738701611
 20
78.53617553419653
 30
0.0
 11
158.0943205052
 21
79.76816461099652
 31
0.0
  0
ARC
  5
35E
330
1F
100
AcDbEntity
  8
0
100
AcDbCircle
 10
152.199019
 20
87.43413200359655
 30
0.0
 40
3.0
100
AcDbArc
 50
0.0
 51
90.0
  0
ARC
  5
35F
330
1F
100
AcDbEntity
  8
0
100
AcDbCircle
 10
158.199019
 20
82.76633709189653
 30
0.0
 40
3.0
100
AcDbArc
 50
180.0
 51
267.99999991
  0
ARC
  5
360
330
1F
100
AcDbEntity
  8
0
100
AcDbCircle
 10
193.1993726749001
 20
73.53922139919652
 30
0.0
 40
5.0
100
AcDbArc
 50
359.9990539745
 51
19.0852090716
  0
LINE
  5
361
330
1F
100
AcDbEntity
  8
0
100
AcDbLine
 10
211.1991100000001
 20
56.43413200359653
 30
0.0
 11
199.199090249
 21
56.43413200359653
 31
0.0
  0
LINE
  5
362
330
1F
100
AcDbEntity
  8
0
100
AcDbLine
 10
198.1991067602
 20
57.43413200349653
 30
0.0
 11
199.199090249
 21
56.43413200359653
 31
0.0
  0
LINE
  5
363
330
1F
100
AcDbEntity
  8
0
100
AcDbLine
 10
152.199019
 20
150.4341320035965
 30
0.0
 11
149.19901
 21
150.4341320035965
 31
0.0
  0
LINE
  5
364
330
1F
100
AcDbEntity
  8
0
100
AcDbLine
 10
149.19901
 20
150.4341320035965
 30
0.0
 11
149.19901
 21
90.43413200359655
 31
0.0
  0
LINE
  5
365
330
1F
100
AcDbEntity
  8
0
100
AcDbLine
 10
198.2011872202
 20
57.43205150919653
 30
0.0
 11
198.1991067533
 21
183.4341320037965
 31
0.0
  0
LINE
  5
366
330
1F
100
AcDbEntity
  8
0
100
AcDbLine
 10
193.3738700426
 20
162.3392655001965
 30
0.0
 11
158.0943205052
 21
161.1072764275965
 31
0.0
  0
LINE
  5
367
330
1F
100
AcDbEntity
  8
0
100
AcDbLine
 10
155.199019
 20
158.1091039466965
 30
0.0
 11
155.199019
 21
153.4341320035965
 31
0.0
  0
ARC
  5
368
330
1F
100
AcDbEntity
  8
0
100
AcDbCircle
 10
152.199019
 20
153.4341320035965
 30
0.0
 40
3.0
100
AcDbArc
 50
270.0
 51
0.0
  0
ARC
  5
369
330
1F
100
AcDbEntity
  8
0
100
AcDbCircle
 10
158.199019
 20
158.1091039466965
 30
0.0
 40
3.0
100
AcDbArc
 50
92.00000009
 51
180.0
  0
LINE
  5
36A
330
1F
100
AcDbEntity
  8
0
100
AcDbLine
 10
211.199019
 20
184.4341320433965
 30
0.0
 11
199.1989992419
 21
184.4341320433965
 31
0.0
  0
LINE
  5
36B
330
1F
100
AcDbEntity
  8
0
100
AcDbLine
 10
199.1989992419
 20
184.4341320433965
 30
0.0
 11
198.1990157533
 21
183.4341320434965
 31
0.0
  0
LINE
  5
36C
330
1F
100
AcDbEntity
  8
0
100
AcDbLine
 10
207.29667280731
 20
171.6927641448965
 30
0.0
 11
207.29667280731
 21
180.1927641448965
 31
0.0
  0
LINE
  5
36D
330
1F
100
AcDbEntity
  8
0
100
AcDbLine
 10
206.99666980731
 20
179.6731561448965
 30
0.0
 11
206.99666980731
 21
172.2123721448965
 31
0.0
  0
LINE
  5
36E
330
1F
100
AcDbEntity
  8
0
100
AcDbLine
 10
207.29667280731
 20
171.6927641448965
 30
0.0
 11
211.99666980731
 21
171.6927641448965
 31
0.0
  0
LINE
  5
36F
330
1F
100
AcDbEntity
  8
0
100
AcDbLine
 10
207.29667280731
 20
171.6927641448965
 30
0.0
 11
206.99666980731
 21
172.2123721448965
 31
0.0
  0
LINE
  5
370
330
1F
100
AcDbEntity
  8
0
100
AcDbLine
 10
211.99666980731
 20
180.1927641448965
 30
0.0
 11
207.29667280731
 21
180.1927641448965
 31
0.0
  0
LINE
  5
371
330
1F
100
AcDbEntity
  8
0
100
AcDbLine
 10
206.99666980731
 20
179.6731561448965
 30
0.0
 11
207.29667280731
 21
180.1927641448965
 31
0.0
  0
LINE
  5
372
330
1F
100
AcDbEntity
  8
0
100
AcDbLine
 10
194.399458
 20
165.6941071448965
 30
0.0
 11
194.399458
 21
157.1940921448965
 31
0.0
  0
LINE
  5
373
330
1F
100
AcDbEntity
  8
0
100
AcDbLine
 10
193.399458
 20
158.1940921448965
 30
0.0
 11
194.399458
 21
157.1940921448965
 31
0.0
  0
LINE
  5
374
330
1F
100
AcDbEntity
  8
0
100
AcDbLine
 10
194.399458
 20
157.1940921448965
 30
0.0
 11
198.199537
 21
157.1940921448965
 31
0.0
  0
LINE
  5
375
330
1F
100
AcDbEntity
  8
CENTER
100
AcDbLine
 10
201.722914
 20
161.4440921448965
 30
0.0
 11
192.276136
 21
161.4440921448965
 31
0.0
  0
LINE
  5
376
330
1F
100
AcDbEntity
  8
0
100
AcDbLine
 10
193.399458
 20
164.6940921448965
 30
0.0
 11
194.399458
 21
165.6941071448965
 31
0.0
  0
LINE
  5
377
330
1F
100
AcDbEntity
  8
0
100
AcDbLine
 10
194.399458
 20
165.6941071448965
 30
0.0
 11
198.1994
 21
165.6941071448965
 31
0.0
  0
LINE
  5
378
330
1F
100
AcDbEntity
  8
0
100
AcDbLine
 10
193.399458
 20
164.6940921448965
 30
0.0
 11
193.399458
 21
158.1940921448965
 31
0.0
  0
LINE
  5
379
330
1F
100
AcDbEntity
  8
CENTER
100
AcDbLine
 10
201.722914
 20
79.42409514489653
 30
0.0
 11
192.276137
 21
79.42409514489653
 31
0.0
  0
LINE
  5
37A
330
1F
100
AcDbEntity
  8
0
100
AcDbLine
 10
193.399458
 20
76.17410314489652
 30
0.0
 11
194.399458
 21
75.17409114489652
 31
0.0
  0
LINE
  5
37B
330
1F
100
AcDbEntity
  8
0
100
AcDbLine
 10
193.399458
 20
82.67410314489652
 30
0.0
 11
194.399458
 21
83.67410314489652
 31
0.0
  0
LINE
  5
37C
330
1F
100
AcDbEntity
  8
0
100
AcDbLine
 10
194.399458
 20
75.17409114489652
 30
0.0
 11
194.399458
 21
83.67410314489652
 31
0.0
  0
LINE
  5
37D
330
1F
100
AcDbEntity
  8
0
100
AcDbLine
 10
194.399458
 20
75.17409114489652
 30
0.0
 11
198.1994
 21
75.17409114489652
 31
0.0
  0
LINE
  5
37E
330
1F
100
AcDbEntity
  8
0
100
AcDbLine
 10
194.399458
 20
83.67410314489652
 30
0.0
 11
198.199538
 21
83.67410314489652
 31
0.0
  0
LINE
  5
37F
330
1F
100
AcDbEntity
  8
0
100
AcDbLine
 10
193.399458
 20
76.17410314489652
 30
0.0
 11
193.399458
 21
82.67410314489652
 31
0.0
  0
LINE
  5
380
330
1F
100
AcDbEntity
  8
0
100
AcDbLine
 10
213.4988690000001
 20
60.67665114489652
 30
0.0
 11
213.4988690000001
 21
69.17665114489652
 31
0.0
  0
LINE
  5
381
330
1F
100
AcDbEntity
  8
0
100
AcDbLine
 10
213.198866
 20
68.65703614489652
 30
0.0
 11
213.198866
 21
61.19626614489653
 31
0.0
  0
LINE
  5
382
330
1F
100
AcDbEntity
  8
0
100
AcDbLine
 10
213.4988690000001
 20
60.67665114489652
 30
0.0
 11
218.198866
 21
60.67665114489652
 31
0.0
  0
LINE
  5
383
330
1F
100
AcDbEntity
  8
0
100
AcDbLine
 10
213.4988690000001
 20
60.67665114489652
 30
0.0
 11
213.198866
 21
61.19626614489653
 31
0.0
  0
LINE
  5
384
330
1F
100
AcDbEntity
  8
0
100
AcDbLine
 10
218.198866
 20
69.17665114489652
 30
0.0
 11
213.4988690000001
 21
69.17665114489652
 31
0.0
  0
LINE
  5
385
330
1F
100
AcDbEntity
  8
0
100
AcDbLine
 10
213.198866
 20
68.65703614489652
 30
0.0
 11
213.4988690000001
 21
69.17665114489652
 31
0.0
  0
ARC
  5
386
330
1F
100
AcDbEntity
  8
0
100
AcDbCircle
 10
193.1993725512
 20
167.3362196350965
 30
0.0
 40
5.0
100
AcDbArc
 50
340.8269445155
 51
0.0009460318
  0
LINE
  5
387
330
1F
100
AcDbEntity
  8
0
100
AcDbLine
 10
211.199019
 20
184.4341235915965
 30
0.0
 11
211.199019
 21
180.1927641448965
 31
0.0
  0
LINE
  5
388
330
1F
100
AcDbEntity
  8
0
100
AcDbLine
 10
211.199019
 20
171.6927641448965
 30
0.0
 11
211.199019
 21
56.43412359159655
 31
0.0
  0
LINE
  5
389
330
1F
100
AcDbEntity
  8
0
100
AcDbLine
 10
212.1929003949526
 20
184.4688287214397
 30
0.0
 11
211.199019
 21
184.4341235915965
 31
0.0
  0
VIEWPORT
  5
38A
102
{ACAD_XDICTIONARY
360
39B
102
}
330
1B
100
AcDbEntity
 67
     1
  8
0
100
AcDbViewport
 10
0.0
 20
0.0
 30
0.0
 40
331.1175513307868
 41
114.9090768607387
 68
     1
 69
     1
 12
180.7536830850248
 22
63.10412571053978
 13
0.0
 23
0.0
 14
10.0
 24
10.0
 15
10.0
 25
10.0
 16
0.0
 26
0.0
 36
1.0
 17
0.0
 27
0.0
 37
0.0
 42
50.0
 43
0.0
 44
0.0
 45
114.9090768607387
 50
0.0
 51
0.0
 72
   100
 90
   557152
  1

281
     0
 71
     1
 74
     0
110
0.0
120
0.0
130
0.0
111
1.0
121
0.0
131
0.0
112
0.0
122
1.0
132
0.0
 79
     0
146
0.0
  0
POLYLINE
  5
38C
102
{ACAD_REACTORS
102
}
330
1B
100
AcDbEntity
 67
     1
  8
rcviewportframe
100
AcDb2dPolyline
 66
     1
 10
0.0
 20
0.0
 30
0.0
 70
     1
  0
VERTEX
  5
38D
330
38C
100
AcDbEntity
 67
     1
  8
rcviewportframe
100
AcDbVertex
100
AcDb2dVertex
 10
18.44115792287437
 20
6.776146857236505
 30
0.0
  0
VERTEX
  5
38E
330
38C
100
AcDbEntity
 67
     1
  8
rcviewportframe
100
AcDbVertex
100
AcDb2dVertex
 10
343.0662082471752
 20
6.776146857236505
 30
0.0
  0
VERTEX
  5
38F
330
38C
100
AcDbEntity
 67
     1
  8
rcviewportframe
100
AcDbVertex
100
AcDb2dVertex
 10
343.0662082471752
 20
119.4321045638431
 30
0.0
  0
VERTEX
  5
390
330
38C
100
AcDbEntity
 67
     1
  8
rcviewportframe
100
AcDbVertex
100
AcDb2dVertex
 10
18.44115792287437
 20
119.4321045638431
 30
0.0
  0
SEQEND
  5
391
330
38C
100
AcDbEntity
 67
     1
  8
rcviewportframe
  0
VIEWPORT
  5
392
102
{ACAD_XDICTIONARY
360
39D
102
}
330
1B
100
AcDbEntity
 67
     1
  8
新しいレイヤ 1
100
AcDbViewport
 10
180.7536830850248
 20
63.10412571053978
 30
0.0
 40
324.6250503243008
 41
112.6559577066066
 68
     2
 69
     2
 12
361.5073661700495
 22
126.2082514210796
 13
0.0
 23
0.0
 14
10.0
 24
10.0
 15
10.0
 25
10.0
 16
0.0
 26
0.0
 36
1.0
 17
0.0
 27
0.0
 37
0.0
 42
50.0
 43
0.0
 44
0.0
 45
225.3119154132131
 50
0.0
 51
0.0
 72
   100
 90
   622688
340
38C
  1

281
     0
 71
     1
 74
     0
110
0.0
120
0.0
130
0.0
111
1.0
121
0.0
131
0.0
112
0.0
122
1.0
132
0.0
 79
     0
146
0.0
  0
ENDSEC
  0
SECTION
  2
OBJECTS
  0
DICTIONARY
  5
C
330
0
100
AcDbDictionary
281
     1
  3
ACAD_GROUP
350
D
  3
ACAD_IMAGE_VARS
350
6F
  3
ACAD_LAYOUT
350
1A
  3
ACAD_MATERIAL
350
43
  3
ACAD_MLEADERSTYLE
350
6B
  3
ACAD_MLINESTYLE
350
17
  3
ACAD_PLOTSETTINGS
350
19
  3
ACAD_PLOTSTYLENAME
350
E
  3
ACAD_SCALELIST
350
47
  3
ACAD_TABLESTYLE
350
69
  3
ACAD_VISUALSTYLE
350
2A
  3
AcDbVariableDictionary
350
394
  0
DICTIONARY
  5
39F
330
8
100
AcDbDictionary
280
     1
281
     1
  3
ACAD_XREC_ROUNDTRIP
360
3A0
  0
DICTIONARY
  5
39B
330
38A
100
AcDbDictionary
280
     1
281
     1
  3
ACAD_XREC_ROUNDTRIP
360
39C
  0
DICTIONARY
  5
39D
330
392
100
AcDbDictionary
280
     1
281
     1
  3
ACAD_XREC_ROUNDTRIP
360
39E
  0
DICTIONARY
  5
D
102
{ACAD_REACTORS
330
C
102
}
330
C
100
AcDbDictionary
281
     1
  0
RASTERVARIABLES
  5
6F
102
{ACAD_REACTORS
330
C
102
}
330
C
100
AcDbRasterVariables
 90
        0
 70
     0
 71
     1
 72
     0
  0
DICTIONARY
  5
1A
102
{ACAD_REACTORS
330
C
102
}
330
C
100
AcDbDictionary
281
     1
  3
Model
350
22
  3
レイアウト1
350
1E
  0
DICTIONARY
  5
43
102
{ACAD_REACTORS
330
C
102
}
330
C
100
AcDbDictionary
281
     1
  3
ByBlock
350
45
  3
ByLayer
350
44
  3
Global
350
46
  0
DICTIONARY
  5
6B
102
{ACAD_REACTORS
330
C
102
}
330
C
100
AcDbDictionary
281
     1
  3
Standard
350
6C
  0
DICTIONARY
  5
17
102
{ACAD_REACTORS
330
C
102
}
330
C
100
AcDbDictionary
281
     1
  3
Standard
350
18
  0
DICTIONARY
  5
19
102
{ACAD_REACTORS
330
C
102
}
330
C
100
AcDbDictionary
281
     1
  0
ACDBDICTIONARYWDFLT
  5
E
102
{ACAD_REACTORS
330
C
102
}
330
C
100
AcDbDictionary
281
     1
  3
Normal
350
F
100
AcDbDictionaryWithDefault
340
F
  0
DICTIONARY
  5
47
102
{ACAD_REACTORS
330
C
102
}
330
C
100
AcDbDictionary
281
     1
  3
A0
350
48
  3
A1
350
49
  3
A2
350
4A
  3
A3
350
4B
  3
A4
350
4C
  3
A5
350
4D
  3
A6
350
4E
  3
A7
350
4F
  3
A8
350
50
  3
A9
350
51
  3
B0
350
52
  3
B1
350
53
  3
B2
350
54
  3
B3
350
55
  3
B4
350
56
  3
B5
350
57
  3
B6
350
58
  3
B7
350
59
  3
B8
350
5A
  3
B9
350
5B
  3
C0
350
5C
  3
C1
350
5D
  3
C2
350
5E
  3
C3
350
5F
  3
C4
350
60
  3
C5
350
61
  3
C6
350
62
  3
C7
350
63
  3
C8
350
64
  3
C9
350
65
  3
D0
350
66
  3
D1
350
67
  3
D2
350
68
  0
DICTIONARY
  5
69
102
{ACAD_REACTORS
330
C
102
}
330
C
100
AcDbDictionary
281
     1
  3
Standard
350
6A
  0
DICTIONARY
  5
2A
102
{ACAD_REACTORS
330
C
102
}
330
C
100
AcDbDictionary
281
     1
  3
2dWireframe
350
2F
  3
Basic
350
32
  3
Brighten
350
36
  3
ColorChange
350
3A
  3
Conceptual
350
34
  3
Dim
350
35
  3
EdgeColorOff
350
3D
  3
Facepattern
350
39
  3
Flat
350
2B
  3
FlatWithEdges
350
2C
  3
Gouraud
350
2D
  3
GouraudWithEdges
350
2E
  3
Hidden
350
31
  3
JitterOff
350
3B
  3
Linepattern
350
38
  3
OverhangOff
350
3C
  3
Realistic
350
33
  3
Shaded
350
42
  3
Shaded with edges
350
41
  3
Shades of Gray
350
3E
  3
Sketchy
350
3F
  3
Thicken
350
37
  3
Wireframe
350
30
  3
X-Ray
350
40
  0
DICTIONARY
  5
394
102
{ACAD_REACTORS
330
C
102
}
330
C
100
AcDbDictionary
281
     1
  3
CANNOSCALE
350
3A1
  3
CMLEADERSTYLE
350
396
  3
CTABLESTYLE
350
395
  3
DIMASSOC
350
399
  3
HIDETEXT
350
39A
  3
MSLTSCALE
350
3A2
  0
XRECORD
  5
3A0
102
{ACAD_REACTORS
330
39F
102
}
330
39F
100
AcDbXrecord
280
     1
102
VTR_0.000_0.000_1.000_1.000_VISUALSTYLE
340
2F
102
VTR_0.000_0.000_1.000_1.000_GRIDDISPLAY
 70
     3
102
VTR_0.000_0.000_1.000_1.000_GRIDMAJOR
 70
     5
102
VTR_0.000_0.000_1.000_1.000_DEFAULTLIGHTING
280
     1
102
VTR_0.000_0.000_1.000_1.000_DEFAULTLIGHTINGTYPE
 70
     1
102
VTR_0.000_0.000_1.000_1.000_BRIGHTNESS
141
0.0
102
VTR_0.000_0.000_1.000_1.000_CONTRAST
142
0.0
  0
XRECORD
  5
39C
102
{ACAD_REACTORS
330
39B
102
}
330
39B
100
AcDbXrecord
280
     1
102
VISUALSTYLE
340
2F
102
GRIDDISPLAY
 70
     2
102
GRIDMAJOR
 70
     5
102
DEFAULTLIGHTING
280
     1
102
DEFAULTLIGHTINGTYPE
 70
     1
102
BRIGHTNESS
141
0.0
102
CONTRAST
142
0.0
  0
XRECORD
  5
39E
102
{ACAD_REACTORS
330
39D
102
}
330
39D
100
AcDbXrecord
280
     1
102
VISUALSTYLE
340
2F
102
GRIDDISPLAY
 70
     2
102
GRIDMAJOR
 70
     5
102
DEFAULTLIGHTING
280
     1
102
DEFAULTLIGHTINGTYPE
 70
     1
102
BRIGHTNESS
141
0.0
102
CONTRAST
142
0.0
  0
LAYOUT
  5
22
102
{ACAD_REACTORS
330
1A
102
}
330
1A
100
AcDbPlotSettings
  1

  2
none_device
  4
Letter_(8.50_x_11.00_Inches)
  6

 40
6.35
 41
6.35
 42
6.35000508
 43
6.35000508
 44
215.9
 45
279.4
 46
0.0
 47
0.0
 48
0.0
 49
0.0
140
0.0
141
0.0
142
1.0
143
1.0
 70
  1712
 72
     0
 73
     0
 74
     0
  7

 75
     0
147
1.0
148
0.0
149
0.0
100
AcDbLayout
  1
Model
 70
     1
 71
     0
 10
46.10289480718593
 20
16.94036714309126
 11
857.6655206179379
 21
298.5802614096077
 12
0.0
 22
0.0
 32
0.0
 14
46.10289480718593
 24
16.94036714309126
 34
0.0
 15
857.6655206179379
 25
298.5802614096077
 35
0.0
146
0.0
 13
0.0
 23
0.0
 33
0.0
 16
1.0
 26
0.0
 36
0.0
 17
0.0
 27
1.0
 37
0.0
 76
     0
330
1F
331
29
  0
LAYOUT
  5
1E
102
{ACAD_REACTORS
330
1A
102
}
330
1A
100
AcDbPlotSettings
  1

  2
none_device
  4
ISO_A3_(420.00_x_297.00_MM)
  6

 40
7.5
 41
20.0
 42
7.5
 43
20.0
 44
420.0
 45
297.0
 46
-7.5
 47
-20.0
 48
0.0
 49
0.0
140
0.0
141
0.0
142
1.0
143
1.0
 70
   688
 72
     1
 73
     0
 74
     5
  7

 75
    16
147
1.0
148
0.0
149
0.0
100
AcDbLayout
  1
レイアウト1
 70
     0
 71
     1
 10
-7.5
 20
-20.0
 11
420.0
 21
297.0
 12
0.0
 22
0.0
 32
0.0
 14
-9.375
 24
-25.0
 34
0.0
 15
525.0
 25
371.25
 35
0.0
146
0.0
 13
0.0
 23
0.0
 33
0.0
 16
1.0
 26
0.0
 36
0.0
 17
0.0
 27
1.0
 37
0.0
 76
     0
330
1B
331
38A
  0
MATERIAL
  5
45
102
{ACAD_REACTORS
330
43
102
}
102
{ACAD_XDICTIONARY
360
3D5
102
}
330
43
100
AcDbMaterial
  1
ByBlock
  0
MATERIAL
  5
44
102
{ACAD_REACTORS
330
43
102
}
102
{ACAD_XDICTIONARY
360
3D3
102
}
330
43
100
AcDbMaterial
  1
ByLayer
  0
MATERIAL
  5
46
102
{ACAD_REACTORS
330
43
102
}
102
{ACAD_XDICTIONARY
360
3D7
102
}
330
43
100
AcDbMaterial
  1
Global
  0
MLEADERSTYLE
  5
6C
102
{ACAD_REACTORS
330
6B
102
}
102
{ACAD_XDICTIONARY
360
3DA
102
}
330
6B
100
AcDbMLeaderStyle
170
     2
171
     1
172
     0
 90
        2
 40
0.0
 41
0.0
173
     1
 91
-1056964608
340
14
 92
       -2
290
     1
 42
0.09
291
     1
 43
0.36
  3
Standard
341
0
 44
0.18
300

342
11
174
     1
178
     6
175
     1
176
     0
 93
-1056964608
 45
0.18
292
     0
297
     0
 46
0.18
343
0
 94
-1056964608
 47
1.0
 49
1.0
140
1.0
293
     1
141
0.0
294
     1
177
     0
142
1.0
295
     0
296
     0
143
0.125
1001
ACAD_MLEADERVER
1070
     2
  0
MLINESTYLE
  5
18
102
{ACAD_REACTORS
330
17
102
}
330
17
100
AcDbMlineStyle
  2
Standard
 70
     0
  3

 62
   256
 51
90.0
 52
90.0
 71
     2
 49
0.5
 62
   256
  6
BYLAYER
 49
-0.5
 62
   256
  6
BYLAYER
  0
ACDBPLACEHOLDER
  5
F
102
{ACAD_REACTORS
330
E
102
}
330
E
  0
SCALE
  5
48
102
{ACAD_REACTORS
330
47
102
}
330
47
100
AcDbScale
 70
     0
300
1:1
140
1.0
141
1.0
290
     1
  0
SCALE
  5
49
102
{ACAD_REACTORS
330
47
102
}
330
47
100
AcDbScale
 70
     0
300
1:2
140
1.0
141
2.0
290
     0
  0
SCALE
  5
4A
102
{ACAD_REACTORS
330
47
102
}
330
47
100
AcDbScale
 70
     0
300
1:4
140
1.0
141
4.0
290
     0
  0
SCALE
  5
4B
102
{ACAD_REACTORS
330
47
102
}
330
47
100
AcDbScale
 70
     0
300
1:5
140
1.0
141
5.0
290
     0
  0
SCALE
  5
4C
102
{ACAD_REACTORS
330
47
102
}
330
47
100
AcDbScale
 70
     0
300
1:8
140
1.0
141
8.0
290
     0
  0
SCALE
  5
4D
102
{ACAD_REACTORS
330
47
102
}
330
47
100
AcDbScale
 70
     0
300
1:10
140
1.0
141
10.0
290
     0
  0
SCALE
  5
4E
102
{ACAD_REACTORS
330
47
102
}
330
47
100
AcDbScale
 70
     0
300
1:16
140
1.0
141
16.0
290
     0
  0
SCALE
  5
4F
102
{ACAD_REACTORS
330
47
102
}
330
47
100
AcDbScale
 70
     0
300
1:20
140
1.0
141
20.0
290
     0
  0
SCALE
  5
50
102
{ACAD_REACTORS
330
47
102
}
330
47
100
AcDbScale
 70
     0
300
1:30
140
1.0
141
30.0
290
     0
  0
SCALE
  5
51
102
{ACAD_REACTORS
330
47
102
}
330
47
100
AcDbScale
 70
     0
300
1:40
140
1.0
141
40.0
290
     0
  0
SCALE
  5
52
102
{ACAD_REACTORS
330
47
102
}
330
47
100
AcDbScale
 70
     0
300
1:50
140
1.0
141
50.0
290
     0
  0
SCALE
  5
53
102
{ACAD_REACTORS
330
47
102
}
330
47
100
AcDbScale
 70
     0
300
1:100
140
1.0
141
100.0
290
     0
  0
SCALE
  5
54
102
{ACAD_REACTORS
330
47
102
}
330
47
100
AcDbScale
 70
     0
300
2:1
140
2.0
141
1.0
290
     0
  0
SCALE
  5
55
102
{ACAD_REACTORS
330
47
102
}
330
47
100
AcDbScale
 70
     0
300
4:1
140
4.0
141
1.0
290
     0
  0
SCALE
  5
56
102
{ACAD_REACTORS
330
47
102
}
330
47
100
AcDbScale
 70
     0
300
8:1
140
8.0
141
1.0
290
     0
  0
SCALE
  5
57
102
{ACAD_REACTORS
330
47
102
}
330
47
100
AcDbScale
 70
     0
300
10:1
140
10.0
141
1.0
290
     0
  0
SCALE
  5
58
102
{ACAD_REACTORS
330
47
102
}
330
47
100
AcDbScale
 70
     0
300
100:1
140
100.0
141
1.0
290
     0
  0
SCALE
  5
59
102
{ACAD_REACTORS
330
47
102
}
330
47
100
AcDbScale
 70
     0
300
1/128" = 1'-0"
140
0.0078125
141
12.0
290
     0
  0
SCALE
  5
5A
102
{ACAD_REACTORS
330
47
102
}
330
47
100
AcDbScale
 70
     0
300
1/64" = 1'-0"
140
0.015625
141
12.0
290
     0
  0
SCALE
  5
5B
102
{ACAD_REACTORS
330
47
102
}
330
47
100
AcDbScale
 70
     0
300
1/32" = 1'-0"
140
0.03125
141
12.0
290
     0
  0
SCALE
  5
5C
102
{ACAD_REACTORS
330
47
102
}
330
47
100
AcDbScale
 70
     0
300
1/16" = 1'-0"
140
0.0625
141
12.0
290
     0
  0
SCALE
  5
5D
102
{ACAD_REACTORS
330
47
102
}
330
47
100
AcDbScale
 70
     0
300
3/32" = 1'-0"
140
0.09375
141
12.0
290
     0
  0
SCALE
  5
5E
102
{ACAD_REACTORS
330
47
102
}
330
47
100
AcDbScale
 70
     0
300
1/8" = 1'-0"
140
0.125
141
12.0
290
     0
  0
SCALE
  5
5F
102
{ACAD_REACTORS
330
47
102
}
330
47
100
AcDbScale
 70
     0
300
3/16" = 1'-0"
140
0.1875
141
12.0
290
     0
  0
SCALE
  5
60
102
{ACAD_REACTORS
330
47
102
}
330
47
100
AcDbScale
 70
     0
300
1/4" = 1'-0"
140
0.25
141
12.0
290
     0
  0
SCALE
  5
61
102
{ACAD_REACTORS
330
47
102
}
330
47
100
AcDbScale
 70
     0
300
3/8" = 1'-0"
140
0.375
141
12.0
290
     0
  0
SCALE
  5
62
102
{ACAD_REACTORS
330
47
102
}
330
47
100
AcDbScale
 70
     0
300
1/2" = 1'-0"
140
0.5
141
12.0
290
     0
  0
SCALE
  5
63
102
{ACAD_REACTORS
330
47
102
}
330
47
100
AcDbScale
 70
     0
300
3/4" = 1'-0"
140
0.75
141
12.0
290
     0
  0
SCALE
  5
64
102
{ACAD_REACTORS
330
47
102
}
330
47
100
AcDbScale
 70
     0
300
1" = 1'-0"
140
1.0
141
12.0
290
     0
  0
SCALE
  5
65
102
{ACAD_REACTORS
330
47
102
}
330
47
100
AcDbScale
 70
     0
300
1-1/2" = 1'-0"
140
1.5
141
12.0
290
     0
  0
SCALE
  5
66
102
{ACAD_REACTORS
330
47
102
}
330
47
100
AcDbScale
 70
     0
300
3" = 1'-0"
140
3.0
141
12.0
290
     0
  0
SCALE
  5
67
102
{ACAD_REACTORS
330
47
102
}
330
47
100
AcDbScale
 70
     0
300
6" = 1'-0"
140
6.0
141
12.0
290
     0
  0
SCALE
  5
68
102
{ACAD_REACTORS
330
47
102
}
330
47
100
AcDbScale
 70
     0
300
1'-0" = 1'-0"
140
12.0
141
12.0
290
     0
  0
TABLESTYLE
  5
6A
102
{ACAD_REACTORS
330
69
102
}
330
69
100
AcDbTableStyle
  3
Standard
 70
     0
 71
     0
 40
0.06
 41
0.06
280
     0
281
     0
  7
Standard
140
0.18
170
     2
 62
     0
 63
   257
283
     0
274
    -2
284
     1
 64
     0
275
    -2
285
     1
 65
     0
276
    -2
286
     1
 66
     0
277
    -2
287
     1
 67
     0
278
    -2
288
     1
 68
     0
279
    -2
289
     1
 69
     0
  7
Standard
140
0.25
170
     5
 62
     0
 63
   257
283
     0
274
    -2
284
     1
 64
     0
275
    -2
285
     1
 65
     0
276
    -2
286
     1
 66
     0
277
    -2
287
     1
 67
     0
278
    -2
288
     1
 68
     0
279
    -2
289
     1
 69
     0
  7
Standard
140
0.18
170
     5
 62
     0
 63
   257
283
     0
274
    -2
284
     1
 64
     0
275
    -2
285
     1
 65
     0
276
    -2
286
     1
 66
     0
277
    -2
287
     1
 67
     0
278
    -2
288
     1
 68
     0
279
    -2
289
     1
 69
     0
  0
VISUALSTYLE
  5
2F
102
{ACAD_REACTORS
330
2A
102
}
102
{ACAD_XDICTIONARY
360
3AB
102
}
330
2A
100
AcDbVisualStyle
  2
2dWireframe
 70
     4
 71
     0
 72
     2
 73
     0
 90
        0
 40
0.6
 41
30.0
 62
     5
 63
     7
 74
     1
 91
        4
 64
     7
 65
   257
 75
     1
175
     1
 42
1.0
 92
        0
 66
   257
 43
1.0
 76
     1
 77
     6
 78
     2
 67
     7
 79
     5
170
     0
171
     0
290
     0
174
     0
 93
        1
 44
0.0
173
     0
291
     0
 45
0.0
1001
ACAD
1000
AcDbSavedByObjectVersion
1070
     0
  0
VISUALSTYLE
  5
32
102
{ACAD_REACTORS
330
2A
102
}
102
{ACAD_XDICTIONARY
360
3B1
102
}
330
2A
100
AcDbVisualStyle
  2
Basic
 70
     7
 71
     1
 72
     0
 73
     1
 90
        0
 40
0.6
 41
30.0
 62
     5
 63
     7
 74
     0
 91
        4
 64
     7
 65
   257
 75
     1
175
     1
 42
1.0
 92
        8
 66
     7
 43
1.0
 76
     1
 77
     6
 78
     2
 67
     7
 79
     5
170
     0
171
     0
290
     0
174
     0
 93
        1
 44
0.0
173
     0
291
     1
 45
0.0
1001
ACAD
1000
AcDbSavedByObjectVersion
1070
     0
  0
VISUALSTYLE
  5
36
102
{ACAD_REACTORS
330
2A
102
}
102
{ACAD_XDICTIONARY
360
3B9
102
}
330
2A
100
AcDbVisualStyle
  2
Brighten
 70
    12
 71
     2
 72
     2
 73
     0
 90
        0
 40
0.6
 41
30.0
 62
     5
 63
     7
 74
     1
 91
        4
 64
     7
 65
   257
 75
     1
175
     1
 42
1.0
 92
        8
 66
     7
 43
1.0
 76
     1
 77
     6
 78
     2
 67
     7
 79
     5
170
     0
171
     0
290
     0
174
     0
 93
        1
 44
50.0
173
     0
291
     1
 45
0.0
1001
ACAD
1000
AcDbSavedByObjectVersion
1070
     0
  0
VISUALSTYLE
  5
3A
102
{ACAD_REACTORS
330
2A
102
}
102
{ACAD_XDICTIONARY
360
3C1
102
}
330
2A
100
AcDbVisualStyle
  2
ColorChange
 70
    16
 71
     2
 72
     2
 73
     3
 90
        0
 40
0.6
 41
30.0
 62
     5
 63
     8
 74
     1
 91
        4
 64
     7
 65
   257
 75
     1
175
     1
 42
1.0
 92
        8
 66
     8
 43
1.0
 76
     1
 77
     6
 78
     2
 67
     7
 79
     5
170
     0
171
     0
290
     0
174
     0
 93
        1
 44
0.0
173
     0
291
     1
 45
0.0
1001
ACAD
1000
AcDbSavedByObjectVersion
1070
     0
  0
VISUALSTYLE
  5
34
102
{ACAD_REACTORS
330
2A
102
}
102
{ACAD_XDICTIONARY
360
3B5
102
}
330
2A
100
AcDbVisualStyle
  2
Conceptual
 70
     9
 71
     3
 72
     2
 73
     0
 90
        0
 40
0.6
 41
30.0
 62
     5
 63
     7
 74
     2
 91
        2
 64
     7
 65
   257
 75
     1
175
     1
 42
179.0
 92
        8
 66
     7
 43
1.0
 76
     1
 77
     6
 78
     2
 67
     7
 79
     3
170
     0
171
     0
290
     0
174
     0
 93
        1
 44
0.0
173
     0
291
     0
 45
0.0
1001
ACAD
1000
AcDbSavedByObjectVersion
1070
     0
  0
VISUALSTYLE
  5
35
102
{ACAD_REACTORS
330
2A
102
}
102
{ACAD_XDICTIONARY
360
3B7
102
}
330
2A
100
AcDbVisualStyle
  2
Dim
 70
    11
 71
     2
 72
     2
 73
     0
 90
        0
 40
0.6
 41
30.0
 62
     5
 63
     7
 74
     1
 91
        4
 64
     7
 65
   257
 75
     1
175
     1
 42
1.0
 92
        8
 66
     7
 43
1.0
 76
     1
 77
     6
 78
     2
 67
     7
 79
     5
170
     0
171
     0
290
     0
174
     0
 93
        1
 44
-50.0
173
     0
291
     1
 45
0.0
1001
ACAD
1000
AcDbSavedByObjectVersion
1070
     0
  0
VISUALSTYLE
  5
3D
102
{ACAD_REACTORS
330
2A
102
}
102
{ACAD_XDICTIONARY
360
3C7
102
}
330
2A
100
AcDbVisualStyle
  2
EdgeColorOff
 70
    22
 71
     2
 72
     2
 73
     0
 90
        0
 40
0.6
 41
30.0
 62
     5
 63
     7
 74
     1
 91
        4
 64
     7
 65
   257
 75
     1
175
     1
 42
1.0
 92
        8
 66
     7
 43
1.0
 76
     1
 77
     6
 78
     2
 67
     7
 79
     5
170
     0
171
     0
290
     0
174
     0
 93
        1
 44
0.0
173
     0
291
     1
 45
0.0
1001
ACAD
1000
AcDbSavedByObjectVersion
1070
     0
  0
VISUALSTYLE
  5
39
102
{ACAD_REACTORS
330
2A
102
}
102
{ACAD_XDICTIONARY
360
3BF
102
}
330
2A
100
AcDbVisualStyle
  2
Facepattern
 70
    15
 71
     2
 72
     2
 73
     0
 90
        0
 40
0.6
 41
30.0
 62
     5
 63
     7
 74
     1
 91
        4
 64
     7
 65
   257
 75
     1
175
     1
 42
1.0
 92
        8
 66
     7
 43
1.0
 76
     1
 77
     6
 78
     2
 67
     7
 79
     5
170
     0
171
     0
290
     0
174
     0
 93
        1
 44
0.0
173
     0
291
     1
 45
0.0
1001
ACAD
1000
AcDbSavedByObjectVersion
1070
     0
  0
VISUALSTYLE
  5
2B
102
{ACAD_REACTORS
330
2A
102
}
102
{ACAD_XDICTIONARY
360
3A3
102
}
330
2A
100
AcDbVisualStyle
  2
Flat
 70
     0
 71
     2
 72
     1
 73
     1
 90
        2
 40
0.6
 41
30.0
 62
     5
 63
     7
 74
     0
 91
        0
 64
     7
 65
   257
 75
     1
175
     1
 42
1.0
 92
        8
 66
     7
 43
1.0
 76
     1
 77
     6
 78
     2
 67
     7
 79
     5
170
     0
171
     0
290
     0
174
     0
 93
       13
 44
0.0
173
     0
291
     1
 45
0.0
1001
ACAD
1000
AcDbSavedByObjectVersion
1070
     0
  0
VISUALSTYLE
  5
2C
102
{ACAD_REACTORS
330
2A
102
}
102
{ACAD_XDICTIONARY
360
3A5
102
}
330
2A
100
AcDbVisualStyle
  2
FlatWithEdges
 70
     1
 71
     2
 72
     1
 73
     1
 90
        2
 40
0.6
 41
30.0
 62
     5
 63
     7
 74
     1
 91
        0
 64
     7
 65
   257
 75
     1
175
     1
 42
1.0
 92
        0
 66
   257
 43
1.0
 76
     1
 77
     6
 78
     2
 67
     7
 79
     5
170
     0
171
     0
290
     0
174
     0
 93
       13
 44
0.0
173
     0
291
     1
 45
0.0
1001
ACAD
1000
AcDbSavedByObjectVersion
1070
     0
  0
VISUALSTYLE
  5
2D
102
{ACAD_REACTORS
330
2A
102
}
102
{ACAD_XDICTIONARY
360
3A7
102
}
330
2A
100
AcDbVisualStyle
  2
Gouraud
 70
     2
 71
     2
 72
     2
 73
     1
 90
        2
 40
0.6
 41
30.0
 62
     5
 63
     7
 74
     0
 91
        0
 64
     7
 65
   257
 75
     1
175
     1
 42
1.0
 92
        0
 66
     7
 43
1.0
 76
     1
 77
     6
 78
     2
 67
     7
 79
     5
170
     0
171
     0
290
     0
174
     0
 93
       13
 44
0.0
173
     0
291
     1
 45
0.0
1001
ACAD
1000
AcDbSavedByObjectVersion
1070
     0
  0
VISUALSTYLE
  5
2E
102
{ACAD_REACTORS
330
2A
102
}
102
{ACAD_XDICTIONARY
360
3A9
102
}
330
2A
100
AcDbVisualStyle
  2
GouraudWithEdges
 70
     3
 71
     2
 72
     2
 73
     1
 90
        2
 40
0.6
 41
30.0
 62
     5
 63
     7
 74
     1
 91
        0
 64
     7
 65
   257
 75
     1
175
     1
 42
1.0
 92
        0
 66
   257
 43
1.0
 76
     1
 77
     6
 78
     2
 67
     7
 79
     5
170
     0
171
     0
290
     0
174
     0
 93
       13
 44
0.0
173
     0
291
     1
 45
0.0
1001
ACAD
1000
AcDbSavedByObjectVersion
1070
     0
  0
VISUALSTYLE
  5
31
102
{ACAD_REACTORS
330
2A
102
}
102
{ACAD_XDICTIONARY
360
3AF
102
}
330
2A
100
AcDbVisualStyle
  2
Hidden
 70
     6
 71
     1
 72
     2
 73
     2
 90
        0
 40
0.6
 41
30.0
 62
     5
 63
     7
 74
     2
 91
        2
 64
     7
 65
   257
 75
     2
175
     1
 42
40.0
 92
        0
 66
   257
 43
1.0
 76
     1
 77
     6
 78
     2
 67
     7
 79
     3
170
     0
171
     0
290
     0
174
     0
 93
        1
 44
0.0
173
     0
291
     0
 45
0.0
1001
ACAD
1000
AcDbSavedByObjectVersion
1070
     0
  0
VISUALSTYLE
  5
3B
102
{ACAD_REACTORS
330
2A
102
}
102
{ACAD_XDICTIONARY
360
3C3
102
}
330
2A
100
AcDbVisualStyle
  2
JitterOff
 70
    20
 71
     2
 72
     2
 73
     0
 90
        0
 40
0.6
 41
30.0
 62
     5
 63
     7
 74
     1
 91
        4
 64
     7
 65
   257
 75
     1
175
     1
 42
1.0
 92
       10
 66
     7
 43
1.0
 76
     1
 77
     6
 78
     2
 67
     7
 79
     5
170
     0
171
     0
290
     0
174
     0
 93
        1
 44
0.0
173
     0
291
     1
 45
0.0
1001
ACAD
1000
AcDbSavedByObjectVersion
1070
     0
  0
VISUALSTYLE
  5
38
102
{ACAD_REACTORS
330
2A
102
}
102
{ACAD_XDICTIONARY
360
3BD
102
}
330
2A
100
AcDbVisualStyle
  2
Linepattern
 70
    14
 71
     2
 72
     2
 73
     0
 90
        0
 40
0.6
 41
30.0
 62
     5
 63
     7
 74
     1
 91
        4
 64
     7
 65
   257
 75
     7
175
     7
 42
1.0
 92
        8
 66
     7
 43
1.0
 76
     1
 77
     6
 78
     2
 67
     7
 79
     5
170
     0
171
     0
290
     0
174
     0
 93
        1
 44
0.0
173
     0
291
     1
 45
0.0
1001
ACAD
1000
AcDbSavedByObjectVersion
1070
     0
  0
VISUALSTYLE
  5
3C
102
{ACAD_REACTORS
330
2A
102
}
102
{ACAD_XDICTIONARY
360
3C5
102
}
330
2A
100
AcDbVisualStyle
  2
OverhangOff
 70
    21
 71
     2
 72
     2
 73
     0
 90
        0
 40
0.6
 41
30.0
 62
     5
 63
     7
 74
     1
 91
        4
 64
     7
 65
   257
 75
     1
175
     1
 42
1.0
 92
        9
 66
     7
 43
1.0
 76
     1
 77
     6
 78
     2
 67
     7
 79
     5
170
     0
171
     0
290
     0
174
     0
 93
        1
 44
0.0
173
     0
291
     1
 45
0.0
1001
ACAD
1000
AcDbSavedByObjectVersion
1070
     0
  0
VISUALSTYLE
  5
33
102
{ACAD_REACTORS
330
2A
102
}
102
{ACAD_XDICTIONARY
360
3B3
102
}
330
2A
100
AcDbVisualStyle
  2
Realistic
 70
     8
 71
     2
 72
     3
 73
     0
 90
        2
 40
0.6
 41
30.0
 62
     5
 63
     7
 74
     0
 91
        0
 64
     7
 65
   257
 75
     1
175
     1
 42
1.0
 92
        8
 66
   257
 43
1.0
 76
     1
 77
     6
 78
     2
 67
     7
 79
     3
170
     0
171
     0
290
     0
174
     0
 93
       13
 44
0.0
173
     0
291
     0
 45
0.0
1001
ACAD
1000
AcDbSavedByObjectVersion
1070
     0
  0
VISUALSTYLE
  5
42
102
{ACAD_REACTORS
330
2A
102
}
102
{ACAD_XDICTIONARY
360
3D1
102
}
330
2A
100
AcDbVisualStyle
  2
Shaded
 70
    27
 71
     2
 72
     2
 73
     1
 90
        2
 40
0.6
 41
30.0
 62
     5
 63
     7
 74
     0
 91
        4
 64
     7
 65
   257
 75
     1
175
     1
 42
1.0
 92
        8
 66
   257
 43
1.0
 76
     1
 77
     6
 78
     2
 67
     8
 79
     3
170
     0
171
     0
290
     0
174
     0
 93
        5
 44
0.0
173
     0
291
     0
 45
0.0
1001
ACAD
1000
AcDbSavedByObjectVersion
1070
     0
  0
VISUALSTYLE
  5
41
102
{ACAD_REACTORS
330
2A
102
}
102
{ACAD_XDICTIONARY
360
3CF
102
}
330
2A
100
AcDbVisualStyle
  2
Shaded with edges
 70
    26
 71
     2
 72
     2
 73
     1
 90
        2
 40
0.6
 41
30.0
 62
     5
 63
     7
 74
     1
 91
       10
 64
     7
 65
   257
 75
     2
175
     1
 42
1.0
 92
        8
 66
   257
 43
1.0
 76
     1
 77
     6
 78
     2
 67
     7
 79
     3
170
     0
171
     0
290
     0
174
     0
 93
        5
 44
0.0
173
     0
291
     0
 45
0.0
1001
ACAD
1000
AcDbSavedByObjectVersion
1070
     0
  0
VISUALSTYLE
  5
3E
102
{ACAD_REACTORS
330
2A
102
}
102
{ACAD_XDICTIONARY
360
3C9
102
}
330
2A
100
AcDbVisualStyle
  2
Shades of Gray
 70
    23
 71
     2
 72
     2
 73
     3
 90
        0
 40
0.6
 41
30.0
 62
     5
 63
     7
 74
     2
 91
        2
 64
     7
 65
     7
 75
     1
175
     1
 42
40.0
 92
        8
 66
     7
 43
1.0
 76
     1
 77
     6
 78
     2
 67
     7
 79
     3
170
     0
171
     0
290
     0
174
     0
 93
        1
 44
0.0
173
     0
291
     0
 45
0.0
1001
ACAD
1000
AcDbSavedByObjectVersion
1070
     0
  0
VISUALSTYLE
  5
3F
102
{ACAD_REACTORS
330
2A
102
}
102
{ACAD_XDICTIONARY
360
3CB
102
}
330
2A
100
AcDbVisualStyle
  2
Sketchy
 70
    24
 71
     1
 72
     2
 73
     2
 90
        0
 40
0.6
 41
30.0
 62
     5
 63
     7
 74
     2
 91
        2
 64
     7
 65
     7
 75
     1
175
     1
 42
40.0
 92
       11
 66
     7
 43
1.0
 76
     1
 77
     6
 78
     2
 67
     7
 79
     6
170
     0
171
     0
290
     0
174
     0
 93
        1
 44
0.0
173
     0
291
     0
 45
0.0
1001
ACAD
1000
AcDbSavedByObjectVersion
1070
     0
  0
VISUALSTYLE
  5
37
102
{ACAD_REACTORS
330
2A
102
}
102
{ACAD_XDICTIONARY
360
3BB
102
}
330
2A
100
AcDbVisualStyle
  2
Thicken
 70
    13
 71
     2
 72
     2
 73
     0
 90
        0
 40
0.6
 41
30.0
 62
     5
 63
     7
 74
     1
 91
        4
 64
     7
 65
   257
 75
     1
175
     1
 42
1.0
 92
       12
 66
     7
 43
1.0
 76
     1
 77
     6
 78
     2
 67
     7
 79
     5
170
     0
171
     0
290
     0
174
     0
 93
        1
 44
0.0
173
     0
291
     1
 45
0.0
1001
ACAD
1000
AcDbSavedByObjectVersion
1070
     0
  0
VISUALSTYLE
  5
30
102
{ACAD_REACTORS
330
2A
102
}
102
{ACAD_XDICTIONARY
360
3AD
102
}
330
2A
100
AcDbVisualStyle
  2
Wireframe
 70
     5
 71
     0
 72
     2
 73
     0
 90
        0
 40
0.6
 41
30.0
 62
     5
 63
     7
 74
     1
 91
        4
 64
     7
 65
   257
 75
     1
175
     1
 42
1.0
 92
        0
 66
   257
 43
1.0
 76
     1
 77
     6
 78
     2
 67
     7
 79
     3
170
     0
171
     0
290
     0
174
     0
 93
        1
 44
0.0
173
     0
291
     0
 45
0.0
1001
ACAD
1000
AcDbSavedByObjectVersion
1070
     0
  0
VISUALSTYLE
  5
40
102
{ACAD_REACTORS
330
2A
102
}
102
{ACAD_XDICTIONARY
360
3CD
102
}
330
2A
100
AcDbVisualStyle
  2
X-Ray
 70
    25
 71
     2
 72
     2
 73
     1
 90
        1
 40
0.5
 41
30.0
 62
     5
 63
     7
 74
     1
 91
        0
 64
     7
 65
   257
 75
     1
175
     1
 42
1.0
 92
        8
 66
     7
 43
1.0
 76
     1
 77
     6
 78
     2
 67
     7
 79
     3
170
     0
171
     0
290
     0
174
     0
 93
       13
 44
0.0
173
     0
291
     0
 45
0.0
1001
ACAD
1000
AcDbSavedByObjectVersion
1070
     0
  0
DICTIONARYVAR
  5
3A1
102
{ACAD_REACTORS
330
394
102
}
330
394
100
DictionaryVariables
280
     0
  1
1:1
  0
DICTIONARYVAR
  5
396
102
{ACAD_REACTORS
330
394
102
}
330
394
100
DictionaryVariables
280
     0
  1
Standard
  0
DICTIONARYVAR
  5
395
102
{ACAD_REACTORS
330
394
102
}
330
394
100
DictionaryVariables
280
     0
  1
Standard
  0
DICTIONARYVAR
  5
399
102
{ACAD_REACTORS
330
394
102
}
330
394
100
DictionaryVariables
280
     0
  1
2
  0
DICTIONARYVAR
  5
39A
102
{ACAD_REACTORS
330
394
102
}
330
394
100
DictionaryVariables
280
     0
  1
1
  0
DICTIONARYVAR
  5
3A2
102
{ACAD_REACTORS
330
394
102
}
330
394
100
DictionaryVariables
280
     0
  1
1
  0
DICTIONARY
  5
3D5
330
45
100
AcDbDictionary
280
     1
281
     1
  3
ACAD_XREC_ROUNDTRIP
360
3D6
  0
DICTIONARY
  5
3D3
330
44
100
AcDbDictionary
280
     1
281
     1
  3
ACAD_XREC_ROUNDTRIP
360
3D4
  0
DICTIONARY
  5
3D7
330
46
100
AcDbDictionary
280
     1
281
     1
  3
ACAD_XREC_ROUNDTRIP
360
3D8
  0
DICTIONARY
  5
3DA
330
6C
100
AcDbDictionary
280
     1
281
     1
  3
ACAD_XREC_ROUNDTRIP
360
3DB
  0
DICTIONARY
  5
3AB
330
2F
100
AcDbDictionary
280
     1
281
     1
  3
ACAD_XREC_ROUNDTRIP
360
3AC
  0
DICTIONARY
  5
3B1
330
32
100
AcDbDictionary
280
     1
281
     1
  3
ACAD_XREC_ROUNDTRIP
360
3B2
  0
DICTIONARY
  5
3B9
330
36
100
AcDbDictionary
280
     1
281
     1
  3
ACAD_XREC_ROUNDTRIP
360
3BA
  0
DICTIONARY
  5
3C1
330
3A
100
AcDbDictionary
280
     1
281
     1
  3
ACAD_XREC_ROUNDTRIP
360
3C2
  0
DICTIONARY
  5
3B5
330
34
100
AcDbDictionary
280
     1
281
     1
  3
ACAD_XREC_ROUNDTRIP
360
3B6
  0
DICTIONARY
  5
3B7
330
35
100
AcDbDictionary
280
     1
281
     1
  3
ACAD_XREC_ROUNDTRIP
360
3B8
  0
DICTIONARY
  5
3C7
330
3D
100
AcDbDictionary
280
     1
281
     1
  3
ACAD_XREC_ROUNDTRIP
360
3C8
  0
DICTIONARY
  5
3BF
330
39
100
AcDbDictionary
280
     1
281
     1
  3
ACAD_XREC_ROUNDTRIP
360
3C0
  0
DICTIONARY
  5
3A3
330
2B
100
AcDbDictionary
280
     1
281
     1
  3
ACAD_XREC_ROUNDTRIP
360
3A4
  0
DICTIONARY
  5
3A5
330
2C
100
AcDbDictionary
280
     1
281
     1
  3
ACAD_XREC_ROUNDTRIP
360
3A6
  0
DICTIONARY
  5
3A7
330
2D
100
AcDbDictionary
280
     1
281
     1
  3
ACAD_XREC_ROUNDTRIP
360
3A8
  0
DICTIONARY
  5
3A9
330
2E
100
AcDbDictionary
280
     1
281
     1
  3
ACAD_XREC_ROUNDTRIP
360
3AA
  0
DICTIONARY
  5
3AF
330
31
100
AcDbDictionary
280
     1
281
     1
  3
ACAD_XREC_ROUNDTRIP
360
3B0
  0
DICTIONARY
  5
3C3
330
3B
100
AcDbDictionary
280
     1
281
     1
  3
ACAD_XREC_ROUNDTRIP
360
3C4
  0
DICTIONARY
  5
3BD
330
38
100
AcDbDictionary
280
     1
281
     1
  3
ACAD_XREC_ROUNDTRIP
360
3BE
  0
DICTIONARY
  5
3C5
330
3C
100
AcDbDictionary
280
     1
281
     1
  3
ACAD_XREC_ROUNDTRIP
360
3C6
  0
DICTIONARY
  5
3B3
330
33
100
AcDbDictionary
280
     1
281
     1
  3
ACAD_XREC_ROUNDTRIP
360
3B4
  0
DICTIONARY
  5
3D1
330
42
100
AcDbDictionary
280
     1
281
     1
  3
ACAD_XREC_ROUNDTRIP
360
3D2
  0
DICTIONARY
  5
3CF
330
41
100
AcDbDictionary
280
     1
281
     1
  3
ACAD_XREC_ROUNDTRIP
360
3D0
  0
DICTIONARY
  5
3C9
330
3E
100
AcDbDictionary
280
     1
281
     1
  3
ACAD_XREC_ROUNDTRIP
360
3CA
  0
DICTIONARY
  5
3CB
330
3F
100
AcDbDictionary
280
     1
281
     1
  3
ACAD_XREC_ROUNDTRIP
360
3CC
  0
DICTIONARY
  5
3BB
330
37
100
AcDbDictionary
280
     1
281
     1
  3
ACAD_XREC_ROUNDTRIP
360
3BC
  0
DICTIONARY
  5
3AD
330
30
100
AcDbDictionary
280
     1
281
     1
  3
ACAD_XREC_ROUNDTRIP
360
3AE
  0
DICTIONARY
  5
3CD
330
40
100
AcDbDictionary
280
     1
281
     1
  3
ACAD_XREC_ROUNDTRIP
360
3CE
  0
XRECORD
  5
3D6
102
{ACAD_REACTORS
330
3D5
102
}
330
3D5
100
AcDbXrecord
280
     1
102
MATERIAL
148
0.0
149
0.0
149
0.0
 93
        0
 94
      127
282
     0
 72
     1
 77
     1
171
     1
175
     1
179
     1
273
     0
  0
XRECORD
  5
3D4
102
{ACAD_REACTORS
330
3D3
102
}
330
3D3
100
AcDbXrecord
280
     1
102
MATERIAL
148
0.0
149
0.0
149
0.0
 93
        0
 94
      127
282
     0
 72
     1
 77
     1
171
     1
175
     1
179
     1
273
     0
  0
XRECORD
  5
3D8
102
{ACAD_REACTORS
330
3D7
102
}
330
3D7
100
AcDbXrecord
280
     1
102
MATERIAL
148
0.0
149
0.0
149
0.0
 93
        0
 94
      127
282
     0
 72
     1
 77
     1
171
     1
175
     1
179
     1
273
     0
  0
XRECORD
  5
3DB
102
{ACAD_REACTORS
330
3DA
102
}
330
3DA
100
AcDbXrecord
280
     1
102
ACAD_ROUNDTRIP_2010_MLEADER_STYLE
  0
XRECORD
  5
3AC
102
{ACAD_REACTORS
330
3AB
102
}
330
3AB
100
AcDbXrecord
280
     1
102
RTVSPropertyOp0
 70
     1
102
RTVSPropertyOp1
 70
     1
102
RTVSPropertyOp2
 70
     1
102
RTVSPropertyOp3
 70
     1
102
RTVSPropertyOp4
 70
     1
102
RTVSPropertyOp5
 70
     1
102
RTVSPropertyOp6
 70
     1
102
RTVSPropertyOp7
 70
     1
102
RTVSPropertyOp8
 70
     1
102
RTVSPropertyOp9
 70
     1
102
RTVSPropertyOp10
 70
     1
102
RTVSPropertyOp11
 70
     1
102
RTVSPropertyOp12
 70
     1
102
RTVSPropertyOp13
 70
     1
102
RTVSPropertyOp14
 70
     1
102
RTVSPropertyOp15
 70
     1
102
RTVSPropertyOp16
 70
     1
102
RTVSPropertyOp17
 70
     1
102
RTVSPropertyOp18
 70
     1
102
RTVSPropertyOp19
 70
     1
102
RTVSPropertyOp20
 70
     1
102
RTVSPropertyOp21
 70
     1
102
RTVSPropertyOp22
 70
     1
102
RTVSPropertyOp23
 70
     1
102
RTVSPropertyOp24
 70
     1
102
RTVSPropertyOp25
 70
     1
102
RTVSPropertyOp26
 70
     1
102
RTVSPropertyOp27
 70
     1
102
RTVSPropertyOp28
 70
     1
102
RTVSPropertyOp29
 70
     1
102
RTVSPropertyOp30
 70
     1
102
RTVSPropertyOp31
 70
     1
102
RTVSPropertyOp32
 70
     1
102
RTVSPropertyOp33
 70
     1
102
RTVSPropertyOp34
 70
     1
102
RTVSPropertyOp35
 70
     1
102
RTVSPropertyOp36
 70
     1
102
RTVSPropertyOp37
 70
     1
102
RTVSPropertyOp38
 70
     1
102
RTVSPropertyOp39
 70
     1
102
RTVSPropertyOp40
 70
     1
102
RTVSPropertyOp41
 70
     1
102
RTVSPropertyOp42
 70
     1
102
RTVSPropertyOp43
 70
     1
102
RTVSPropertyOp44
 70
     1
102
RTVSPropertyOp45
 70
     1
102
RTVSPropertyOp46
 70
     1
102
RTVSPropertyOp47
 70
     1
102
RTVSPropertyOp48
 70
     1
102
RTVSPropertyOp49
 70
     1
102
RTVSPropertyOp50
 70
     1
102
RTVSPropertyOp51
 70
     0
102
RTVSPropertyOp52
 70
     0
102
RTVSPropertyOp53
 70
     1
102
RTVSPropertyOp54
 70
     1
102
RTVSPropertyOp55
 70
     1
102
RTVSPropertyOp56
 70
     1
102
RTVSPropertyOp57
 70
     1
102
RTVSPost2010Prop28
280
     1
102
RTVSPost2010PropOp28
 70
     1
102
RTVSPost2010Prop29
280
     1
102
RTVSPost2010PropOp29
 70
     1
102
RTVSPost2010Prop30
280
     0
102
RTVSPost2010PropOp30
 70
     1
102
RTVSPost2010Prop31
280
     0
102
RTVSPost2010PropOp31
 70
     1
102
RTVSPost2010Prop32
280
     0
102
RTVSPost2010PropOp32
 70
     1
102
RTVSPost2010Prop33
280
     0
102
RTVSPost2010PropOp33
 70
     1
102
RTVSPost2010Prop34
280
     0
102
RTVSPost2010PropOp34
 70
     1
102
RTVSPost2010Prop35
280
     0
102
RTVSPost2010PropOp35
 70
     1
102
RTVSPost2010Prop36
280
     0
102
RTVSPost2010PropOp36
 70
     1
102
RTVSPost2010Prop37
 90
       50
102
RTVSPost2010PropOp37
 70
     1
102
RTVSPost2010Prop38
140
0.0
102
RTVSPost2010PropOp38
 70
     1
102
RTVSPost2010Prop39
140
1.0
102
RTVSPost2010PropOp39
 70
     1
102
RTVSPost2010Prop40
 90
        0
102
RTVSPost2010PropOp40
 70
     1
102
RTVSPost2010Prop41ColorIndex
 90
       18
102
RTVSPost2010Prop41ColorRGB
 90
        0
102
RTVSPost2010PropOp41
 70
     1
102
RTVSPost2010Prop42
 90
       50
102
RTVSPost2010PropOp42
 70
     1
102
RTVSPost2010Prop43
 90
        3
102
RTVSPost2010PropOp43
 70
     1
102
RTVSPost2010Prop44ColorIndex
 90
        5
102
RTVSPost2010Prop44ColorRGB
 90
      255
102
RTVSPost2010PropOp44
 70
     1
102
RTVSPost2010Prop45
280
     0
102
RTVSPost2010PropOp45
 70
     1
102
RTVSPost2010Prop46
 90
       50
102
RTVSPost2010PropOp46
 70
     1
102
RTVSPost2010Prop47
 90
       50
102
RTVSPost2010PropOp47
 70
     1
102
RTVSPost2010Prop48
 90
       50
102
RTVSPost2010PropOp48
 70
     1
102
RTVSPost2010Prop49
280
     0
102
RTVSPost2010PropOp49
 70
     1
102
RTVSPost2010Prop50
 90
       50
102
RTVSPost2010PropOp50
 70
     1
102
RTVSPost2010Prop51ColorIndex
 90
      256
102
RTVSPost2010Prop51ColorRGB
 90
-16777216
102
RTVSPost2010PropOp51
 70
     0
102
RTVSPost2010Prop52
140
1.0
102
RTVSPost2010PropOp52
 70
     0
102
RTVSPost2010Prop53
 90
        2
102
RTVSPost2010PropOp53
 70
     1
102
RTVSPost2010Prop54
  1
strokes_ogs.tif
102
RTVSPost2010PropOp54
 70
     1
102
RTVSPost2010Prop55
280
     0
102
RTVSPost2010PropOp55
 70
     1
102
RTVSPost2010Prop56
140
1.0
102
RTVSPost2010PropOp56
 70
     1
102
RTVSPost2010Prop57
140
1.0
102
RTVSPost2010PropOp57
 70
     1
  0
XRECORD
  5
3B2
102
{ACAD_REACTORS
330
3B1
102
}
330
3B1
100
AcDbXrecord
280
     1
102
RTVSPropertyOp0
 70
     1
102
RTVSPropertyOp1
 70
     1
102
RTVSPropertyOp2
 70
     1
102
RTVSPropertyOp3
 70
     1
102
RTVSPropertyOp4
 70
     1
102
RTVSPropertyOp5
 70
     1
102
RTVSPropertyOp6
 70
     1
102
RTVSPropertyOp7
 70
     1
102
RTVSPropertyOp8
 70
     1
102
RTVSPropertyOp9
 70
     1
102
RTVSPropertyOp10
 70
     1
102
RTVSPropertyOp11
 70
     1
102
RTVSPropertyOp12
 70
     1
102
RTVSPropertyOp13
 70
     1
102
RTVSPropertyOp14
 70
     1
102
RTVSPropertyOp15
 70
     1
102
RTVSPropertyOp16
 70
     1
102
RTVSPropertyOp17
 70
     1
102
RTVSPropertyOp18
 70
     1
102
RTVSPropertyOp19
 70
     1
102
RTVSPropertyOp20
 70
     1
102
RTVSPropertyOp21
 70
     1
102
RTVSPropertyOp22
 70
     1
102
RTVSPropertyOp23
 70
     1
102
RTVSPropertyOp24
 70
     1
102
RTVSPropertyOp25
 70
     1
102
RTVSPropertyOp26
 70
     1
102
RTVSPropertyOp27
 70
     1
102
RTVSPropertyOp28
 70
     1
102
RTVSPropertyOp29
 70
     1
102
RTVSPropertyOp30
 70
     1
102
RTVSPropertyOp31
 70
     1
102
RTVSPropertyOp32
 70
     1
102
RTVSPropertyOp33
 70
     1
102
RTVSPropertyOp34
 70
     1
102
RTVSPropertyOp35
 70
     1
102
RTVSPropertyOp36
 70
     1
102
RTVSPropertyOp37
 70
     1
102
RTVSPropertyOp38
 70
     1
102
RTVSPropertyOp39
 70
     1
102
RTVSPropertyOp40
 70
     1
102
RTVSPropertyOp41
 70
     1
102
RTVSPropertyOp42
 70
     1
102
RTVSPropertyOp43
 70
     1
102
RTVSPropertyOp44
 70
     1
102
RTVSPropertyOp45
 70
     1
102
RTVSPropertyOp46
 70
     1
102
RTVSPropertyOp47
 70
     1
102
RTVSPropertyOp48
 70
     1
102
RTVSPropertyOp49
 70
     1
102
RTVSPropertyOp50
 70
     1
102
RTVSPropertyOp51
 70
     0
102
RTVSPropertyOp52
 70
     0
102
RTVSPropertyOp53
 70
     1
102
RTVSPropertyOp54
 70
     1
102
RTVSPropertyOp55
 70
     1
102
RTVSPropertyOp56
 70
     1
102
RTVSPropertyOp57
 70
     1
102
RTVSPost2010Prop28
280
     0
102
RTVSPost2010PropOp28
 70
     1
102
RTVSPost2010Prop29
280
     1
102
RTVSPost2010PropOp29
 70
     1
102
RTVSPost2010Prop30
280
     1
102
RTVSPost2010PropOp30
 70
     1
102
RTVSPost2010Prop31
280
     0
102
RTVSPost2010PropOp31
 70
     1
102
RTVSPost2010Prop32
280
     0
102
RTVSPost2010PropOp32
 70
     1
102
RTVSPost2010Prop33
280
     0
102
RTVSPost2010PropOp33
 70
     1
102
RTVSPost2010Prop34
280
     0
102
RTVSPost2010PropOp34
 70
     1
102
RTVSPost2010Prop35
280
     0
102
RTVSPost2010PropOp35
 70
     1
102
RTVSPost2010Prop36
280
     0
102
RTVSPost2010PropOp36
 70
     1
102
RTVSPost2010Prop37
 90
       50
102
RTVSPost2010PropOp37
 70
     1
102
RTVSPost2010Prop38
140
0.0
102
RTVSPost2010PropOp38
 70
     1
102
RTVSPost2010Prop39
140
1.0
102
RTVSPost2010PropOp39
 70
     1
102
RTVSPost2010Prop40
 90
        0
102
RTVSPost2010PropOp40
 70
     1
102
RTVSPost2010Prop41ColorIndex
 90
       18
102
RTVSPost2010Prop41ColorRGB
 90
        0
102
RTVSPost2010PropOp41
 70
     1
102
RTVSPost2010Prop42
 90
       50
102
RTVSPost2010PropOp42
 70
     1
102
RTVSPost2010Prop43
 90
        3
102
RTVSPost2010PropOp43
 70
     1
102
RTVSPost2010Prop44ColorIndex
 90
        5
102
RTVSPost2010Prop44ColorRGB
 90
      255
102
RTVSPost2010PropOp44
 70
     1
102
RTVSPost2010Prop45
280
     0
102
RTVSPost2010PropOp45
 70
     1
102
RTVSPost2010Prop46
 90
       50
102
RTVSPost2010PropOp46
 70
     1
102
RTVSPost2010Prop47
 90
       50
102
RTVSPost2010PropOp47
 70
     1
102
RTVSPost2010Prop48
 90
       50
102
RTVSPost2010PropOp48
 70
     1
102
RTVSPost2010Prop49
280
     0
102
RTVSPost2010PropOp49
 70
     1
102
RTVSPost2010Prop50
 90
       50
102
RTVSPost2010PropOp50
 70
     1
102
RTVSPost2010Prop51ColorIndex
 90
      256
102
RTVSPost2010Prop51ColorRGB
 90
-16777216
102
RTVSPost2010PropOp51
 70
     0
102
RTVSPost2010Prop52
140
1.0
102
RTVSPost2010PropOp52
 70
     0
102
RTVSPost2010Prop53
 90
        2
102
RTVSPost2010PropOp53
 70
     1
102
RTVSPost2010Prop54
  1
strokes_ogs.tif
102
RTVSPost2010PropOp54
 70
     1
102
RTVSPost2010Prop55
280
     0
102
RTVSPost2010PropOp55
 70
     1
102
RTVSPost2010Prop56
140
1.0
102
RTVSPost2010PropOp56
 70
     1
102
RTVSPost2010Prop57
140
1.0
102
RTVSPost2010PropOp57
 70
     1
  0
XRECORD
  5
3BA
102
{ACAD_REACTORS
330
3B9
102
}
330
3B9
100
AcDbXrecord
280
     1
102
RTVSPropertyOp0
 70
     1
102
RTVSPropertyOp1
 70
     1
102
RTVSPropertyOp2
 70
     1
102
RTVSPropertyOp3
 70
     1
102
RTVSPropertyOp4
 70
     1
102
RTVSPropertyOp5
 70
     1
102
RTVSPropertyOp6
 70
     1
102
RTVSPropertyOp7
 70
     1
102
RTVSPropertyOp8
 70
     1
102
RTVSPropertyOp9
 70
     1
102
RTVSPropertyOp10
 70
     1
102
RTVSPropertyOp11
 70
     1
102
RTVSPropertyOp12
 70
     1
102
RTVSPropertyOp13
 70
     1
102
RTVSPropertyOp14
 70
     1
102
RTVSPropertyOp15
 70
     1
102
RTVSPropertyOp16
 70
     1
102
RTVSPropertyOp17
 70
     1
102
RTVSPropertyOp18
 70
     1
102
RTVSPropertyOp19
 70
     1
102
RTVSPropertyOp20
 70
     1
102
RTVSPropertyOp21
 70
     1
102
RTVSPropertyOp22
 70
     1
102
RTVSPropertyOp23
 70
     1
102
RTVSPropertyOp24
 70
     1
102
RTVSPropertyOp25
 70
     1
102
RTVSPropertyOp26
 70
     1
102
RTVSPropertyOp27
 70
     1
102
RTVSPropertyOp28
 70
     1
102
RTVSPropertyOp29
 70
     1
102
RTVSPropertyOp30
 70
     1
102
RTVSPropertyOp31
 70
     1
102
RTVSPropertyOp32
 70
     1
102
RTVSPropertyOp33
 70
     1
102
RTVSPropertyOp34
 70
     1
102
RTVSPropertyOp35
 70
     1
102
RTVSPropertyOp36
 70
     1
102
RTVSPropertyOp37
 70
     1
102
RTVSPropertyOp38
 70
     1
102
RTVSPropertyOp39
 70
     1
102
RTVSPropertyOp40
 70
     1
102
RTVSPropertyOp41
 70
     1
102
RTVSPropertyOp42
 70
     1
102
RTVSPropertyOp43
 70
     1
102
RTVSPropertyOp44
 70
     1
102
RTVSPropertyOp45
 70
     1
102
RTVSPropertyOp46
 70
     1
102
RTVSPropertyOp47
 70
     1
102
RTVSPropertyOp48
 70
     1
102
RTVSPropertyOp49
 70
     1
102
RTVSPropertyOp50
 70
     1
102
RTVSPropertyOp51
 70
     0
102
RTVSPropertyOp52
 70
     0
102
RTVSPropertyOp53
 70
     1
102
RTVSPropertyOp54
 70
     1
102
RTVSPropertyOp55
 70
     1
102
RTVSPropertyOp56
 70
     1
102
RTVSPropertyOp57
 70
     1
102
RTVSPost2010Prop28
280
     0
102
RTVSPost2010PropOp28
 70
     1
102
RTVSPost2010Prop29
280
     1
102
RTVSPost2010PropOp29
 70
     1
102
RTVSPost2010Prop30
280
     1
102
RTVSPost2010PropOp30
 70
     1
102
RTVSPost2010Prop31
280
     0
102
RTVSPost2010PropOp31
 70
     1
102
RTVSPost2010Prop32
280
     0
102
RTVSPost2010PropOp32
 70
     1
102
RTVSPost2010Prop33
280
     0
102
RTVSPost2010PropOp33
 70
     1
102
RTVSPost2010Prop34
280
     0
102
RTVSPost2010PropOp34
 70
     1
102
RTVSPost2010Prop35
280
     0
102
RTVSPost2010PropOp35
 70
     1
102
RTVSPost2010Prop36
280
     0
102
RTVSPost2010PropOp36
 70
     1
102
RTVSPost2010Prop37
 90
       50
102
RTVSPost2010PropOp37
 70
     1
102
RTVSPost2010Prop38
140
0.0
102
RTVSPost2010PropOp38
 70
     1
102
RTVSPost2010Prop39
140
1.0
102
RTVSPost2010PropOp39
 70
     1
102
RTVSPost2010Prop40
 90
        0
102
RTVSPost2010PropOp40
 70
     1
102
RTVSPost2010Prop41ColorIndex
 90
       18
102
RTVSPost2010Prop41ColorRGB
 90
        0
102
RTVSPost2010PropOp41
 70
     1
102
RTVSPost2010Prop42
 90
       50
102
RTVSPost2010PropOp42
 70
     1
102
RTVSPost2010Prop43
 90
        3
102
RTVSPost2010PropOp43
 70
     1
102
RTVSPost2010Prop44ColorIndex
 90
        5
102
RTVSPost2010Prop44ColorRGB
 90
      255
102
RTVSPost2010PropOp44
 70
     1
102
RTVSPost2010Prop45
280
     0
102
RTVSPost2010PropOp45
 70
     1
102
RTVSPost2010Prop46
 90
       50
102
RTVSPost2010PropOp46
 70
     1
102
RTVSPost2010Prop47
 90
       50
102
RTVSPost2010PropOp47
 70
     1
102
RTVSPost2010Prop48
 90
       50
102
RTVSPost2010PropOp48
 70
     1
102
RTVSPost2010Prop49
280
     0
102
RTVSPost2010PropOp49
 70
     1
102
RTVSPost2010Prop50
 90
       50
102
RTVSPost2010PropOp50
 70
     1
102
RTVSPost2010Prop51ColorIndex
 90
      256
102
RTVSPost2010Prop51ColorRGB
 90
-16777216
102
RTVSPost2010PropOp51
 70
     0
102
RTVSPost2010Prop52
140
1.0
102
RTVSPost2010PropOp52
 70
     0
102
RTVSPost2010Prop53
 90
        2
102
RTVSPost2010PropOp53
 70
     1
102
RTVSPost2010Prop54
  1
strokes_ogs.tif
102
RTVSPost2010PropOp54
 70
     1
102
RTVSPost2010Prop55
280
     0
102
RTVSPost2010PropOp55
 70
     1
102
RTVSPost2010Prop56
140
1.0
102
RTVSPost2010PropOp56
 70
     1
102
RTVSPost2010Prop57
140
1.0
102
RTVSPost2010PropOp57
 70
     1
  0
XRECORD
  5
3C2
102
{ACAD_REACTORS
330
3C1
102
}
330
3C1
100
AcDbXrecord
280
     1
102
RTVSPropertyOp0
 70
     1
102
RTVSPropertyOp1
 70
     1
102
RTVSPropertyOp2
 70
     1
102
RTVSPropertyOp3
 70
     1
102
RTVSPropertyOp4
 70
     1
102
RTVSPropertyOp5
 70
     1
102
RTVSPropertyOp6
 70
     1
102
RTVSPropertyOp7
 70
     1
102
RTVSPropertyOp8
 70
     1
102
RTVSPropertyOp9
 70
     1
102
RTVSPropertyOp10
 70
     1
102
RTVSPropertyOp11
 70
     1
102
RTVSPropertyOp12
 70
     1
102
RTVSPropertyOp13
 70
     1
102
RTVSPropertyOp14
 70
     1
102
RTVSPropertyOp15
 70
     1
102
RTVSPropertyOp16
 70
     1
102
RTVSPropertyOp17
 70
     1
102
RTVSPropertyOp18
 70
     1
102
RTVSPropertyOp19
 70
     1
102
RTVSPropertyOp20
 70
     1
102
RTVSPropertyOp21
 70
     1
102
RTVSPropertyOp22
 70
     1
102
RTVSPropertyOp23
 70
     1
102
RTVSPropertyOp24
 70
     1
102
RTVSPropertyOp25
 70
     1
102
RTVSPropertyOp26
 70
     1
102
RTVSPropertyOp27
 70
     1
102
RTVSPropertyOp28
 70
     1
102
RTVSPropertyOp29
 70
     1
102
RTVSPropertyOp30
 70
     1
102
RTVSPropertyOp31
 70
     1
102
RTVSPropertyOp32
 70
     1
102
RTVSPropertyOp33
 70
     1
102
RTVSPropertyOp34
 70
     1
102
RTVSPropertyOp35
 70
     1
102
RTVSPropertyOp36
 70
     1
102
RTVSPropertyOp37
 70
     1
102
RTVSPropertyOp38
 70
     1
102
RTVSPropertyOp39
 70
     1
102
RTVSPropertyOp40
 70
     1
102
RTVSPropertyOp41
 70
     1
102
RTVSPropertyOp42
 70
     1
102
RTVSPropertyOp43
 70
     1
102
RTVSPropertyOp44
 70
     1
102
RTVSPropertyOp45
 70
     1
102
RTVSPropertyOp46
 70
     1
102
RTVSPropertyOp47
 70
     1
102
RTVSPropertyOp48
 70
     1
102
RTVSPropertyOp49
 70
     1
102
RTVSPropertyOp50
 70
     1
102
RTVSPropertyOp51
 70
     0
102
RTVSPropertyOp52
 70
     0
102
RTVSPropertyOp53
 70
     1
102
RTVSPropertyOp54
 70
     1
102
RTVSPropertyOp55
 70
     1
102
RTVSPropertyOp56
 70
     1
102
RTVSPropertyOp57
 70
     1
102
RTVSPost2010Prop28
280
     0
102
RTVSPost2010PropOp28
 70
     1
102
RTVSPost2010Prop29
280
     1
102
RTVSPost2010PropOp29
 70
     1
102
RTVSPost2010Prop30
280
     1
102
RTVSPost2010PropOp30
 70
     1
102
RTVSPost2010Prop31
280
     0
102
RTVSPost2010PropOp31
 70
     1
102
RTVSPost2010Prop32
280
     0
102
RTVSPost2010PropOp32
 70
     1
102
RTVSPost2010Prop33
280
     0
102
RTVSPost2010PropOp33
 70
     1
102
RTVSPost2010Prop34
280
     0
102
RTVSPost2010PropOp34
 70
     1
102
RTVSPost2010Prop35
280
     0
102
RTVSPost2010PropOp35
 70
     1
102
RTVSPost2010Prop36
280
     0
102
RTVSPost2010PropOp36
 70
     1
102
RTVSPost2010Prop37
 90
       50
102
RTVSPost2010PropOp37
 70
     1
102
RTVSPost2010Prop38
140
0.0
102
RTVSPost2010PropOp38
 70
     1
102
RTVSPost2010Prop39
140
1.0
102
RTVSPost2010PropOp39
 70
     1
102
RTVSPost2010Prop40
 90
        0
102
RTVSPost2010PropOp40
 70
     1
102
RTVSPost2010Prop41ColorIndex
 90
       18
102
RTVSPost2010Prop41ColorRGB
 90
        0
102
RTVSPost2010PropOp41
 70
     1
102
RTVSPost2010Prop42
 90
       50
102
RTVSPost2010PropOp42
 70
     1
102
RTVSPost2010Prop43
 90
        3
102
RTVSPost2010PropOp43
 70
     1
102
RTVSPost2010Prop44ColorIndex
 90
        5
102
RTVSPost2010Prop44ColorRGB
 90
      255
102
RTVSPost2010PropOp44
 70
     1
102
RTVSPost2010Prop45
280
     0
102
RTVSPost2010PropOp45
 70
     1
102
RTVSPost2010Prop46
 90
       50
102
RTVSPost2010PropOp46
 70
     1
102
RTVSPost2010Prop47
 90
       50
102
RTVSPost2010PropOp47
 70
     1
102
RTVSPost2010Prop48
 90
       50
102
RTVSPost2010PropOp48
 70
     1
102
RTVSPost2010Prop49
280
     0
102
RTVSPost2010PropOp49
 70
     1
102
RTVSPost2010Prop50
 90
       50
102
RTVSPost2010PropOp50
 70
     1
102
RTVSPost2010Prop51ColorIndex
 90
      256
102
RTVSPost2010Prop51ColorRGB
 90
-16777216
102
RTVSPost2010PropOp51
 70
     0
102
RTVSPost2010Prop52
140
1.0
102
RTVSPost2010PropOp52
 70
     0
102
RTVSPost2010Prop53
 90
        2
102
RTVSPost2010PropOp53
 70
     1
102
RTVSPost2010Prop54
  1
strokes_ogs.tif
102
RTVSPost2010PropOp54
 70
     1
102
RTVSPost2010Prop55
280
     0
102
RTVSPost2010PropOp55
 70
     1
102
RTVSPost2010Prop56
140
1.0
102
RTVSPost2010PropOp56
 70
     1
102
RTVSPost2010Prop57
140
1.0
102
RTVSPost2010PropOp57
 70
     1
  0
XRECORD
  5
3B6
102
{ACAD_REACTORS
330
3B5
102
}
330
3B5
100
AcDbXrecord
280
     1
102
RTVSPropertyOp0
 70
     1
102
RTVSPropertyOp1
 70
     1
102
RTVSPropertyOp2
 70
     1
102
RTVSPropertyOp3
 70
     1
102
RTVSPropertyOp4
 70
     1
102
RTVSPropertyOp5
 70
     1
102
RTVSPropertyOp6
 70
     1
102
RTVSPropertyOp7
 70
     1
102
RTVSPropertyOp8
 70
     1
102
RTVSPropertyOp9
 70
     1
102
RTVSPropertyOp10
 70
     1
102
RTVSPropertyOp11
 70
     1
102
RTVSPropertyOp12
 70
     1
102
RTVSPropertyOp13
 70
     1
102
RTVSPropertyOp14
 70
     1
102
RTVSPropertyOp15
 70
     1
102
RTVSPropertyOp16
 70
     1
102
RTVSPropertyOp17
 70
     1
102
RTVSPropertyOp18
 70
     1
102
RTVSPropertyOp19
 70
     1
102
RTVSPropertyOp20
 70
     1
102
RTVSPropertyOp21
 70
     1
102
RTVSPropertyOp22
 70
     1
102
RTVSPropertyOp23
 70
     1
102
RTVSPropertyOp24
 70
     1
102
RTVSPropertyOp25
 70
     1
102
RTVSPropertyOp26
 70
     1
102
RTVSPropertyOp27
 70
     1
102
RTVSPropertyOp28
 70
     1
102
RTVSPropertyOp29
 70
     1
102
RTVSPropertyOp30
 70
     1
102
RTVSPropertyOp31
 70
     1
102
RTVSPropertyOp32
 70
     1
102
RTVSPropertyOp33
 70
     1
102
RTVSPropertyOp34
 70
     1
102
RTVSPropertyOp35
 70
     1
102
RTVSPropertyOp36
 70
     1
102
RTVSPropertyOp37
 70
     1
102
RTVSPropertyOp38
 70
     1
102
RTVSPropertyOp39
 70
     1
102
RTVSPropertyOp40
 70
     1
102
RTVSPropertyOp41
 70
     1
102
RTVSPropertyOp42
 70
     1
102
RTVSPropertyOp43
 70
     1
102
RTVSPropertyOp44
 70
     1
102
RTVSPropertyOp45
 70
     1
102
RTVSPropertyOp46
 70
     1
102
RTVSPropertyOp47
 70
     1
102
RTVSPropertyOp48
 70
     1
102
RTVSPropertyOp49
 70
     1
102
RTVSPropertyOp50
 70
     1
102
RTVSPropertyOp51
 70
     0
102
RTVSPropertyOp52
 70
     0
102
RTVSPropertyOp53
 70
     1
102
RTVSPropertyOp54
 70
     1
102
RTVSPropertyOp55
 70
     1
102
RTVSPropertyOp56
 70
     1
102
RTVSPropertyOp57
 70
     1
102
RTVSPost2010Prop28
280
     0
102
RTVSPost2010PropOp28
 70
     1
102
RTVSPost2010Prop29
280
     1
102
RTVSPost2010PropOp29
 70
     1
102
RTVSPost2010Prop30
280
     1
102
RTVSPost2010PropOp30
 70
     1
102
RTVSPost2010Prop31
280
     0
102
RTVSPost2010PropOp31
 70
     1
102
RTVSPost2010Prop32
280
     0
102
RTVSPost2010PropOp32
 70
     1
102
RTVSPost2010Prop33
280
     0
102
RTVSPost2010PropOp33
 70
     1
102
RTVSPost2010Prop34
280
     0
102
RTVSPost2010PropOp34
 70
     1
102
RTVSPost2010Prop35
280
     0
102
RTVSPost2010PropOp35
 70
     1
102
RTVSPost2010Prop36
280
     0
102
RTVSPost2010PropOp36
 70
     1
102
RTVSPost2010Prop37
 90
       50
102
RTVSPost2010PropOp37
 70
     1
102
RTVSPost2010Prop38
140
0.0
102
RTVSPost2010PropOp38
 70
     1
102
RTVSPost2010Prop39
140
1.0
102
RTVSPost2010PropOp39
 70
     1
102
RTVSPost2010Prop40
 90
        0
102
RTVSPost2010PropOp40
 70
     1
102
RTVSPost2010Prop41ColorIndex
 90
       18
102
RTVSPost2010Prop41ColorRGB
 90
        0
102
RTVSPost2010PropOp41
 70
     1
102
RTVSPost2010Prop42
 90
       50
102
RTVSPost2010PropOp42
 70
     1
102
RTVSPost2010Prop43
 90
        3
102
RTVSPost2010PropOp43
 70
     1
102
RTVSPost2010Prop44ColorIndex
 90
        5
102
RTVSPost2010Prop44ColorRGB
 90
      255
102
RTVSPost2010PropOp44
 70
     1
102
RTVSPost2010Prop45
280
     0
102
RTVSPost2010PropOp45
 70
     1
102
RTVSPost2010Prop46
 90
       50
102
RTVSPost2010PropOp46
 70
     1
102
RTVSPost2010Prop47
 90
       50
102
RTVSPost2010PropOp47
 70
     1
102
RTVSPost2010Prop48
 90
       50
102
RTVSPost2010PropOp48
 70
     1
102
RTVSPost2010Prop49
280
     0
102
RTVSPost2010PropOp49
 70
     1
102
RTVSPost2010Prop50
 90
       50
102
RTVSPost2010PropOp50
 70
     1
102
RTVSPost2010Prop51ColorIndex
 90
      256
102
RTVSPost2010Prop51ColorRGB
 90
-16777216
102
RTVSPost2010PropOp51
 70
     0
102
RTVSPost2010Prop52
140
1.0
102
RTVSPost2010PropOp52
 70
     0
102
RTVSPost2010Prop53
 90
        2
102
RTVSPost2010PropOp53
 70
     1
102
RTVSPost2010Prop54
  1
strokes_ogs.tif
102
RTVSPost2010PropOp54
 70
     1
102
RTVSPost2010Prop55
280
     0
102
RTVSPost2010PropOp55
 70
     1
102
RTVSPost2010Prop56
140
1.0
102
RTVSPost2010PropOp56
 70
     1
102
RTVSPost2010Prop57
140
1.0
102
RTVSPost2010PropOp57
 70
     1
  0
XRECORD
  5
3B8
102
{ACAD_REACTORS
330
3B7
102
}
330
3B7
100
AcDbXrecord
280
     1
102
RTVSPropertyOp0
 70
     1
102
RTVSPropertyOp1
 70
     1
102
RTVSPropertyOp2
 70
     1
102
RTVSPropertyOp3
 70
     1
102
RTVSPropertyOp4
 70
     1
102
RTVSPropertyOp5
 70
     1
102
RTVSPropertyOp6
 70
     1
102
RTVSPropertyOp7
 70
     1
102
RTVSPropertyOp8
 70
     1
102
RTVSPropertyOp9
 70
     1
102
RTVSPropertyOp10
 70
     1
102
RTVSPropertyOp11
 70
     1
102
RTVSPropertyOp12
 70
     1
102
RTVSPropertyOp13
 70
     1
102
RTVSPropertyOp14
 70
     1
102
RTVSPropertyOp15
 70
     1
102
RTVSPropertyOp16
 70
     1
102
RTVSPropertyOp17
 70
     1
102
RTVSPropertyOp18
 70
     1
102
RTVSPropertyOp19
 70
     1
102
RTVSPropertyOp20
 70
     1
102
RTVSPropertyOp21
 70
     1
102
RTVSPropertyOp22
 70
     1
102
RTVSPropertyOp23
 70
     1
102
RTVSPropertyOp24
 70
     1
102
RTVSPropertyOp25
 70
     1
102
RTVSPropertyOp26
 70
     1
102
RTVSPropertyOp27
 70
     1
102
RTVSPropertyOp28
 70
     1
102
RTVSPropertyOp29
 70
     1
102
RTVSPropertyOp30
 70
     1
102
RTVSPropertyOp31
 70
     1
102
RTVSPropertyOp32
 70
     1
102
RTVSPropertyOp33
 70
     1
102
RTVSPropertyOp34
 70
     1
102
RTVSPropertyOp35
 70
     1
102
RTVSPropertyOp36
 70
     1
102
RTVSPropertyOp37
 70
     1
102
RTVSPropertyOp38
 70
     1
102
RTVSPropertyOp39
 70
     1
102
RTVSPropertyOp40
 70
     1
102
RTVSPropertyOp41
 70
     1
102
RTVSPropertyOp42
 70
     1
102
RTVSPropertyOp43
 70
     1
102
RTVSPropertyOp44
 70
     1
102
RTVSPropertyOp45
 70
     1
102
RTVSPropertyOp46
 70
     1
102
RTVSPropertyOp47
 70
     1
102
RTVSPropertyOp48
 70
     1
102
RTVSPropertyOp49
 70
     1
102
RTVSPropertyOp50
 70
     1
102
RTVSPropertyOp51
 70
     0
102
RTVSPropertyOp52
 70
     0
102
RTVSPropertyOp53
 70
     1
102
RTVSPropertyOp54
 70
     1
102
RTVSPropertyOp55
 70
     1
102
RTVSPropertyOp56
 70
     1
102
RTVSPropertyOp57
 70
     1
102
RTVSPost2010Prop28
280
     0
102
RTVSPost2010PropOp28
 70
     1
102
RTVSPost2010Prop29
280
     1
102
RTVSPost2010PropOp29
 70
     1
102
RTVSPost2010Prop30
280
     1
102
RTVSPost2010PropOp30
 70
     1
102
RTVSPost2010Prop31
280
     0
102
RTVSPost2010PropOp31
 70
     1
102
RTVSPost2010Prop32
280
     0
102
RTVSPost2010PropOp32
 70
     1
102
RTVSPost2010Prop33
280
     0
102
RTVSPost2010PropOp33
 70
     1
102
RTVSPost2010Prop34
280
     0
102
RTVSPost2010PropOp34
 70
     1
102
RTVSPost2010Prop35
280
     0
102
RTVSPost2010PropOp35
 70
     1
102
RTVSPost2010Prop36
280
     0
102
RTVSPost2010PropOp36
 70
     1
102
RTVSPost2010Prop37
 90
       50
102
RTVSPost2010PropOp37
 70
     1
102
RTVSPost2010Prop38
140
0.0
102
RTVSPost2010PropOp38
 70
     1
102
RTVSPost2010Prop39
140
1.0
102
RTVSPost2010PropOp39
 70
     1
102
RTVSPost2010Prop40
 90
        0
102
RTVSPost2010PropOp40
 70
     1
102
RTVSPost2010Prop41ColorIndex
 90
       18
102
RTVSPost2010Prop41ColorRGB
 90
        0
102
RTVSPost2010PropOp41
 70
     1
102
RTVSPost2010Prop42
 90
       50
102
RTVSPost2010PropOp42
 70
     1
102
RTVSPost2010Prop43
 90
        3
102
RTVSPost2010PropOp43
 70
     1
102
RTVSPost2010Prop44ColorIndex
 90
        5
102
RTVSPost2010Prop44ColorRGB
 90
      255
102
RTVSPost2010PropOp44
 70
     1
102
RTVSPost2010Prop45
280
     0
102
RTVSPost2010PropOp45
 70
     1
102
RTVSPost2010Prop46
 90
       50
102
RTVSPost2010PropOp46
 70
     1
102
RTVSPost2010Prop47
 90
       50
102
RTVSPost2010PropOp47
 70
     1
102
RTVSPost2010Prop48
 90
       50
102
RTVSPost2010PropOp48
 70
     1
102
RTVSPost2010Prop49
280
     0
102
RTVSPost2010PropOp49
 70
     1
102
RTVSPost2010Prop50
 90
       50
102
RTVSPost2010PropOp50
 70
     1
102
RTVSPost2010Prop51ColorIndex
 90
      256
102
RTVSPost2010Prop51ColorRGB
 90
-16777216
102
RTVSPost2010PropOp51
 70
     0
102
RTVSPost2010Prop52
140
1.0
102
RTVSPost2010PropOp52
 70
     0
102
RTVSPost2010Prop53
 90
        2
102
RTVSPost2010PropOp53
 70
     1
102
RTVSPost2010Prop54
  1
strokes_ogs.tif
102
RTVSPost2010PropOp54
 70
     1
102
RTVSPost2010Prop55
280
     0
102
RTVSPost2010PropOp55
 70
     1
102
RTVSPost2010Prop56
140
1.0
102
RTVSPost2010PropOp56
 70
     1
102
RTVSPost2010Prop57
140
1.0
102
RTVSPost2010PropOp57
 70
     1
  0
XRECORD
  5
3C8
102
{ACAD_REACTORS
330
3C7
102
}
330
3C7
100
AcDbXrecord
280
     1
102
RTVSPropertyOp0
 70
     0
102
RTVSPropertyOp1
 70
     0
102
RTVSPropertyOp2
 70
     0
102
RTVSPropertyOp3
 70
     0
102
RTVSPropertyOp4
 70
     0
102
RTVSPropertyOp5
 70
     0
102
RTVSPropertyOp6
 70
     0
102
RTVSPropertyOp7
 70
     0
102
RTVSPropertyOp8
 70
     0
102
RTVSPropertyOp9
 70
     0
102
RTVSPropertyOp10
 70
     0
102
RTVSPropertyOp11
 70
     0
102
RTVSPropertyOp12
 70
     0
102
RTVSPropertyOp13
 70
     0
102
RTVSPropertyOp14
 70
     2
102
RTVSPropertyOp15
 70
     0
102
RTVSPropertyOp16
 70
     0
102
RTVSPropertyOp17
 70
     0
102
RTVSPropertyOp18
 70
     0
102
RTVSPropertyOp19
 70
     0
102
RTVSPropertyOp20
 70
     0
102
RTVSPropertyOp21
 70
     0
102
RTVSPropertyOp22
 70
     0
102
RTVSPropertyOp23
 70
     0
102
RTVSPropertyOp24
 70
     0
102
RTVSPropertyOp25
 70
     0
102
RTVSPropertyOp26
 70
     0
102
RTVSPropertyOp27
 70
     0
102
RTVSPropertyOp28
 70
     0
102
RTVSPropertyOp29
 70
     0
102
RTVSPropertyOp30
 70
     0
102
RTVSPropertyOp31
 70
     0
102
RTVSPropertyOp32
 70
     0
102
RTVSPropertyOp33
 70
     0
102
RTVSPropertyOp34
 70
     0
102
RTVSPropertyOp35
 70
     0
102
RTVSPropertyOp36
 70
     0
102
RTVSPropertyOp37
 70
     0
102
RTVSPropertyOp38
 70
     0
102
RTVSPropertyOp39
 70
     0
102
RTVSPropertyOp40
 70
     0
102
RTVSPropertyOp41
 70
     0
102
RTVSPropertyOp42
 70
     0
102
RTVSPropertyOp43
 70
     0
102
RTVSPropertyOp44
 70
     0
102
RTVSPropertyOp45
 70
     0
102
RTVSPropertyOp46
 70
     0
102
RTVSPropertyOp47
 70
     0
102
RTVSPropertyOp48
 70
     0
102
RTVSPropertyOp49
 70
     0
102
RTVSPropertyOp50
 70
     0
102
RTVSPropertyOp51
 70
     0
102
RTVSPropertyOp52
 70
     0
102
RTVSPropertyOp53
 70
     0
102
RTVSPropertyOp54
 70
     0
102
RTVSPropertyOp55
 70
     0
102
RTVSPropertyOp56
 70
     0
102
RTVSPropertyOp57
 70
     0
102
RTVSPost2010Prop28
280
     0
102
RTVSPost2010PropOp28
 70
     0
102
RTVSPost2010Prop29
280
     1
102
RTVSPost2010PropOp29
 70
     0
102
RTVSPost2010Prop30
280
     1
102
RTVSPost2010PropOp30
 70
     0
102
RTVSPost2010Prop31
280
     0
102
RTVSPost2010PropOp31
 70
     0
102
RTVSPost2010Prop32
280
     0
102
RTVSPost2010PropOp32
 70
     0
102
RTVSPost2010Prop33
280
     0
102
RTVSPost2010PropOp33
 70
     0
102
RTVSPost2010Prop34
280
     0
102
RTVSPost2010PropOp34
 70
     0
102
RTVSPost2010Prop35
280
     0
102
RTVSPost2010PropOp35
 70
     0
102
RTVSPost2010Prop36
280
     0
102
RTVSPost2010PropOp36
 70
     0
102
RTVSPost2010Prop37
 90
       50
102
RTVSPost2010PropOp37
 70
     0
102
RTVSPost2010Prop38
140
0.0
102
RTVSPost2010PropOp38
 70
     0
102
RTVSPost2010Prop39
140
1.0
102
RTVSPost2010PropOp39
 70
     0
102
RTVSPost2010Prop40
 90
        0
102
RTVSPost2010PropOp40
 70
     0
102
RTVSPost2010Prop41ColorIndex
 90
       18
102
RTVSPost2010Prop41ColorRGB
 90
        0
102
RTVSPost2010PropOp41
 70
     0
102
RTVSPost2010Prop42
 90
       50
102
RTVSPost2010PropOp42
 70
     0
102
RTVSPost2010Prop43
 90
        3
102
RTVSPost2010PropOp43
 70
     0
102
RTVSPost2010Prop44ColorIndex
 90
        5
102
RTVSPost2010Prop44ColorRGB
 90
      255
102
RTVSPost2010PropOp44
 70
     0
102
RTVSPost2010Prop45
280
     0
102
RTVSPost2010PropOp45
 70
     0
102
RTVSPost2010Prop46
 90
       50
102
RTVSPost2010PropOp46
 70
     0
102
RTVSPost2010Prop47
 90
       50
102
RTVSPost2010PropOp47
 70
     0
102
RTVSPost2010Prop48
 90
       50
102
RTVSPost2010PropOp48
 70
     0
102
RTVSPost2010Prop49
280
     0
102
RTVSPost2010PropOp49
 70
     0
102
RTVSPost2010Prop50
 90
       50
102
RTVSPost2010PropOp50
 70
     0
102
RTVSPost2010Prop51ColorIndex
 90
      256
102
RTVSPost2010Prop51ColorRGB
 90
-16777216
102
RTVSPost2010PropOp51
 70
     0
102
RTVSPost2010Prop52
140
1.0
102
RTVSPost2010PropOp52
 70
     0
102
RTVSPost2010Prop53
 90
        2
102
RTVSPost2010PropOp53
 70
     0
102
RTVSPost2010Prop54
  1
strokes_ogs.tif
102
RTVSPost2010PropOp54
 70
     0
102
RTVSPost2010Prop55
280
     0
102
RTVSPost2010PropOp55
 70
     0
102
RTVSPost2010Prop56
140
1.0
102
RTVSPost2010PropOp56
 70
     0
102
RTVSPost2010Prop57
140
1.0
102
RTVSPost2010PropOp57
 70
     0
  0
XRECORD
  5
3C0
102
{ACAD_REACTORS
330
3BF
102
}
330
3BF
100
AcDbXrecord
280
     1
102
RTVSPropertyOp0
 70
     1
102
RTVSPropertyOp1
 70
     1
102
RTVSPropertyOp2
 70
     1
102
RTVSPropertyOp3
 70
     1
102
RTVSPropertyOp4
 70
     1
102
RTVSPropertyOp5
 70
     1
102
RTVSPropertyOp6
 70
     1
102
RTVSPropertyOp7
 70
     1
102
RTVSPropertyOp8
 70
     1
102
RTVSPropertyOp9
 70
     1
102
RTVSPropertyOp10
 70
     1
102
RTVSPropertyOp11
 70
     1
102
RTVSPropertyOp12
 70
     1
102
RTVSPropertyOp13
 70
     1
102
RTVSPropertyOp14
 70
     1
102
RTVSPropertyOp15
 70
     1
102
RTVSPropertyOp16
 70
     1
102
RTVSPropertyOp17
 70
     1
102
RTVSPropertyOp18
 70
     1
102
RTVSPropertyOp19
 70
     1
102
RTVSPropertyOp20
 70
     1
102
RTVSPropertyOp21
 70
     1
102
RTVSPropertyOp22
 70
     1
102
RTVSPropertyOp23
 70
     1
102
RTVSPropertyOp24
 70
     1
102
RTVSPropertyOp25
 70
     1
102
RTVSPropertyOp26
 70
     1
102
RTVSPropertyOp27
 70
     1
102
RTVSPropertyOp28
 70
     1
102
RTVSPropertyOp29
 70
     1
102
RTVSPropertyOp30
 70
     1
102
RTVSPropertyOp31
 70
     1
102
RTVSPropertyOp32
 70
     1
102
RTVSPropertyOp33
 70
     1
102
RTVSPropertyOp34
 70
     1
102
RTVSPropertyOp35
 70
     1
102
RTVSPropertyOp36
 70
     1
102
RTVSPropertyOp37
 70
     1
102
RTVSPropertyOp38
 70
     1
102
RTVSPropertyOp39
 70
     1
102
RTVSPropertyOp40
 70
     1
102
RTVSPropertyOp41
 70
     1
102
RTVSPropertyOp42
 70
     1
102
RTVSPropertyOp43
 70
     1
102
RTVSPropertyOp44
 70
     1
102
RTVSPropertyOp45
 70
     1
102
RTVSPropertyOp46
 70
     1
102
RTVSPropertyOp47
 70
     1
102
RTVSPropertyOp48
 70
     1
102
RTVSPropertyOp49
 70
     1
102
RTVSPropertyOp50
 70
     1
102
RTVSPropertyOp51
 70
     0
102
RTVSPropertyOp52
 70
     0
102
RTVSPropertyOp53
 70
     1
102
RTVSPropertyOp54
 70
     1
102
RTVSPropertyOp55
 70
     1
102
RTVSPropertyOp56
 70
     1
102
RTVSPropertyOp57
 70
     1
102
RTVSPost2010Prop28
280
     0
102
RTVSPost2010PropOp28
 70
     1
102
RTVSPost2010Prop29
280
     1
102
RTVSPost2010PropOp29
 70
     1
102
RTVSPost2010Prop30
280
     1
102
RTVSPost2010PropOp30
 70
     1
102
RTVSPost2010Prop31
280
     0
102
RTVSPost2010PropOp31
 70
     1
102
RTVSPost2010Prop32
280
     0
102
RTVSPost2010PropOp32
 70
     1
102
RTVSPost2010Prop33
280
     0
102
RTVSPost2010PropOp33
 70
     1
102
RTVSPost2010Prop34
280
     0
102
RTVSPost2010PropOp34
 70
     1
102
RTVSPost2010Prop35
280
     0
102
RTVSPost2010PropOp35
 70
     1
102
RTVSPost2010Prop36
280
     0
102
RTVSPost2010PropOp36
 70
     1
102
RTVSPost2010Prop37
 90
       50
102
RTVSPost2010PropOp37
 70
     1
102
RTVSPost2010Prop38
140
0.0
102
RTVSPost2010PropOp38
 70
     1
102
RTVSPost2010Prop39
140
1.0
102
RTVSPost2010PropOp39
 70
     1
102
RTVSPost2010Prop40
 90
        0
102
RTVSPost2010PropOp40
 70
     1
102
RTVSPost2010Prop41ColorIndex
 90
       18
102
RTVSPost2010Prop41ColorRGB
 90
        0
102
RTVSPost2010PropOp41
 70
     1
102
RTVSPost2010Prop42
 90
       50
102
RTVSPost2010PropOp42
 70
     1
102
RTVSPost2010Prop43
 90
        3
102
RTVSPost2010PropOp43
 70
     1
102
RTVSPost2010Prop44ColorIndex
 90
        5
102
RTVSPost2010Prop44ColorRGB
 90
      255
102
RTVSPost2010PropOp44
 70
     1
102
RTVSPost2010Prop45
280
     0
102
RTVSPost2010PropOp45
 70
     1
102
RTVSPost2010Prop46
 90
       50
102
RTVSPost2010PropOp46
 70
     1
102
RTVSPost2010Prop47
 90
       50
102
RTVSPost2010PropOp47
 70
     1
102
RTVSPost2010Prop48
 90
       50
102
RTVSPost2010PropOp48
 70
     1
102
RTVSPost2010Prop49
280
     0
102
RTVSPost2010PropOp49
 70
     1
102
RTVSPost2010Prop50
 90
       50
102
RTVSPost2010PropOp50
 70
     1
102
RTVSPost2010Prop51ColorIndex
 90
      256
102
RTVSPost2010Prop51ColorRGB
 90
-16777216
102
RTVSPost2010PropOp51
 70
     0
102
RTVSPost2010Prop52
140
1.0
102
RTVSPost2010PropOp52
 70
     0
102
RTVSPost2010Prop53
 90
        2
102
RTVSPost2010PropOp53
 70
     1
102
RTVSPost2010Prop54
  1
strokes_ogs.tif
102
RTVSPost2010PropOp54
 70
     1
102
RTVSPost2010Prop55
280
     0
102
RTVSPost2010PropOp55
 70
     1
102
RTVSPost2010Prop56
140
1.0
102
RTVSPost2010PropOp56
 70
     1
102
RTVSPost2010Prop57
140
1.0
102
RTVSPost2010PropOp57
 70
     1
  0
XRECORD
  5
3A4
102
{ACAD_REACTORS
330
3A3
102
}
330
3A3
100
AcDbXrecord
280
     1
102
RTVSPropertyOp0
 70
     1
102
RTVSPropertyOp1
 70
     1
102
RTVSPropertyOp2
 70
     1
102
RTVSPropertyOp3
 70
     1
102
RTVSPropertyOp4
 70
     1
102
RTVSPropertyOp5
 70
     1
102
RTVSPropertyOp6
 70
     1
102
RTVSPropertyOp7
 70
     1
102
RTVSPropertyOp8
 70
     1
102
RTVSPropertyOp9
 70
     1
102
RTVSPropertyOp10
 70
     1
102
RTVSPropertyOp11
 70
     1
102
RTVSPropertyOp12
 70
     1
102
RTVSPropertyOp13
 70
     1
102
RTVSPropertyOp14
 70
     1
102
RTVSPropertyOp15
 70
     1
102
RTVSPropertyOp16
 70
     1
102
RTVSPropertyOp17
 70
     1
102
RTVSPropertyOp18
 70
     1
102
RTVSPropertyOp19
 70
     1
102
RTVSPropertyOp20
 70
     1
102
RTVSPropertyOp21
 70
     1
102
RTVSPropertyOp22
 70
     1
102
RTVSPropertyOp23
 70
     1
102
RTVSPropertyOp24
 70
     1
102
RTVSPropertyOp25
 70
     1
102
RTVSPropertyOp26
 70
     1
102
RTVSPropertyOp27
 70
     1
102
RTVSPropertyOp28
 70
     1
102
RTVSPropertyOp29
 70
     1
102
RTVSPropertyOp30
 70
     1
102
RTVSPropertyOp31
 70
     1
102
RTVSPropertyOp32
 70
     1
102
RTVSPropertyOp33
 70
     1
102
RTVSPropertyOp34
 70
     1
102
RTVSPropertyOp35
 70
     1
102
RTVSPropertyOp36
 70
     1
102
RTVSPropertyOp37
 70
     1
102
RTVSPropertyOp38
 70
     1
102
RTVSPropertyOp39
 70
     1
102
RTVSPropertyOp40
 70
     1
102
RTVSPropertyOp41
 70
     1
102
RTVSPropertyOp42
 70
     1
102
RTVSPropertyOp43
 70
     1
102
RTVSPropertyOp44
 70
     1
102
RTVSPropertyOp45
 70
     1
102
RTVSPropertyOp46
 70
     1
102
RTVSPropertyOp47
 70
     1
102
RTVSPropertyOp48
 70
     1
102
RTVSPropertyOp49
 70
     1
102
RTVSPropertyOp50
 70
     1
102
RTVSPropertyOp51
 70
     0
102
RTVSPropertyOp52
 70
     0
102
RTVSPropertyOp53
 70
     1
102
RTVSPropertyOp54
 70
     1
102
RTVSPropertyOp55
 70
     1
102
RTVSPropertyOp56
 70
     1
102
RTVSPropertyOp57
 70
     1
102
RTVSPost2010Prop28
280
     0
102
RTVSPost2010PropOp28
 70
     1
102
RTVSPost2010Prop29
280
     1
102
RTVSPost2010PropOp29
 70
     1
102
RTVSPost2010Prop30
280
     1
102
RTVSPost2010PropOp30
 70
     1
102
RTVSPost2010Prop31
280
     0
102
RTVSPost2010PropOp31
 70
     1
102
RTVSPost2010Prop32
280
     0
102
RTVSPost2010PropOp32
 70
     1
102
RTVSPost2010Prop33
280
     0
102
RTVSPost2010PropOp33
 70
     1
102
RTVSPost2010Prop34
280
     0
102
RTVSPost2010PropOp34
 70
     1
102
RTVSPost2010Prop35
280
     0
102
RTVSPost2010PropOp35
 70
     1
102
RTVSPost2010Prop36
280
     0
102
RTVSPost2010PropOp36
 70
     1
102
RTVSPost2010Prop37
 90
       50
102
RTVSPost2010PropOp37
 70
     1
102
RTVSPost2010Prop38
140
0.0
102
RTVSPost2010PropOp38
 70
     1
102
RTVSPost2010Prop39
140
1.0
102
RTVSPost2010PropOp39
 70
     1
102
RTVSPost2010Prop40
 90
        0
102
RTVSPost2010PropOp40
 70
     1
102
RTVSPost2010Prop41ColorIndex
 90
       18
102
RTVSPost2010Prop41ColorRGB
 90
        0
102
RTVSPost2010PropOp41
 70
     1
102
RTVSPost2010Prop42
 90
       50
102
RTVSPost2010PropOp42
 70
     1
102
RTVSPost2010Prop43
 90
        3
102
RTVSPost2010PropOp43
 70
     1
102
RTVSPost2010Prop44ColorIndex
 90
        5
102
RTVSPost2010Prop44ColorRGB
 90
      255
102
RTVSPost2010PropOp44
 70
     1
102
RTVSPost2010Prop45
280
     0
102
RTVSPost2010PropOp45
 70
     1
102
RTVSPost2010Prop46
 90
       50
102
RTVSPost2010PropOp46
 70
     1
102
RTVSPost2010Prop47
 90
       50
102
RTVSPost2010PropOp47
 70
     1
102
RTVSPost2010Prop48
 90
       50
102
RTVSPost2010PropOp48
 70
     1
102
RTVSPost2010Prop49
280
     0
102
RTVSPost2010PropOp49
 70
     1
102
RTVSPost2010Prop50
 90
       50
102
RTVSPost2010PropOp50
 70
     1
102
RTVSPost2010Prop51ColorIndex
 90
      256
102
RTVSPost2010Prop51ColorRGB
 90
-16777216
102
RTVSPost2010PropOp51
 70
     0
102
RTVSPost2010Prop52
140
1.0
102
RTVSPost2010PropOp52
 70
     0
102
RTVSPost2010Prop53
 90
        2
102
RTVSPost2010PropOp53
 70
     1
102
RTVSPost2010Prop54
  1
strokes_ogs.tif
102
RTVSPost2010PropOp54
 70
     1
102
RTVSPost2010Prop55
280
     0
102
RTVSPost2010PropOp55
 70
     1
102
RTVSPost2010Prop56
140
1.0
102
RTVSPost2010PropOp56
 70
     1
102
RTVSPost2010Prop57
140
1.0
102
RTVSPost2010PropOp57
 70
     1
  0
XRECORD
  5
3A6
102
{ACAD_REACTORS
330
3A5
102
}
330
3A5
100
AcDbXrecord
280
     1
102
RTVSPropertyOp0
 70
     1
102
RTVSPropertyOp1
 70
     1
102
RTVSPropertyOp2
 70
     1
102
RTVSPropertyOp3
 70
     1
102
RTVSPropertyOp4
 70
     1
102
RTVSPropertyOp5
 70
     1
102
RTVSPropertyOp6
 70
     1
102
RTVSPropertyOp7
 70
     1
102
RTVSPropertyOp8
 70
     1
102
RTVSPropertyOp9
 70
     1
102
RTVSPropertyOp10
 70
     1
102
RTVSPropertyOp11
 70
     1
102
RTVSPropertyOp12
 70
     1
102
RTVSPropertyOp13
 70
     1
102
RTVSPropertyOp14
 70
     1
102
RTVSPropertyOp15
 70
     1
102
RTVSPropertyOp16
 70
     1
102
RTVSPropertyOp17
 70
     1
102
RTVSPropertyOp18
 70
     1
102
RTVSPropertyOp19
 70
     1
102
RTVSPropertyOp20
 70
     1
102
RTVSPropertyOp21
 70
     1
102
RTVSPropertyOp22
 70
     1
102
RTVSPropertyOp23
 70
     1
102
RTVSPropertyOp24
 70
     1
102
RTVSPropertyOp25
 70
     1
102
RTVSPropertyOp26
 70
     1
102
RTVSPropertyOp27
 70
     1
102
RTVSPropertyOp28
 70
     1
102
RTVSPropertyOp29
 70
     1
102
RTVSPropertyOp30
 70
     1
102
RTVSPropertyOp31
 70
     1
102
RTVSPropertyOp32
 70
     1
102
RTVSPropertyOp33
 70
     1
102
RTVSPropertyOp34
 70
     1
102
RTVSPropertyOp35
 70
     1
102
RTVSPropertyOp36
 70
     1
102
RTVSPropertyOp37
 70
     1
102
RTVSPropertyOp38
 70
     1
102
RTVSPropertyOp39
 70
     1
102
RTVSPropertyOp40
 70
     1
102
RTVSPropertyOp41
 70
     1
102
RTVSPropertyOp42
 70
     1
102
RTVSPropertyOp43
 70
     1
102
RTVSPropertyOp44
 70
     1
102
RTVSPropertyOp45
 70
     1
102
RTVSPropertyOp46
 70
     1
102
RTVSPropertyOp47
 70
     1
102
RTVSPropertyOp48
 70
     1
102
RTVSPropertyOp49
 70
     1
102
RTVSPropertyOp50
 70
     1
102
RTVSPropertyOp51
 70
     0
102
RTVSPropertyOp52
 70
     0
102
RTVSPropertyOp53
 70
     1
102
RTVSPropertyOp54
 70
     1
102
RTVSPropertyOp55
 70
     1
102
RTVSPropertyOp56
 70
     1
102
RTVSPropertyOp57
 70
     1
102
RTVSPost2010Prop28
280
     0
102
RTVSPost2010PropOp28
 70
     1
102
RTVSPost2010Prop29
280
     1
102
RTVSPost2010PropOp29
 70
     1
102
RTVSPost2010Prop30
280
     1
102
RTVSPost2010PropOp30
 70
     1
102
RTVSPost2010Prop31
280
     0
102
RTVSPost2010PropOp31
 70
     1
102
RTVSPost2010Prop32
280
     0
102
RTVSPost2010PropOp32
 70
     1
102
RTVSPost2010Prop33
280
     0
102
RTVSPost2010PropOp33
 70
     1
102
RTVSPost2010Prop34
280
     0
102
RTVSPost2010PropOp34
 70
     1
102
RTVSPost2010Prop35
280
     0
102
RTVSPost2010PropOp35
 70
     1
102
RTVSPost2010Prop36
280
     0
102
RTVSPost2010PropOp36
 70
     1
102
RTVSPost2010Prop37
 90
       50
102
RTVSPost2010PropOp37
 70
     1
102
RTVSPost2010Prop38
140
0.0
102
RTVSPost2010PropOp38
 70
     1
102
RTVSPost2010Prop39
140
1.0
102
RTVSPost2010PropOp39
 70
     1
102
RTVSPost2010Prop40
 90
        0
102
RTVSPost2010PropOp40
 70
     1
102
RTVSPost2010Prop41ColorIndex
 90
       18
102
RTVSPost2010Prop41ColorRGB
 90
        0
102
RTVSPost2010PropOp41
 70
     1
102
RTVSPost2010Prop42
 90
       50
102
RTVSPost2010PropOp42
 70
     1
102
RTVSPost2010Prop43
 90
        3
102
RTVSPost2010PropOp43
 70
     1
102
RTVSPost2010Prop44ColorIndex
 90
        5
102
RTVSPost2010Prop44ColorRGB
 90
      255
102
RTVSPost2010PropOp44
 70
     1
102
RTVSPost2010Prop45
280
     0
102
RTVSPost2010PropOp45
 70
     1
102
RTVSPost2010Prop46
 90
       50
102
RTVSPost2010PropOp46
 70
     1
102
RTVSPost2010Prop47
 90
       50
102
RTVSPost2010PropOp47
 70
     1
102
RTVSPost2010Prop48
 90
       50
102
RTVSPost2010PropOp48
 70
     1
102
RTVSPost2010Prop49
280
     0
102
RTVSPost2010PropOp49
 70
     1
102
RTVSPost2010Prop50
 90
       50
102
RTVSPost2010PropOp50
 70
     1
102
RTVSPost2010Prop51ColorIndex
 90
      256
102
RTVSPost2010Prop51ColorRGB
 90
-16777216
102
RTVSPost2010PropOp51
 70
     0
102
RTVSPost2010Prop52
140
1.0
102
RTVSPost2010PropOp52
 70
     0
102
RTVSPost2010Prop53
 90
        2
102
RTVSPost2010PropOp53
 70
     1
102
RTVSPost2010Prop54
  1
strokes_ogs.tif
102
RTVSPost2010PropOp54
 70
     1
102
RTVSPost2010Prop55
280
     0
102
RTVSPost2010PropOp55
 70
     1
102
RTVSPost2010Prop56
140
1.0
102
RTVSPost2010PropOp56
 70
     1
102
RTVSPost2010Prop57
140
1.0
102
RTVSPost2010PropOp57
 70
     1
  0
XRECORD
  5
3A8
102
{ACAD_REACTORS
330
3A7
102
}
330
3A7
100
AcDbXrecord
280
     1
102
RTVSPropertyOp0
 70
     1
102
RTVSPropertyOp1
 70
     1
102
RTVSPropertyOp2
 70
     1
102
RTVSPropertyOp3
 70
     1
102
RTVSPropertyOp4
 70
     1
102
RTVSPropertyOp5
 70
     1
102
RTVSPropertyOp6
 70
     1
102
RTVSPropertyOp7
 70
     1
102
RTVSPropertyOp8
 70
     1
102
RTVSPropertyOp9
 70
     1
102
RTVSPropertyOp10
 70
     1
102
RTVSPropertyOp11
 70
     1
102
RTVSPropertyOp12
 70
     1
102
RTVSPropertyOp13
 70
     1
102
RTVSPropertyOp14
 70
     1
102
RTVSPropertyOp15
 70
     1
102
RTVSPropertyOp16
 70
     1
102
RTVSPropertyOp17
 70
     1
102
RTVSPropertyOp18
 70
     1
102
RTVSPropertyOp19
 70
     1
102
RTVSPropertyOp20
 70
     1
102
RTVSPropertyOp21
 70
     1
102
RTVSPropertyOp22
 70
     1
102
RTVSPropertyOp23
 70
     1
102
RTVSPropertyOp24
 70
     1
102
RTVSPropertyOp25
 70
     1
102
RTVSPropertyOp26
 70
     1
102
RTVSPropertyOp27
 70
     1
102
RTVSPropertyOp28
 70
     1
102
RTVSPropertyOp29
 70
     1
102
RTVSPropertyOp30
 70
     1
102
RTVSPropertyOp31
 70
     1
102
RTVSPropertyOp32
 70
     1
102
RTVSPropertyOp33
 70
     1
102
RTVSPropertyOp34
 70
     1
102
RTVSPropertyOp35
 70
     1
102
RTVSPropertyOp36
 70
     1
102
RTVSPropertyOp37
 70
     1
102
RTVSPropertyOp38
 70
     1
102
RTVSPropertyOp39
 70
     1
102
RTVSPropertyOp40
 70
     1
102
RTVSPropertyOp41
 70
     1
102
RTVSPropertyOp42
 70
     1
102
RTVSPropertyOp43
 70
     1
102
RTVSPropertyOp44
 70
     1
102
RTVSPropertyOp45
 70
     1
102
RTVSPropertyOp46
 70
     1
102
RTVSPropertyOp47
 70
     1
102
RTVSPropertyOp48
 70
     1
102
RTVSPropertyOp49
 70
     1
102
RTVSPropertyOp50
 70
     1
102
RTVSPropertyOp51
 70
     0
102
RTVSPropertyOp52
 70
     0
102
RTVSPropertyOp53
 70
     1
102
RTVSPropertyOp54
 70
     1
102
RTVSPropertyOp55
 70
     1
102
RTVSPropertyOp56
 70
     1
102
RTVSPropertyOp57
 70
     1
102
RTVSPost2010Prop28
280
     0
102
RTVSPost2010PropOp28
 70
     1
102
RTVSPost2010Prop29
280
     1
102
RTVSPost2010PropOp29
 70
     1
102
RTVSPost2010Prop30
280
     1
102
RTVSPost2010PropOp30
 70
     1
102
RTVSPost2010Prop31
280
     0
102
RTVSPost2010PropOp31
 70
     1
102
RTVSPost2010Prop32
280
     0
102
RTVSPost2010PropOp32
 70
     1
102
RTVSPost2010Prop33
280
     0
102
RTVSPost2010PropOp33
 70
     1
102
RTVSPost2010Prop34
280
     0
102
RTVSPost2010PropOp34
 70
     1
102
RTVSPost2010Prop35
280
     0
102
RTVSPost2010PropOp35
 70
     1
102
RTVSPost2010Prop36
280
     0
102
RTVSPost2010PropOp36
 70
     1
102
RTVSPost2010Prop37
 90
       50
102
RTVSPost2010PropOp37
 70
     1
102
RTVSPost2010Prop38
140
0.0
102
RTVSPost2010PropOp38
 70
     1
102
RTVSPost2010Prop39
140
1.0
102
RTVSPost2010PropOp39
 70
     1
102
RTVSPost2010Prop40
 90
        0
102
RTVSPost2010PropOp40
 70
     1
102
RTVSPost2010Prop41ColorIndex
 90
       18
102
RTVSPost2010Prop41ColorRGB
 90
        0
102
RTVSPost2010PropOp41
 70
     1
102
RTVSPost2010Prop42
 90
       50
102
RTVSPost2010PropOp42
 70
     1
102
RTVSPost2010Prop43
 90
        3
102
RTVSPost2010PropOp43
 70
     1
102
RTVSPost2010Prop44ColorIndex
 90
        5
102
RTVSPost2010Prop44ColorRGB
 90
      255
102
RTVSPost2010PropOp44
 70
     1
102
RTVSPost2010Prop45
280
     0
102
RTVSPost2010PropOp45
 70
     1
102
RTVSPost2010Prop46
 90
       50
102
RTVSPost2010PropOp46
 70
     1
102
RTVSPost2010Prop47
 90
       50
102
RTVSPost2010PropOp47
 70
     1
102
RTVSPost2010Prop48
 90
       50
102
RTVSPost2010PropOp48
 70
     1
102
RTVSPost2010Prop49
280
     0
102
RTVSPost2010PropOp49
 70
     1
102
RTVSPost2010Prop50
 90
       50
102
RTVSPost2010PropOp50
 70
     1
102
RTVSPost2010Prop51ColorIndex
 90
      256
102
RTVSPost2010Prop51ColorRGB
 90
-16777216
102
RTVSPost2010PropOp51
 70
     0
102
RTVSPost2010Prop52
140
1.0
102
RTVSPost2010PropOp52
 70
     0
102
RTVSPost2010Prop53
 90
        2
102
RTVSPost2010PropOp53
 70
     1
102
RTVSPost2010Prop54
  1
strokes_ogs.tif
102
RTVSPost2010PropOp54
 70
     1
102
RTVSPost2010Prop55
280
     0
102
RTVSPost2010PropOp55
 70
     1
102
RTVSPost2010Prop56
140
1.0
102
RTVSPost2010PropOp56
 70
     1
102
RTVSPost2010Prop57
140
1.0
102
RTVSPost2010PropOp57
 70
     1
  0
XRECORD
  5
3AA
102
{ACAD_REACTORS
330
3A9
102
}
330
3A9
100
AcDbXrecord
280
     1
102
RTVSPropertyOp0
 70
     1
102
RTVSPropertyOp1
 70
     1
102
RTVSPropertyOp2
 70
     1
102
RTVSPropertyOp3
 70
     1
102
RTVSPropertyOp4
 70
     1
102
RTVSPropertyOp5
 70
     1
102
RTVSPropertyOp6
 70
     1
102
RTVSPropertyOp7
 70
     1
102
RTVSPropertyOp8
 70
     1
102
RTVSPropertyOp9
 70
     1
102
RTVSPropertyOp10
 70
     1
102
RTVSPropertyOp11
 70
     1
102
RTVSPropertyOp12
 70
     1
102
RTVSPropertyOp13
 70
     1
102
RTVSPropertyOp14
 70
     1
102
RTVSPropertyOp15
 70
     1
102
RTVSPropertyOp16
 70
     1
102
RTVSPropertyOp17
 70
     1
102
RTVSPropertyOp18
 70
     1
102
RTVSPropertyOp19
 70
     1
102
RTVSPropertyOp20
 70
     1
102
RTVSPropertyOp21
 70
     1
102
RTVSPropertyOp22
 70
     1
102
RTVSPropertyOp23
 70
     1
102
RTVSPropertyOp24
 70
     1
102
RTVSPropertyOp25
 70
     1
102
RTVSPropertyOp26
 70
     1
102
RTVSPropertyOp27
 70
     1
102
RTVSPropertyOp28
 70
     1
102
RTVSPropertyOp29
 70
     1
102
RTVSPropertyOp30
 70
     1
102
RTVSPropertyOp31
 70
     1
102
RTVSPropertyOp32
 70
     1
102
RTVSPropertyOp33
 70
     1
102
RTVSPropertyOp34
 70
     1
102
RTVSPropertyOp35
 70
     1
102
RTVSPropertyOp36
 70
     1
102
RTVSPropertyOp37
 70
     1
102
RTVSPropertyOp38
 70
     1
102
RTVSPropertyOp39
 70
     1
102
RTVSPropertyOp40
 70
     1
102
RTVSPropertyOp41
 70
     1
102
RTVSPropertyOp42
 70
     1
102
RTVSPropertyOp43
 70
     1
102
RTVSPropertyOp44
 70
     1
102
RTVSPropertyOp45
 70
     1
102
RTVSPropertyOp46
 70
     1
102
RTVSPropertyOp47
 70
     1
102
RTVSPropertyOp48
 70
     1
102
RTVSPropertyOp49
 70
     1
102
RTVSPropertyOp50
 70
     1
102
RTVSPropertyOp51
 70
     0
102
RTVSPropertyOp52
 70
     0
102
RTVSPropertyOp53
 70
     1
102
RTVSPropertyOp54
 70
     1
102
RTVSPropertyOp55
 70
     1
102
RTVSPropertyOp56
 70
     1
102
RTVSPropertyOp57
 70
     1
102
RTVSPost2010Prop28
280
     0
102
RTVSPost2010PropOp28
 70
     1
102
RTVSPost2010Prop29
280
     1
102
RTVSPost2010PropOp29
 70
     1
102
RTVSPost2010Prop30
280
     1
102
RTVSPost2010PropOp30
 70
     1
102
RTVSPost2010Prop31
280
     0
102
RTVSPost2010PropOp31
 70
     1
102
RTVSPost2010Prop32
280
     0
102
RTVSPost2010PropOp32
 70
     1
102
RTVSPost2010Prop33
280
     0
102
RTVSPost2010PropOp33
 70
     1
102
RTVSPost2010Prop34
280
     0
102
RTVSPost2010PropOp34
 70
     1
102
RTVSPost2010Prop35
280
     0
102
RTVSPost2010PropOp35
 70
     1
102
RTVSPost2010Prop36
280
     0
102
RTVSPost2010PropOp36
 70
     1
102
RTVSPost2010Prop37
 90
       50
102
RTVSPost2010PropOp37
 70
     1
102
RTVSPost2010Prop38
140
0.0
102
RTVSPost2010PropOp38
 70
     1
102
RTVSPost2010Prop39
140
1.0
102
RTVSPost2010PropOp39
 70
     1
102
RTVSPost2010Prop40
 90
        0
102
RTVSPost2010PropOp40
 70
     1
102
RTVSPost2010Prop41ColorIndex
 90
       18
102
RTVSPost2010Prop41ColorRGB
 90
        0
102
RTVSPost2010PropOp41
 70
     1
102
RTVSPost2010Prop42
 90
       50
102
RTVSPost2010PropOp42
 70
     1
102
RTVSPost2010Prop43
 90
        3
102
RTVSPost2010PropOp43
 70
     1
102
RTVSPost2010Prop44ColorIndex
 90
        5
102
RTVSPost2010Prop44ColorRGB
 90
      255
102
RTVSPost2010PropOp44
 70
     1
102
RTVSPost2010Prop45
280
     0
102
RTVSPost2010PropOp45
 70
     1
102
RTVSPost2010Prop46
 90
       50
102
RTVSPost2010PropOp46
 70
     1
102
RTVSPost2010Prop47
 90
       50
102
RTVSPost2010PropOp47
 70
     1
102
RTVSPost2010Prop48
 90
       50
102
RTVSPost2010PropOp48
 70
     1
102
RTVSPost2010Prop49
280
     0
102
RTVSPost2010PropOp49
 70
     1
102
RTVSPost2010Prop50
 90
       50
102
RTVSPost2010PropOp50
 70
     1
102
RTVSPost2010Prop51ColorIndex
 90
      256
102
RTVSPost2010Prop51ColorRGB
 90
-16777216
102
RTVSPost2010PropOp51
 70
     0
102
RTVSPost2010Prop52
140
1.0
102
RTVSPost2010PropOp52
 70
     0
102
RTVSPost2010Prop53
 90
        2
102
RTVSPost2010PropOp53
 70
     1
102
RTVSPost2010Prop54
  1
strokes_ogs.tif
102
RTVSPost2010PropOp54
 70
     1
102
RTVSPost2010Prop55
280
     0
102
RTVSPost2010PropOp55
 70
     1
102
RTVSPost2010Prop56
140
1.0
102
RTVSPost2010PropOp56
 70
     1
102
RTVSPost2010Prop57
140
1.0
102
RTVSPost2010PropOp57
 70
     1
  0
XRECORD
  5
3B0
102
{ACAD_REACTORS
330
3AF
102
}
330
3AF
100
AcDbXrecord
280
     1
102
RTVSPropertyOp0
 70
     1
102
RTVSPropertyOp1
 70
     1
102
RTVSPropertyOp2
 70
     1
102
RTVSPropertyOp3
 70
     1
102
RTVSPropertyOp4
 70
     1
102
RTVSPropertyOp5
 70
     1
102
RTVSPropertyOp6
 70
     1
102
RTVSPropertyOp7
 70
     1
102
RTVSPropertyOp8
 70
     1
102
RTVSPropertyOp9
 70
     1
102
RTVSPropertyOp10
 70
     1
102
RTVSPropertyOp11
 70
     1
102
RTVSPropertyOp12
 70
     1
102
RTVSPropertyOp13
 70
     1
102
RTVSPropertyOp14
 70
     1
102
RTVSPropertyOp15
 70
     1
102
RTVSPropertyOp16
 70
     1
102
RTVSPropertyOp17
 70
     1
102
RTVSPropertyOp18
 70
     1
102
RTVSPropertyOp19
 70
     1
102
RTVSPropertyOp20
 70
     1
102
RTVSPropertyOp21
 70
     1
102
RTVSPropertyOp22
 70
     1
102
RTVSPropertyOp23
 70
     1
102
RTVSPropertyOp24
 70
     1
102
RTVSPropertyOp25
 70
     1
102
RTVSPropertyOp26
 70
     1
102
RTVSPropertyOp27
 70
     1
102
RTVSPropertyOp28
 70
     1
102
RTVSPropertyOp29
 70
     1
102
RTVSPropertyOp30
 70
     1
102
RTVSPropertyOp31
 70
     1
102
RTVSPropertyOp32
 70
     1
102
RTVSPropertyOp33
 70
     1
102
RTVSPropertyOp34
 70
     1
102
RTVSPropertyOp35
 70
     1
102
RTVSPropertyOp36
 70
     1
102
RTVSPropertyOp37
 70
     1
102
RTVSPropertyOp38
 70
     1
102
RTVSPropertyOp39
 70
     1
102
RTVSPropertyOp40
 70
     1
102
RTVSPropertyOp41
 70
     1
102
RTVSPropertyOp42
 70
     1
102
RTVSPropertyOp43
 70
     1
102
RTVSPropertyOp44
 70
     1
102
RTVSPropertyOp45
 70
     1
102
RTVSPropertyOp46
 70
     1
102
RTVSPropertyOp47
 70
     1
102
RTVSPropertyOp48
 70
     1
102
RTVSPropertyOp49
 70
     1
102
RTVSPropertyOp50
 70
     1
102
RTVSPropertyOp51
 70
     0
102
RTVSPropertyOp52
 70
     0
102
RTVSPropertyOp53
 70
     1
102
RTVSPropertyOp54
 70
     1
102
RTVSPropertyOp55
 70
     1
102
RTVSPropertyOp56
 70
     1
102
RTVSPropertyOp57
 70
     1
102
RTVSPost2010Prop28
280
     0
102
RTVSPost2010PropOp28
 70
     1
102
RTVSPost2010Prop29
280
     1
102
RTVSPost2010PropOp29
 70
     1
102
RTVSPost2010Prop30
280
     1
102
RTVSPost2010PropOp30
 70
     1
102
RTVSPost2010Prop31
280
     0
102
RTVSPost2010PropOp31
 70
     1
102
RTVSPost2010Prop32
280
     0
102
RTVSPost2010PropOp32
 70
     1
102
RTVSPost2010Prop33
280
     0
102
RTVSPost2010PropOp33
 70
     1
102
RTVSPost2010Prop34
280
     0
102
RTVSPost2010PropOp34
 70
     1
102
RTVSPost2010Prop35
280
     0
102
RTVSPost2010PropOp35
 70
     1
102
RTVSPost2010Prop36
280
     0
102
RTVSPost2010PropOp36
 70
     1
102
RTVSPost2010Prop37
 90
       50
102
RTVSPost2010PropOp37
 70
     1
102
RTVSPost2010Prop38
140
0.0
102
RTVSPost2010PropOp38
 70
     1
102
RTVSPost2010Prop39
140
1.0
102
RTVSPost2010PropOp39
 70
     1
102
RTVSPost2010Prop40
 90
        0
102
RTVSPost2010PropOp40
 70
     1
102
RTVSPost2010Prop41ColorIndex
 90
       18
102
RTVSPost2010Prop41ColorRGB
 90
        0
102
RTVSPost2010PropOp41
 70
     1
102
RTVSPost2010Prop42
 90
       50
102
RTVSPost2010PropOp42
 70
     1
102
RTVSPost2010Prop43
 90
        3
102
RTVSPost2010PropOp43
 70
     1
102
RTVSPost2010Prop44ColorIndex
 90
        5
102
RTVSPost2010Prop44ColorRGB
 90
      255
102
RTVSPost2010PropOp44
 70
     1
102
RTVSPost2010Prop45
280
     0
102
RTVSPost2010PropOp45
 70
     1
102
RTVSPost2010Prop46
 90
       50
102
RTVSPost2010PropOp46
 70
     1
102
RTVSPost2010Prop47
 90
       50
102
RTVSPost2010PropOp47
 70
     1
102
RTVSPost2010Prop48
 90
       50
102
RTVSPost2010PropOp48
 70
     1
102
RTVSPost2010Prop49
280
     0
102
RTVSPost2010PropOp49
 70
     1
102
RTVSPost2010Prop50
 90
       50
102
RTVSPost2010PropOp50
 70
     1
102
RTVSPost2010Prop51ColorIndex
 90
      256
102
RTVSPost2010Prop51ColorRGB
 90
-16777216
102
RTVSPost2010PropOp51
 70
     0
102
RTVSPost2010Prop52
140
1.0
102
RTVSPost2010PropOp52
 70
     0
102
RTVSPost2010Prop53
 90
        2
102
RTVSPost2010PropOp53
 70
     1
102
RTVSPost2010Prop54
  1
strokes_ogs.tif
102
RTVSPost2010PropOp54
 70
     1
102
RTVSPost2010Prop55
280
     0
102
RTVSPost2010PropOp55
 70
     1
102
RTVSPost2010Prop56
140
1.0
102
RTVSPost2010PropOp56
 70
     1
102
RTVSPost2010Prop57
140
1.0
102
RTVSPost2010PropOp57
 70
     1
  0
XRECORD
  5
3C4
102
{ACAD_REACTORS
330
3C3
102
}
330
3C3
100
AcDbXrecord
280
     1
102
RTVSPropertyOp0
 70
     0
102
RTVSPropertyOp1
 70
     0
102
RTVSPropertyOp2
 70
     0
102
RTVSPropertyOp3
 70
     0
102
RTVSPropertyOp4
 70
     0
102
RTVSPropertyOp5
 70
     0
102
RTVSPropertyOp6
 70
     0
102
RTVSPropertyOp7
 70
     0
102
RTVSPropertyOp8
 70
     0
102
RTVSPropertyOp9
 70
     0
102
RTVSPropertyOp10
 70
     0
102
RTVSPropertyOp11
 70
     0
102
RTVSPropertyOp12
 70
     0
102
RTVSPropertyOp13
 70
     0
102
RTVSPropertyOp14
 70
     2
102
RTVSPropertyOp15
 70
     0
102
RTVSPropertyOp16
 70
     0
102
RTVSPropertyOp17
 70
     0
102
RTVSPropertyOp18
 70
     0
102
RTVSPropertyOp19
 70
     0
102
RTVSPropertyOp20
 70
     0
102
RTVSPropertyOp21
 70
     0
102
RTVSPropertyOp22
 70
     0
102
RTVSPropertyOp23
 70
     0
102
RTVSPropertyOp24
 70
     0
102
RTVSPropertyOp25
 70
     0
102
RTVSPropertyOp26
 70
     0
102
RTVSPropertyOp27
 70
     0
102
RTVSPropertyOp28
 70
     0
102
RTVSPropertyOp29
 70
     0
102
RTVSPropertyOp30
 70
     0
102
RTVSPropertyOp31
 70
     0
102
RTVSPropertyOp32
 70
     0
102
RTVSPropertyOp33
 70
     0
102
RTVSPropertyOp34
 70
     0
102
RTVSPropertyOp35
 70
     0
102
RTVSPropertyOp36
 70
     0
102
RTVSPropertyOp37
 70
     0
102
RTVSPropertyOp38
 70
     0
102
RTVSPropertyOp39
 70
     0
102
RTVSPropertyOp40
 70
     0
102
RTVSPropertyOp41
 70
     0
102
RTVSPropertyOp42
 70
     0
102
RTVSPropertyOp43
 70
     0
102
RTVSPropertyOp44
 70
     0
102
RTVSPropertyOp45
 70
     0
102
RTVSPropertyOp46
 70
     0
102
RTVSPropertyOp47
 70
     0
102
RTVSPropertyOp48
 70
     0
102
RTVSPropertyOp49
 70
     0
102
RTVSPropertyOp50
 70
     0
102
RTVSPropertyOp51
 70
     0
102
RTVSPropertyOp52
 70
     0
102
RTVSPropertyOp53
 70
     0
102
RTVSPropertyOp54
 70
     0
102
RTVSPropertyOp55
 70
     0
102
RTVSPropertyOp56
 70
     0
102
RTVSPropertyOp57
 70
     0
102
RTVSPost2010Prop28
280
     0
102
RTVSPost2010PropOp28
 70
     0
102
RTVSPost2010Prop29
280
     1
102
RTVSPost2010PropOp29
 70
     0
102
RTVSPost2010Prop30
280
     1
102
RTVSPost2010PropOp30
 70
     0
102
RTVSPost2010Prop31
280
     0
102
RTVSPost2010PropOp31
 70
     0
102
RTVSPost2010Prop32
280
     0
102
RTVSPost2010PropOp32
 70
     0
102
RTVSPost2010Prop33
280
     0
102
RTVSPost2010PropOp33
 70
     0
102
RTVSPost2010Prop34
280
     0
102
RTVSPost2010PropOp34
 70
     0
102
RTVSPost2010Prop35
280
     0
102
RTVSPost2010PropOp35
 70
     0
102
RTVSPost2010Prop36
280
     0
102
RTVSPost2010PropOp36
 70
     0
102
RTVSPost2010Prop37
 90
       50
102
RTVSPost2010PropOp37
 70
     0
102
RTVSPost2010Prop38
140
0.0
102
RTVSPost2010PropOp38
 70
     0
102
RTVSPost2010Prop39
140
1.0
102
RTVSPost2010PropOp39
 70
     0
102
RTVSPost2010Prop40
 90
        0
102
RTVSPost2010PropOp40
 70
     0
102
RTVSPost2010Prop41ColorIndex
 90
       18
102
RTVSPost2010Prop41ColorRGB
 90
        0
102
RTVSPost2010PropOp41
 70
     0
102
RTVSPost2010Prop42
 90
       50
102
RTVSPost2010PropOp42
 70
     0
102
RTVSPost2010Prop43
 90
        3
102
RTVSPost2010PropOp43
 70
     0
102
RTVSPost2010Prop44ColorIndex
 90
        5
102
RTVSPost2010Prop44ColorRGB
 90
      255
102
RTVSPost2010PropOp44
 70
     0
102
RTVSPost2010Prop45
280
     0
102
RTVSPost2010PropOp45
 70
     0
102
RTVSPost2010Prop46
 90
       50
102
RTVSPost2010PropOp46
 70
     0
102
RTVSPost2010Prop47
 90
       50
102
RTVSPost2010PropOp47
 70
     0
102
RTVSPost2010Prop48
 90
       50
102
RTVSPost2010PropOp48
 70
     0
102
RTVSPost2010Prop49
280
     0
102
RTVSPost2010PropOp49
 70
     0
102
RTVSPost2010Prop50
 90
       50
102
RTVSPost2010PropOp50
 70
     0
102
RTVSPost2010Prop51ColorIndex
 90
      256
102
RTVSPost2010Prop51ColorRGB
 90
-16777216
102
RTVSPost2010PropOp51
 70
     0
102
RTVSPost2010Prop52
140
1.0
102
RTVSPost2010PropOp52
 70
     0
102
RTVSPost2010Prop53
 90
        2
102
RTVSPost2010PropOp53
 70
     0
102
RTVSPost2010Prop54
  1
strokes_ogs.tif
102
RTVSPost2010PropOp54
 70
     0
102
RTVSPost2010Prop55
280
     0
102
RTVSPost2010PropOp55
 70
     0
102
RTVSPost2010Prop56
140
1.0
102
RTVSPost2010PropOp56
 70
     0
102
RTVSPost2010Prop57
140
1.0
102
RTVSPost2010PropOp57
 70
     0
  0
XRECORD
  5
3BE
102
{ACAD_REACTORS
330
3BD
102
}
330
3BD
100
AcDbXrecord
280
     1
102
RTVSPropertyOp0
 70
     1
102
RTVSPropertyOp1
 70
     1
102
RTVSPropertyOp2
 70
     1
102
RTVSPropertyOp3
 70
     1
102
RTVSPropertyOp4
 70
     1
102
RTVSPropertyOp5
 70
     1
102
RTVSPropertyOp6
 70
     1
102
RTVSPropertyOp7
 70
     1
102
RTVSPropertyOp8
 70
     1
102
RTVSPropertyOp9
 70
     1
102
RTVSPropertyOp10
 70
     1
102
RTVSPropertyOp11
 70
     1
102
RTVSPropertyOp12
 70
     1
102
RTVSPropertyOp13
 70
     1
102
RTVSPropertyOp14
 70
     1
102
RTVSPropertyOp15
 70
     1
102
RTVSPropertyOp16
 70
     1
102
RTVSPropertyOp17
 70
     1
102
RTVSPropertyOp18
 70
     1
102
RTVSPropertyOp19
 70
     1
102
RTVSPropertyOp20
 70
     1
102
RTVSPropertyOp21
 70
     1
102
RTVSPropertyOp22
 70
     1
102
RTVSPropertyOp23
 70
     1
102
RTVSPropertyOp24
 70
     1
102
RTVSPropertyOp25
 70
     1
102
RTVSPropertyOp26
 70
     1
102
RTVSPropertyOp27
 70
     1
102
RTVSPropertyOp28
 70
     1
102
RTVSPropertyOp29
 70
     1
102
RTVSPropertyOp30
 70
     1
102
RTVSPropertyOp31
 70
     1
102
RTVSPropertyOp32
 70
     1
102
RTVSPropertyOp33
 70
     1
102
RTVSPropertyOp34
 70
     1
102
RTVSPropertyOp35
 70
     1
102
RTVSPropertyOp36
 70
     1
102
RTVSPropertyOp37
 70
     1
102
RTVSPropertyOp38
 70
     1
102
RTVSPropertyOp39
 70
     1
102
RTVSPropertyOp40
 70
     1
102
RTVSPropertyOp41
 70
     1
102
RTVSPropertyOp42
 70
     1
102
RTVSPropertyOp43
 70
     1
102
RTVSPropertyOp44
 70
     1
102
RTVSPropertyOp45
 70
     1
102
RTVSPropertyOp46
 70
     1
102
RTVSPropertyOp47
 70
     1
102
RTVSPropertyOp48
 70
     1
102
RTVSPropertyOp49
 70
     1
102
RTVSPropertyOp50
 70
     1
102
RTVSPropertyOp51
 70
     0
102
RTVSPropertyOp52
 70
     0
102
RTVSPropertyOp53
 70
     1
102
RTVSPropertyOp54
 70
     1
102
RTVSPropertyOp55
 70
     1
102
RTVSPropertyOp56
 70
     1
102
RTVSPropertyOp57
 70
     1
102
RTVSPost2010Prop28
280
     0
102
RTVSPost2010PropOp28
 70
     1
102
RTVSPost2010Prop29
280
     1
102
RTVSPost2010PropOp29
 70
     1
102
RTVSPost2010Prop30
280
     1
102
RTVSPost2010PropOp30
 70
     1
102
RTVSPost2010Prop31
280
     0
102
RTVSPost2010PropOp31
 70
     1
102
RTVSPost2010Prop32
280
     0
102
RTVSPost2010PropOp32
 70
     1
102
RTVSPost2010Prop33
280
     0
102
RTVSPost2010PropOp33
 70
     1
102
RTVSPost2010Prop34
280
     0
102
RTVSPost2010PropOp34
 70
     1
102
RTVSPost2010Prop35
280
     0
102
RTVSPost2010PropOp35
 70
     1
102
RTVSPost2010Prop36
280
     0
102
RTVSPost2010PropOp36
 70
     1
102
RTVSPost2010Prop37
 90
       50
102
RTVSPost2010PropOp37
 70
     1
102
RTVSPost2010Prop38
140
0.0
102
RTVSPost2010PropOp38
 70
     1
102
RTVSPost2010Prop39
140
1.0
102
RTVSPost2010PropOp39
 70
     1
102
RTVSPost2010Prop40
 90
        0
102
RTVSPost2010PropOp40
 70
     1
102
RTVSPost2010Prop41ColorIndex
 90
       18
102
RTVSPost2010Prop41ColorRGB
 90
        0
102
RTVSPost2010PropOp41
 70
     1
102
RTVSPost2010Prop42
 90
       50
102
RTVSPost2010PropOp42
 70
     1
102
RTVSPost2010Prop43
 90
        3
102
RTVSPost2010PropOp43
 70
     1
102
RTVSPost2010Prop44ColorIndex
 90
        5
102
RTVSPost2010Prop44ColorRGB
 90
      255
102
RTVSPost2010PropOp44
 70
     1
102
RTVSPost2010Prop45
280
     0
102
RTVSPost2010PropOp45
 70
     1
102
RTVSPost2010Prop46
 90
       50
102
RTVSPost2010PropOp46
 70
     1
102
RTVSPost2010Prop47
 90
       50
102
RTVSPost2010PropOp47
 70
     1
102
RTVSPost2010Prop48
 90
       50
102
RTVSPost2010PropOp48
 70
     1
102
RTVSPost2010Prop49
280
     0
102
RTVSPost2010PropOp49
 70
     1
102
RTVSPost2010Prop50
 90
       50
102
RTVSPost2010PropOp50
 70
     1
102
RTVSPost2010Prop51ColorIndex
 90
      256
102
RTVSPost2010Prop51ColorRGB
 90
-16777216
102
RTVSPost2010PropOp51
 70
     0
102
RTVSPost2010Prop52
140
1.0
102
RTVSPost2010PropOp52
 70
     0
102
RTVSPost2010Prop53
 90
        2
102
RTVSPost2010PropOp53
 70
     1
102
RTVSPost2010Prop54
  1
strokes_ogs.tif
102
RTVSPost2010PropOp54
 70
     1
102
RTVSPost2010Prop55
280
     0
102
RTVSPost2010PropOp55
 70
     1
102
RTVSPost2010Prop56
140
1.0
102
RTVSPost2010PropOp56
 70
     1
102
RTVSPost2010Prop57
140
1.0
102
RTVSPost2010PropOp57
 70
     1
  0
XRECORD
  5
3C6
102
{ACAD_REACTORS
330
3C5
102
}
330
3C5
100
AcDbXrecord
280
     1
102
RTVSPropertyOp0
 70
     0
102
RTVSPropertyOp1
 70
     0
102
RTVSPropertyOp2
 70
     0
102
RTVSPropertyOp3
 70
     0
102
RTVSPropertyOp4
 70
     0
102
RTVSPropertyOp5
 70
     0
102
RTVSPropertyOp6
 70
     0
102
RTVSPropertyOp7
 70
     0
102
RTVSPropertyOp8
 70
     0
102
RTVSPropertyOp9
 70
     0
102
RTVSPropertyOp10
 70
     0
102
RTVSPropertyOp11
 70
     0
102
RTVSPropertyOp12
 70
     0
102
RTVSPropertyOp13
 70
     0
102
RTVSPropertyOp14
 70
     2
102
RTVSPropertyOp15
 70
     0
102
RTVSPropertyOp16
 70
     0
102
RTVSPropertyOp17
 70
     0
102
RTVSPropertyOp18
 70
     0
102
RTVSPropertyOp19
 70
     0
102
RTVSPropertyOp20
 70
     0
102
RTVSPropertyOp21
 70
     0
102
RTVSPropertyOp22
 70
     0
102
RTVSPropertyOp23
 70
     0
102
RTVSPropertyOp24
 70
     0
102
RTVSPropertyOp25
 70
     0
102
RTVSPropertyOp26
 70
     0
102
RTVSPropertyOp27
 70
     0
102
RTVSPropertyOp28
 70
     0
102
RTVSPropertyOp29
 70
     0
102
RTVSPropertyOp30
 70
     0
102
RTVSPropertyOp31
 70
     0
102
RTVSPropertyOp32
 70
     0
102
RTVSPropertyOp33
 70
     0
102
RTVSPropertyOp34
 70
     0
102
RTVSPropertyOp35
 70
     0
102
RTVSPropertyOp36
 70
     0
102
RTVSPropertyOp37
 70
     0
102
RTVSPropertyOp38
 70
     0
102
RTVSPropertyOp39
 70
     0
102
RTVSPropertyOp40
 70
     0
102
RTVSPropertyOp41
 70
     0
102
RTVSPropertyOp42
 70
     0
102
RTVSPropertyOp43
 70
     0
102
RTVSPropertyOp44
 70
     0
102
RTVSPropertyOp45
 70
     0
102
RTVSPropertyOp46
 70
     0
102
RTVSPropertyOp47
 70
     0
102
RTVSPropertyOp48
 70
     0
102
RTVSPropertyOp49
 70
     0
102
RTVSPropertyOp50
 70
     0
102
RTVSPropertyOp51
 70
     0
102
RTVSPropertyOp52
 70
     0
102
RTVSPropertyOp53
 70
     0
102
RTVSPropertyOp54
 70
     0
102
RTVSPropertyOp55
 70
     0
102
RTVSPropertyOp56
 70
     0
102
RTVSPropertyOp57
 70
     0
102
RTVSPost2010Prop28
280
     0
102
RTVSPost2010PropOp28
 70
     0
102
RTVSPost2010Prop29
280
     1
102
RTVSPost2010PropOp29
 70
     0
102
RTVSPost2010Prop30
280
     1
102
RTVSPost2010PropOp30
 70
     0
102
RTVSPost2010Prop31
280
     0
102
RTVSPost2010PropOp31
 70
     0
102
RTVSPost2010Prop32
280
     0
102
RTVSPost2010PropOp32
 70
     0
102
RTVSPost2010Prop33
280
     0
102
RTVSPost2010PropOp33
 70
     0
102
RTVSPost2010Prop34
280
     0
102
RTVSPost2010PropOp34
 70
     0
102
RTVSPost2010Prop35
280
     0
102
RTVSPost2010PropOp35
 70
     0
102
RTVSPost2010Prop36
280
     0
102
RTVSPost2010PropOp36
 70
     0
102
RTVSPost2010Prop37
 90
       50
102
RTVSPost2010PropOp37
 70
     0
102
RTVSPost2010Prop38
140
0.0
102
RTVSPost2010PropOp38
 70
     0
102
RTVSPost2010Prop39
140
1.0
102
RTVSPost2010PropOp39
 70
     0
102
RTVSPost2010Prop40
 90
        0
102
RTVSPost2010PropOp40
 70
     0
102
RTVSPost2010Prop41ColorIndex
 90
       18
102
RTVSPost2010Prop41ColorRGB
 90
        0
102
RTVSPost2010PropOp41
 70
     0
102
RTVSPost2010Prop42
 90
       50
102
RTVSPost2010PropOp42
 70
     0
102
RTVSPost2010Prop43
 90
        3
102
RTVSPost2010PropOp43
 70
     0
102
RTVSPost2010Prop44ColorIndex
 90
        5
102
RTVSPost2010Prop44ColorRGB
 90
      255
102
RTVSPost2010PropOp44
 70
     0
102
RTVSPost2010Prop45
280
     0
102
RTVSPost2010PropOp45
 70
     0
102
RTVSPost2010Prop46
 90
       50
102
RTVSPost2010PropOp46
 70
     0
102
RTVSPost2010Prop47
 90
       50
102
RTVSPost2010PropOp47
 70
     0
102
RTVSPost2010Prop48
 90
       50
102
RTVSPost2010PropOp48
 70
     0
102
RTVSPost2010Prop49
280
     0
102
RTVSPost2010PropOp49
 70
     0
102
RTVSPost2010Prop50
 90
       50
102
RTVSPost2010PropOp50
 70
     0
102
RTVSPost2010Prop51ColorIndex
 90
      256
102
RTVSPost2010Prop51ColorRGB
 90
-16777216
102
RTVSPost2010PropOp51
 70
     0
102
RTVSPost2010Prop52
140
1.0
102
RTVSPost2010PropOp52
 70
     0
102
RTVSPost2010Prop53
 90
        2
102
RTVSPost2010PropOp53
 70
     0
102
RTVSPost2010Prop54
  1
strokes_ogs.tif
102
RTVSPost2010PropOp54
 70
     0
102
RTVSPost2010Prop55
280
     0
102
RTVSPost2010PropOp55
 70
     0
102
RTVSPost2010Prop56
140
1.0
102
RTVSPost2010PropOp56
 70
     0
102
RTVSPost2010Prop57
140
1.0
102
RTVSPost2010PropOp57
 70
     0
  0
XRECORD
  5
3B4
102
{ACAD_REACTORS
330
3B3
102
}
330
3B3
100
AcDbXrecord
280
     1
102
RTVSPropertyOp0
 70
     1
102
RTVSPropertyOp1
 70
     1
102
RTVSPropertyOp2
 70
     1
102
RTVSPropertyOp3
 70
     1
102
RTVSPropertyOp4
 70
     1
102
RTVSPropertyOp5
 70
     1
102
RTVSPropertyOp6
 70
     1
102
RTVSPropertyOp7
 70
     1
102
RTVSPropertyOp8
 70
     1
102
RTVSPropertyOp9
 70
     1
102
RTVSPropertyOp10
 70
     1
102
RTVSPropertyOp11
 70
     1
102
RTVSPropertyOp12
 70
     1
102
RTVSPropertyOp13
 70
     1
102
RTVSPropertyOp14
 70
     1
102
RTVSPropertyOp15
 70
     1
102
RTVSPropertyOp16
 70
     1
102
RTVSPropertyOp17
 70
     1
102
RTVSPropertyOp18
 70
     1
102
RTVSPropertyOp19
 70
     1
102
RTVSPropertyOp20
 70
     1
102
RTVSPropertyOp21
 70
     1
102
RTVSPropertyOp22
 70
     1
102
RTVSPropertyOp23
 70
     1
102
RTVSPropertyOp24
 70
     1
102
RTVSPropertyOp25
 70
     1
102
RTVSPropertyOp26
 70
     1
102
RTVSPropertyOp27
 70
     1
102
RTVSPropertyOp28
 70
     1
102
RTVSPropertyOp29
 70
     1
102
RTVSPropertyOp30
 70
     1
102
RTVSPropertyOp31
 70
     1
102
RTVSPropertyOp32
 70
     1
102
RTVSPropertyOp33
 70
     1
102
RTVSPropertyOp34
 70
     1
102
RTVSPropertyOp35
 70
     1
102
RTVSPropertyOp36
 70
     1
102
RTVSPropertyOp37
 70
     1
102
RTVSPropertyOp38
 70
     1
102
RTVSPropertyOp39
 70
     1
102
RTVSPropertyOp40
 70
     1
102
RTVSPropertyOp41
 70
     1
102
RTVSPropertyOp42
 70
     1
102
RTVSPropertyOp43
 70
     1
102
RTVSPropertyOp44
 70
     1
102
RTVSPropertyOp45
 70
     1
102
RTVSPropertyOp46
 70
     1
102
RTVSPropertyOp47
 70
     1
102
RTVSPropertyOp48
 70
     1
102
RTVSPropertyOp49
 70
     1
102
RTVSPropertyOp50
 70
     1
102
RTVSPropertyOp51
 70
     0
102
RTVSPropertyOp52
 70
     0
102
RTVSPropertyOp53
 70
     1
102
RTVSPropertyOp54
 70
     1
102
RTVSPropertyOp55
 70
     1
102
RTVSPropertyOp56
 70
     1
102
RTVSPropertyOp57
 70
     1
102
RTVSPost2010Prop28
280
     0
102
RTVSPost2010PropOp28
 70
     1
102
RTVSPost2010Prop29
280
     1
102
RTVSPost2010PropOp29
 70
     1
102
RTVSPost2010Prop30
280
     1
102
RTVSPost2010PropOp30
 70
     1
102
RTVSPost2010Prop31
280
     0
102
RTVSPost2010PropOp31
 70
     1
102
RTVSPost2010Prop32
280
     0
102
RTVSPost2010PropOp32
 70
     1
102
RTVSPost2010Prop33
280
     0
102
RTVSPost2010PropOp33
 70
     1
102
RTVSPost2010Prop34
280
     0
102
RTVSPost2010PropOp34
 70
     1
102
RTVSPost2010Prop35
280
     0
102
RTVSPost2010PropOp35
 70
     1
102
RTVSPost2010Prop36
280
     0
102
RTVSPost2010PropOp36
 70
     1
102
RTVSPost2010Prop37
 90
       50
102
RTVSPost2010PropOp37
 70
     1
102
RTVSPost2010Prop38
140
0.0
102
RTVSPost2010PropOp38
 70
     1
102
RTVSPost2010Prop39
140
1.0
102
RTVSPost2010PropOp39
 70
     1
102
RTVSPost2010Prop40
 90
        0
102
RTVSPost2010PropOp40
 70
     1
102
RTVSPost2010Prop41ColorIndex
 90
       18
102
RTVSPost2010Prop41ColorRGB
 90
        0
102
RTVSPost2010PropOp41
 70
     1
102
RTVSPost2010Prop42
 90
       50
102
RTVSPost2010PropOp42
 70
     1
102
RTVSPost2010Prop43
 90
        3
102
RTVSPost2010PropOp43
 70
     1
102
RTVSPost2010Prop44ColorIndex
 90
        5
102
RTVSPost2010Prop44ColorRGB
 90
      255
102
RTVSPost2010PropOp44
 70
     1
102
RTVSPost2010Prop45
280
     0
102
RTVSPost2010PropOp45
 70
     1
102
RTVSPost2010Prop46
 90
       50
102
RTVSPost2010PropOp46
 70
     1
102
RTVSPost2010Prop47
 90
       50
102
RTVSPost2010PropOp47
 70
     1
102
RTVSPost2010Prop48
 90
       50
102
RTVSPost2010PropOp48
 70
     1
102
RTVSPost2010Prop49
280
     0
102
RTVSPost2010PropOp49
 70
     1
102
RTVSPost2010Prop50
 90
       50
102
RTVSPost2010PropOp50
 70
     1
102
RTVSPost2010Prop51ColorIndex
 90
      256
102
RTVSPost2010Prop51ColorRGB
 90
-16777216
102
RTVSPost2010PropOp51
 70
     0
102
RTVSPost2010Prop52
140
1.0
102
RTVSPost2010PropOp52
 70
     0
102
RTVSPost2010Prop53
 90
        2
102
RTVSPost2010PropOp53
 70
     1
102
RTVSPost2010Prop54
  1
strokes_ogs.tif
102
RTVSPost2010PropOp54
 70
     1
102
RTVSPost2010Prop55
280
     0
102
RTVSPost2010PropOp55
 70
     1
102
RTVSPost2010Prop56
140
1.0
102
RTVSPost2010PropOp56
 70
     1
102
RTVSPost2010Prop57
140
1.0
102
RTVSPost2010PropOp57
 70
     1
  0
XRECORD
  5
3D2
102
{ACAD_REACTORS
330
3D1
102
}
330
3D1
100
AcDbXrecord
280
     1
102
RTVSPropertyOp0
 70
     1
102
RTVSPropertyOp1
 70
     1
102
RTVSPropertyOp2
 70
     1
102
RTVSPropertyOp3
 70
     1
102
RTVSPropertyOp4
 70
     1
102
RTVSPropertyOp5
 70
     1
102
RTVSPropertyOp6
 70
     1
102
RTVSPropertyOp7
 70
     1
102
RTVSPropertyOp8
 70
     1
102
RTVSPropertyOp9
 70
     1
102
RTVSPropertyOp10
 70
     1
102
RTVSPropertyOp11
 70
     1
102
RTVSPropertyOp12
 70
     1
102
RTVSPropertyOp13
 70
     1
102
RTVSPropertyOp14
 70
     1
102
RTVSPropertyOp15
 70
     1
102
RTVSPropertyOp16
 70
     1
102
RTVSPropertyOp17
 70
     1
102
RTVSPropertyOp18
 70
     1
102
RTVSPropertyOp19
 70
     1
102
RTVSPropertyOp20
 70
     1
102
RTVSPropertyOp21
 70
     1
102
RTVSPropertyOp22
 70
     1
102
RTVSPropertyOp23
 70
     1
102
RTVSPropertyOp24
 70
     1
102
RTVSPropertyOp25
 70
     1
102
RTVSPropertyOp26
 70
     1
102
RTVSPropertyOp27
 70
     1
102
RTVSPropertyOp28
 70
     1
102
RTVSPropertyOp29
 70
     1
102
RTVSPropertyOp30
 70
     1
102
RTVSPropertyOp31
 70
     1
102
RTVSPropertyOp32
 70
     1
102
RTVSPropertyOp33
 70
     1
102
RTVSPropertyOp34
 70
     1
102
RTVSPropertyOp35
 70
     1
102
RTVSPropertyOp36
 70
     1
102
RTVSPropertyOp37
 70
     1
102
RTVSPropertyOp38
 70
     1
102
RTVSPropertyOp39
 70
     1
102
RTVSPropertyOp40
 70
     1
102
RTVSPropertyOp41
 70
     1
102
RTVSPropertyOp42
 70
     1
102
RTVSPropertyOp43
 70
     1
102
RTVSPropertyOp44
 70
     1
102
RTVSPropertyOp45
 70
     1
102
RTVSPropertyOp46
 70
     1
102
RTVSPropertyOp47
 70
     1
102
RTVSPropertyOp48
 70
     1
102
RTVSPropertyOp49
 70
     1
102
RTVSPropertyOp50
 70
     1
102
RTVSPropertyOp51
 70
     0
102
RTVSPropertyOp52
 70
     0
102
RTVSPropertyOp53
 70
     1
102
RTVSPropertyOp54
 70
     1
102
RTVSPropertyOp55
 70
     1
102
RTVSPropertyOp56
 70
     1
102
RTVSPropertyOp57
 70
     1
102
RTVSPost2010Prop28
280
     0
102
RTVSPost2010PropOp28
 70
     1
102
RTVSPost2010Prop29
280
     1
102
RTVSPost2010PropOp29
 70
     1
102
RTVSPost2010Prop30
280
     1
102
RTVSPost2010PropOp30
 70
     1
102
RTVSPost2010Prop31
280
     0
102
RTVSPost2010PropOp31
 70
     1
102
RTVSPost2010Prop32
280
     0
102
RTVSPost2010PropOp32
 70
     1
102
RTVSPost2010Prop33
280
     0
102
RTVSPost2010PropOp33
 70
     1
102
RTVSPost2010Prop34
280
     0
102
RTVSPost2010PropOp34
 70
     1
102
RTVSPost2010Prop35
280
     0
102
RTVSPost2010PropOp35
 70
     1
102
RTVSPost2010Prop36
280
     0
102
RTVSPost2010PropOp36
 70
     1
102
RTVSPost2010Prop37
 90
       50
102
RTVSPost2010PropOp37
 70
     1
102
RTVSPost2010Prop38
140
0.0
102
RTVSPost2010PropOp38
 70
     1
102
RTVSPost2010Prop39
140
1.0
102
RTVSPost2010PropOp39
 70
     1
102
RTVSPost2010Prop40
 90
        0
102
RTVSPost2010PropOp40
 70
     1
102
RTVSPost2010Prop41ColorIndex
 90
       18
102
RTVSPost2010Prop41ColorRGB
 90
        0
102
RTVSPost2010PropOp41
 70
     1
102
RTVSPost2010Prop42
 90
       50
102
RTVSPost2010PropOp42
 70
     1
102
RTVSPost2010Prop43
 90
        3
102
RTVSPost2010PropOp43
 70
     1
102
RTVSPost2010Prop44ColorIndex
 90
        5
102
RTVSPost2010Prop44ColorRGB
 90
      255
102
RTVSPost2010PropOp44
 70
     1
102
RTVSPost2010Prop45
280
     0
102
RTVSPost2010PropOp45
 70
     1
102
RTVSPost2010Prop46
 90
       50
102
RTVSPost2010PropOp46
 70
     1
102
RTVSPost2010Prop47
 90
       50
102
RTVSPost2010PropOp47
 70
     1
102
RTVSPost2010Prop48
 90
       50
102
RTVSPost2010PropOp48
 70
     1
102
RTVSPost2010Prop49
280
     0
102
RTVSPost2010PropOp49
 70
     1
102
RTVSPost2010Prop50
 90
       50
102
RTVSPost2010PropOp50
 70
     1
102
RTVSPost2010Prop51ColorIndex
 90
      256
102
RTVSPost2010Prop51ColorRGB
 90
-16777216
102
RTVSPost2010PropOp51
 70
     0
102
RTVSPost2010Prop52
140
1.0
102
RTVSPost2010PropOp52
 70
     0
102
RTVSPost2010Prop53
 90
        2
102
RTVSPost2010PropOp53
 70
     1
102
RTVSPost2010Prop54
  1
strokes_ogs.tif
102
RTVSPost2010PropOp54
 70
     1
102
RTVSPost2010Prop55
280
     0
102
RTVSPost2010PropOp55
 70
     1
102
RTVSPost2010Prop56
140
1.0
102
RTVSPost2010PropOp56
 70
     1
102
RTVSPost2010Prop57
140
1.0
102
RTVSPost2010PropOp57
 70
     1
  0
XRECORD
  5
3D0
102
{ACAD_REACTORS
330
3CF
102
}
330
3CF
100
AcDbXrecord
280
     1
102
RTVSPropertyOp0
 70
     1
102
RTVSPropertyOp1
 70
     1
102
RTVSPropertyOp2
 70
     1
102
RTVSPropertyOp3
 70
     1
102
RTVSPropertyOp4
 70
     1
102
RTVSPropertyOp5
 70
     1
102
RTVSPropertyOp6
 70
     1
102
RTVSPropertyOp7
 70
     1
102
RTVSPropertyOp8
 70
     1
102
RTVSPropertyOp9
 70
     1
102
RTVSPropertyOp10
 70
     1
102
RTVSPropertyOp11
 70
     1
102
RTVSPropertyOp12
 70
     1
102
RTVSPropertyOp13
 70
     1
102
RTVSPropertyOp14
 70
     1
102
RTVSPropertyOp15
 70
     1
102
RTVSPropertyOp16
 70
     1
102
RTVSPropertyOp17
 70
     1
102
RTVSPropertyOp18
 70
     1
102
RTVSPropertyOp19
 70
     1
102
RTVSPropertyOp20
 70
     1
102
RTVSPropertyOp21
 70
     1
102
RTVSPropertyOp22
 70
     1
102
RTVSPropertyOp23
 70
     1
102
RTVSPropertyOp24
 70
     1
102
RTVSPropertyOp25
 70
     1
102
RTVSPropertyOp26
 70
     1
102
RTVSPropertyOp27
 70
     1
102
RTVSPropertyOp28
 70
     1
102
RTVSPropertyOp29
 70
     1
102
RTVSPropertyOp30
 70
     1
102
RTVSPropertyOp31
 70
     1
102
RTVSPropertyOp32
 70
     1
102
RTVSPropertyOp33
 70
     1
102
RTVSPropertyOp34
 70
     1
102
RTVSPropertyOp35
 70
     1
102
RTVSPropertyOp36
 70
     1
102
RTVSPropertyOp37
 70
     1
102
RTVSPropertyOp38
 70
     1
102
RTVSPropertyOp39
 70
     1
102
RTVSPropertyOp40
 70
     1
102
RTVSPropertyOp41
 70
     1
102
RTVSPropertyOp42
 70
     1
102
RTVSPropertyOp43
 70
     1
102
RTVSPropertyOp44
 70
     1
102
RTVSPropertyOp45
 70
     1
102
RTVSPropertyOp46
 70
     1
102
RTVSPropertyOp47
 70
     1
102
RTVSPropertyOp48
 70
     1
102
RTVSPropertyOp49
 70
     1
102
RTVSPropertyOp50
 70
     1
102
RTVSPropertyOp51
 70
     0
102
RTVSPropertyOp52
 70
     0
102
RTVSPropertyOp53
 70
     1
102
RTVSPropertyOp54
 70
     1
102
RTVSPropertyOp55
 70
     1
102
RTVSPropertyOp56
 70
     1
102
RTVSPropertyOp57
 70
     1
102
RTVSPost2010Prop28
280
     0
102
RTVSPost2010PropOp28
 70
     1
102
RTVSPost2010Prop29
280
     1
102
RTVSPost2010PropOp29
 70
     1
102
RTVSPost2010Prop30
280
     1
102
RTVSPost2010PropOp30
 70
     1
102
RTVSPost2010Prop31
280
     0
102
RTVSPost2010PropOp31
 70
     1
102
RTVSPost2010Prop32
280
     0
102
RTVSPost2010PropOp32
 70
     1
102
RTVSPost2010Prop33
280
     0
102
RTVSPost2010PropOp33
 70
     1
102
RTVSPost2010Prop34
280
     0
102
RTVSPost2010PropOp34
 70
     1
102
RTVSPost2010Prop35
280
     0
102
RTVSPost2010PropOp35
 70
     1
102
RTVSPost2010Prop36
280
     0
102
RTVSPost2010PropOp36
 70
     1
102
RTVSPost2010Prop37
 90
       50
102
RTVSPost2010PropOp37
 70
     1
102
RTVSPost2010Prop38
140
0.0
102
RTVSPost2010PropOp38
 70
     1
102
RTVSPost2010Prop39
140
1.0
102
RTVSPost2010PropOp39
 70
     1
102
RTVSPost2010Prop40
 90
        0
102
RTVSPost2010PropOp40
 70
     1
102
RTVSPost2010Prop41ColorIndex
 90
       18
102
RTVSPost2010Prop41ColorRGB
 90
        0
102
RTVSPost2010PropOp41
 70
     1
102
RTVSPost2010Prop42
 90
       50
102
RTVSPost2010PropOp42
 70
     1
102
RTVSPost2010Prop43
 90
        3
102
RTVSPost2010PropOp43
 70
     1
102
RTVSPost2010Prop44ColorIndex
 90
        5
102
RTVSPost2010Prop44ColorRGB
 90
      255
102
RTVSPost2010PropOp44
 70
     1
102
RTVSPost2010Prop45
280
     0
102
RTVSPost2010PropOp45
 70
     1
102
RTVSPost2010Prop46
 90
       50
102
RTVSPost2010PropOp46
 70
     1
102
RTVSPost2010Prop47
 90
       50
102
RTVSPost2010PropOp47
 70
     1
102
RTVSPost2010Prop48
 90
       50
102
RTVSPost2010PropOp48
 70
     1
102
RTVSPost2010Prop49
280
     0
102
RTVSPost2010PropOp49
 70
     1
102
RTVSPost2010Prop50
 90
       50
102
RTVSPost2010PropOp50
 70
     1
102
RTVSPost2010Prop51ColorIndex
 90
      256
102
RTVSPost2010Prop51ColorRGB
 90
-16777216
102
RTVSPost2010PropOp51
 70
     0
102
RTVSPost2010Prop52
140
1.0
102
RTVSPost2010PropOp52
 70
     0
102
RTVSPost2010Prop53
 90
        2
102
RTVSPost2010PropOp53
 70
     1
102
RTVSPost2010Prop54
  1
strokes_ogs.tif
102
RTVSPost2010PropOp54
 70
     1
102
RTVSPost2010Prop55
280
     0
102
RTVSPost2010PropOp55
 70
     1
102
RTVSPost2010Prop56
140
1.0
102
RTVSPost2010PropOp56
 70
     1
102
RTVSPost2010Prop57
140
1.0
102
RTVSPost2010PropOp57
 70
     1
  0
XRECORD
  5
3CA
102
{ACAD_REACTORS
330
3C9
102
}
330
3C9
100
AcDbXrecord
280
     1
102
RTVSPropertyOp0
 70
     1
102
RTVSPropertyOp1
 70
     1
102
RTVSPropertyOp2
 70
     1
102
RTVSPropertyOp3
 70
     1
102
RTVSPropertyOp4
 70
     1
102
RTVSPropertyOp5
 70
     1
102
RTVSPropertyOp6
 70
     1
102
RTVSPropertyOp7
 70
     1
102
RTVSPropertyOp8
 70
     1
102
RTVSPropertyOp9
 70
     1
102
RTVSPropertyOp10
 70
     1
102
RTVSPropertyOp11
 70
     1
102
RTVSPropertyOp12
 70
     1
102
RTVSPropertyOp13
 70
     1
102
RTVSPropertyOp14
 70
     1
102
RTVSPropertyOp15
 70
     1
102
RTVSPropertyOp16
 70
     1
102
RTVSPropertyOp17
 70
     1
102
RTVSPropertyOp18
 70
     1
102
RTVSPropertyOp19
 70
     1
102
RTVSPropertyOp20
 70
     1
102
RTVSPropertyOp21
 70
     1
102
RTVSPropertyOp22
 70
     1
102
RTVSPropertyOp23
 70
     1
102
RTVSPropertyOp24
 70
     1
102
RTVSPropertyOp25
 70
     1
102
RTVSPropertyOp26
 70
     1
102
RTVSPropertyOp27
 70
     1
102
RTVSPropertyOp28
 70
     1
102
RTVSPropertyOp29
 70
     1
102
RTVSPropertyOp30
 70
     1
102
RTVSPropertyOp31
 70
     1
102
RTVSPropertyOp32
 70
     1
102
RTVSPropertyOp33
 70
     1
102
RTVSPropertyOp34
 70
     1
102
RTVSPropertyOp35
 70
     1
102
RTVSPropertyOp36
 70
     1
102
RTVSPropertyOp37
 70
     1
102
RTVSPropertyOp38
 70
     1
102
RTVSPropertyOp39
 70
     1
102
RTVSPropertyOp40
 70
     1
102
RTVSPropertyOp41
 70
     1
102
RTVSPropertyOp42
 70
     1
102
RTVSPropertyOp43
 70
     1
102
RTVSPropertyOp44
 70
     1
102
RTVSPropertyOp45
 70
     1
102
RTVSPropertyOp46
 70
     1
102
RTVSPropertyOp47
 70
     1
102
RTVSPropertyOp48
 70
     1
102
RTVSPropertyOp49
 70
     1
102
RTVSPropertyOp50
 70
     1
102
RTVSPropertyOp51
 70
     0
102
RTVSPropertyOp52
 70
     0
102
RTVSPropertyOp53
 70
     1
102
RTVSPropertyOp54
 70
     1
102
RTVSPropertyOp55
 70
     1
102
RTVSPropertyOp56
 70
     1
102
RTVSPropertyOp57
 70
     1
102
RTVSPost2010Prop28
280
     0
102
RTVSPost2010PropOp28
 70
     1
102
RTVSPost2010Prop29
280
     1
102
RTVSPost2010PropOp29
 70
     1
102
RTVSPost2010Prop30
280
     1
102
RTVSPost2010PropOp30
 70
     1
102
RTVSPost2010Prop31
280
     0
102
RTVSPost2010PropOp31
 70
     1
102
RTVSPost2010Prop32
280
     0
102
RTVSPost2010PropOp32
 70
     1
102
RTVSPost2010Prop33
280
     0
102
RTVSPost2010PropOp33
 70
     1
102
RTVSPost2010Prop34
280
     0
102
RTVSPost2010PropOp34
 70
     1
102
RTVSPost2010Prop35
280
     0
102
RTVSPost2010PropOp35
 70
     1
102
RTVSPost2010Prop36
280
     0
102
RTVSPost2010PropOp36
 70
     1
102
RTVSPost2010Prop37
 90
       50
102
RTVSPost2010PropOp37
 70
     1
102
RTVSPost2010Prop38
140
0.0
102
RTVSPost2010PropOp38
 70
     1
102
RTVSPost2010Prop39
140
1.0
102
RTVSPost2010PropOp39
 70
     1
102
RTVSPost2010Prop40
 90
        0
102
RTVSPost2010PropOp40
 70
     1
102
RTVSPost2010Prop41ColorIndex
 90
       18
102
RTVSPost2010Prop41ColorRGB
 90
        0
102
RTVSPost2010PropOp41
 70
     1
102
RTVSPost2010Prop42
 90
       50
102
RTVSPost2010PropOp42
 70
     1
102
RTVSPost2010Prop43
 90
        3
102
RTVSPost2010PropOp43
 70
     1
102
RTVSPost2010Prop44ColorIndex
 90
        5
102
RTVSPost2010Prop44ColorRGB
 90
      255
102
RTVSPost2010PropOp44
 70
     1
102
RTVSPost2010Prop45
280
     0
102
RTVSPost2010PropOp45
 70
     1
102
RTVSPost2010Prop46
 90
       50
102
RTVSPost2010PropOp46
 70
     1
102
RTVSPost2010Prop47
 90
       50
102
RTVSPost2010PropOp47
 70
     1
102
RTVSPost2010Prop48
 90
       50
102
RTVSPost2010PropOp48
 70
     1
102
RTVSPost2010Prop49
280
     0
102
RTVSPost2010PropOp49
 70
     1
102
RTVSPost2010Prop50
 90
       50
102
RTVSPost2010PropOp50
 70
     1
102
RTVSPost2010Prop51ColorIndex
 90
      256
102
RTVSPost2010Prop51ColorRGB
 90
-16777216
102
RTVSPost2010PropOp51
 70
     0
102
RTVSPost2010Prop52
140
1.0
102
RTVSPost2010PropOp52
 70
     0
102
RTVSPost2010Prop53
 90
        2
102
RTVSPost2010PropOp53
 70
     1
102
RTVSPost2010Prop54
  1
strokes_ogs.tif
102
RTVSPost2010PropOp54
 70
     1
102
RTVSPost2010Prop55
280
     0
102
RTVSPost2010PropOp55
 70
     1
102
RTVSPost2010Prop56
140
1.0
102
RTVSPost2010PropOp56
 70
     1
102
RTVSPost2010Prop57
140
1.0
102
RTVSPost2010PropOp57
 70
     1
  0
XRECORD
  5
3CC
102
{ACAD_REACTORS
330
3CB
102
}
330
3CB
100
AcDbXrecord
280
     1
102
RTVSPropertyOp0
 70
     1
102
RTVSPropertyOp1
 70
     1
102
RTVSPropertyOp2
 70
     1
102
RTVSPropertyOp3
 70
     1
102
RTVSPropertyOp4
 70
     1
102
RTVSPropertyOp5
 70
     1
102
RTVSPropertyOp6
 70
     1
102
RTVSPropertyOp7
 70
     1
102
RTVSPropertyOp8
 70
     1
102
RTVSPropertyOp9
 70
     1
102
RTVSPropertyOp10
 70
     1
102
RTVSPropertyOp11
 70
     1
102
RTVSPropertyOp12
 70
     1
102
RTVSPropertyOp13
 70
     1
102
RTVSPropertyOp14
 70
     1
102
RTVSPropertyOp15
 70
     1
102
RTVSPropertyOp16
 70
     1
102
RTVSPropertyOp17
 70
     1
102
RTVSPropertyOp18
 70
     1
102
RTVSPropertyOp19
 70
     1
102
RTVSPropertyOp20
 70
     1
102
RTVSPropertyOp21
 70
     1
102
RTVSPropertyOp22
 70
     1
102
RTVSPropertyOp23
 70
     1
102
RTVSPropertyOp24
 70
     1
102
RTVSPropertyOp25
 70
     1
102
RTVSPropertyOp26
 70
     1
102
RTVSPropertyOp27
 70
     1
102
RTVSPropertyOp28
 70
     1
102
RTVSPropertyOp29
 70
     1
102
RTVSPropertyOp30
 70
     1
102
RTVSPropertyOp31
 70
     1
102
RTVSPropertyOp32
 70
     1
102
RTVSPropertyOp33
 70
     1
102
RTVSPropertyOp34
 70
     1
102
RTVSPropertyOp35
 70
     1
102
RTVSPropertyOp36
 70
     1
102
RTVSPropertyOp37
 70
     1
102
RTVSPropertyOp38
 70
     1
102
RTVSPropertyOp39
 70
     1
102
RTVSPropertyOp40
 70
     1
102
RTVSPropertyOp41
 70
     1
102
RTVSPropertyOp42
 70
     1
102
RTVSPropertyOp43
 70
     1
102
RTVSPropertyOp44
 70
     1
102
RTVSPropertyOp45
 70
     1
102
RTVSPropertyOp46
 70
     1
102
RTVSPropertyOp47
 70
     1
102
RTVSPropertyOp48
 70
     1
102
RTVSPropertyOp49
 70
     1
102
RTVSPropertyOp50
 70
     1
102
RTVSPropertyOp51
 70
     0
102
RTVSPropertyOp52
 70
     0
102
RTVSPropertyOp53
 70
     1
102
RTVSPropertyOp54
 70
     1
102
RTVSPropertyOp55
 70
     1
102
RTVSPropertyOp56
 70
     1
102
RTVSPropertyOp57
 70
     1
102
RTVSPost2010Prop28
280
     0
102
RTVSPost2010PropOp28
 70
     1
102
RTVSPost2010Prop29
280
     1
102
RTVSPost2010PropOp29
 70
     1
102
RTVSPost2010Prop30
280
     1
102
RTVSPost2010PropOp30
 70
     1
102
RTVSPost2010Prop31
280
     0
102
RTVSPost2010PropOp31
 70
     1
102
RTVSPost2010Prop32
280
     0
102
RTVSPost2010PropOp32
 70
     1
102
RTVSPost2010Prop33
280
     0
102
RTVSPost2010PropOp33
 70
     1
102
RTVSPost2010Prop34
280
     0
102
RTVSPost2010PropOp34
 70
     1
102
RTVSPost2010Prop35
280
     0
102
RTVSPost2010PropOp35
 70
     1
102
RTVSPost2010Prop36
280
     0
102
RTVSPost2010PropOp36
 70
     1
102
RTVSPost2010Prop37
 90
       50
102
RTVSPost2010PropOp37
 70
     1
102
RTVSPost2010Prop38
140
0.0
102
RTVSPost2010PropOp38
 70
     1
102
RTVSPost2010Prop39
140
1.0
102
RTVSPost2010PropOp39
 70
     1
102
RTVSPost2010Prop40
 90
        0
102
RTVSPost2010PropOp40
 70
     1
102
RTVSPost2010Prop41ColorIndex
 90
       18
102
RTVSPost2010Prop41ColorRGB
 90
        0
102
RTVSPost2010PropOp41
 70
     1
102
RTVSPost2010Prop42
 90
       50
102
RTVSPost2010PropOp42
 70
     1
102
RTVSPost2010Prop43
 90
        3
102
RTVSPost2010PropOp43
 70
     1
102
RTVSPost2010Prop44ColorIndex
 90
        5
102
RTVSPost2010Prop44ColorRGB
 90
      255
102
RTVSPost2010PropOp44
 70
     1
102
RTVSPost2010Prop45
280
     0
102
RTVSPost2010PropOp45
 70
     1
102
RTVSPost2010Prop46
 90
       50
102
RTVSPost2010PropOp46
 70
     1
102
RTVSPost2010Prop47
 90
       50
102
RTVSPost2010PropOp47
 70
     1
102
RTVSPost2010Prop48
 90
       50
102
RTVSPost2010PropOp48
 70
     1
102
RTVSPost2010Prop49
280
     0
102
RTVSPost2010PropOp49
 70
     1
102
RTVSPost2010Prop50
 90
       50
102
RTVSPost2010PropOp50
 70
     1
102
RTVSPost2010Prop51ColorIndex
 90
      256
102
RTVSPost2010Prop51ColorRGB
 90
-16777216
102
RTVSPost2010PropOp51
 70
     0
102
RTVSPost2010Prop52
140
1.0
102
RTVSPost2010PropOp52
 70
     0
102
RTVSPost2010Prop53
 90
        2
102
RTVSPost2010PropOp53
 70
     1
102
RTVSPost2010Prop54
  1
strokes_ogs.tif
102
RTVSPost2010PropOp54
 70
     1
102
RTVSPost2010Prop55
280
     0
102
RTVSPost2010PropOp55
 70
     1
102
RTVSPost2010Prop56
140
1.0
102
RTVSPost2010PropOp56
 70
     1
102
RTVSPost2010Prop57
140
1.0
102
RTVSPost2010PropOp57
 70
     1
  0
XRECORD
  5
3BC
102
{ACAD_REACTORS
330
3BB
102
}
330
3BB
100
AcDbXrecord
280
     1
102
RTVSPropertyOp0
 70
     1
102
RTVSPropertyOp1
 70
     1
102
RTVSPropertyOp2
 70
     1
102
RTVSPropertyOp3
 70
     1
102
RTVSPropertyOp4
 70
     1
102
RTVSPropertyOp5
 70
     1
102
RTVSPropertyOp6
 70
     1
102
RTVSPropertyOp7
 70
     1
102
RTVSPropertyOp8
 70
     1
102
RTVSPropertyOp9
 70
     1
102
RTVSPropertyOp10
 70
     1
102
RTVSPropertyOp11
 70
     1
102
RTVSPropertyOp12
 70
     1
102
RTVSPropertyOp13
 70
     1
102
RTVSPropertyOp14
 70
     1
102
RTVSPropertyOp15
 70
     1
102
RTVSPropertyOp16
 70
     1
102
RTVSPropertyOp17
 70
     1
102
RTVSPropertyOp18
 70
     1
102
RTVSPropertyOp19
 70
     1
102
RTVSPropertyOp20
 70
     1
102
RTVSPropertyOp21
 70
     1
102
RTVSPropertyOp22
 70
     1
102
RTVSPropertyOp23
 70
     1
102
RTVSPropertyOp24
 70
     1
102
RTVSPropertyOp25
 70
     1
102
RTVSPropertyOp26
 70
     1
102
RTVSPropertyOp27
 70
     1
102
RTVSPropertyOp28
 70
     1
102
RTVSPropertyOp29
 70
     1
102
RTVSPropertyOp30
 70
     1
102
RTVSPropertyOp31
 70
     1
102
RTVSPropertyOp32
 70
     1
102
RTVSPropertyOp33
 70
     1
102
RTVSPropertyOp34
 70
     1
102
RTVSPropertyOp35
 70
     1
102
RTVSPropertyOp36
 70
     1
102
RTVSPropertyOp37
 70
     1
102
RTVSPropertyOp38
 70
     1
102
RTVSPropertyOp39
 70
     1
102
RTVSPropertyOp40
 70
     1
102
RTVSPropertyOp41
 70
     1
102
RTVSPropertyOp42
 70
     1
102
RTVSPropertyOp43
 70
     1
102
RTVSPropertyOp44
 70
     1
102
RTVSPropertyOp45
 70
     1
102
RTVSPropertyOp46
 70
     1
102
RTVSPropertyOp47
 70
     1
102
RTVSPropertyOp48
 70
     1
102
RTVSPropertyOp49
 70
     1
102
RTVSPropertyOp50
 70
     1
102
RTVSPropertyOp51
 70
     0
102
RTVSPropertyOp52
 70
     0
102
RTVSPropertyOp53
 70
     1
102
RTVSPropertyOp54
 70
     1
102
RTVSPropertyOp55
 70
     1
102
RTVSPropertyOp56
 70
     1
102
RTVSPropertyOp57
 70
     1
102
RTVSPost2010Prop28
280
     0
102
RTVSPost2010PropOp28
 70
     1
102
RTVSPost2010Prop29
280
     1
102
RTVSPost2010PropOp29
 70
     1
102
RTVSPost2010Prop30
280
     1
102
RTVSPost2010PropOp30
 70
     1
102
RTVSPost2010Prop31
280
     0
102
RTVSPost2010PropOp31
 70
     1
102
RTVSPost2010Prop32
280
     0
102
RTVSPost2010PropOp32
 70
     1
102
RTVSPost2010Prop33
280
     0
102
RTVSPost2010PropOp33
 70
     1
102
RTVSPost2010Prop34
280
     0
102
RTVSPost2010PropOp34
 70
     1
102
RTVSPost2010Prop35
280
     0
102
RTVSPost2010PropOp35
 70
     1
102
RTVSPost2010Prop36
280
     0
102
RTVSPost2010PropOp36
 70
     1
102
RTVSPost2010Prop37
 90
       50
102
RTVSPost2010PropOp37
 70
     1
102
RTVSPost2010Prop38
140
0.0
102
RTVSPost2010PropOp38
 70
     1
102
RTVSPost2010Prop39
140
1.0
102
RTVSPost2010PropOp39
 70
     1
102
RTVSPost2010Prop40
 90
        0
102
RTVSPost2010PropOp40
 70
     1
102
RTVSPost2010Prop41ColorIndex
 90
       18
102
RTVSPost2010Prop41ColorRGB
 90
        0
102
RTVSPost2010PropOp41
 70
     1
102
RTVSPost2010Prop42
 90
       50
102
RTVSPost2010PropOp42
 70
     1
102
RTVSPost2010Prop43
 90
        3
102
RTVSPost2010PropOp43
 70
     1
102
RTVSPost2010Prop44ColorIndex
 90
        5
102
RTVSPost2010Prop44ColorRGB
 90
      255
102
RTVSPost2010PropOp44
 70
     1
102
RTVSPost2010Prop45
280
     0
102
RTVSPost2010PropOp45
 70
     1
102
RTVSPost2010Prop46
 90
       50
102
RTVSPost2010PropOp46
 70
     1
102
RTVSPost2010Prop47
 90
       50
102
RTVSPost2010PropOp47
 70
     1
102
RTVSPost2010Prop48
 90
       50
102
RTVSPost2010PropOp48
 70
     1
102
RTVSPost2010Prop49
280
     0
102
RTVSPost2010PropOp49
 70
     1
102
RTVSPost2010Prop50
 90
       50
102
RTVSPost2010PropOp50
 70
     1
102
RTVSPost2010Prop51ColorIndex
 90
      256
102
RTVSPost2010Prop51ColorRGB
 90
-16777216
102
RTVSPost2010PropOp51
 70
     0
102
RTVSPost2010Prop52
140
1.0
102
RTVSPost2010PropOp52
 70
     0
102
RTVSPost2010Prop53
 90
        2
102
RTVSPost2010PropOp53
 70
     1
102
RTVSPost2010Prop54
  1
strokes_ogs.tif
102
RTVSPost2010PropOp54
 70
     1
102
RTVSPost2010Prop55
280
     0
102
RTVSPost2010PropOp55
 70
     1
102
RTVSPost2010Prop56
140
1.0
102
RTVSPost2010PropOp56
 70
     1
102
RTVSPost2010Prop57
140
1.0
102
RTVSPost2010PropOp57
 70
     1
  0
XRECORD
  5
3AE
102
{ACAD_REACTORS
330
3AD
102
}
330
3AD
100
AcDbXrecord
280
     1
102
RTVSPropertyOp0
 70
     1
102
RTVSPropertyOp1
 70
     1
102
RTVSPropertyOp2
 70
     1
102
RTVSPropertyOp3
 70
     1
102
RTVSPropertyOp4
 70
     1
102
RTVSPropertyOp5
 70
     1
102
RTVSPropertyOp6
 70
     1
102
RTVSPropertyOp7
 70
     1
102
RTVSPropertyOp8
 70
     1
102
RTVSPropertyOp9
 70
     1
102
RTVSPropertyOp10
 70
     1
102
RTVSPropertyOp11
 70
     1
102
RTVSPropertyOp12
 70
     1
102
RTVSPropertyOp13
 70
     1
102
RTVSPropertyOp14
 70
     1
102
RTVSPropertyOp15
 70
     1
102
RTVSPropertyOp16
 70
     1
102
RTVSPropertyOp17
 70
     1
102
RTVSPropertyOp18
 70
     1
102
RTVSPropertyOp19
 70
     1
102
RTVSPropertyOp20
 70
     1
102
RTVSPropertyOp21
 70
     1
102
RTVSPropertyOp22
 70
     1
102
RTVSPropertyOp23
 70
     1
102
RTVSPropertyOp24
 70
     1
102
RTVSPropertyOp25
 70
     1
102
RTVSPropertyOp26
 70
     1
102
RTVSPropertyOp27
 70
     1
102
RTVSPropertyOp28
 70
     1
102
RTVSPropertyOp29
 70
     1
102
RTVSPropertyOp30
 70
     1
102
RTVSPropertyOp31
 70
     1
102
RTVSPropertyOp32
 70
     1
102
RTVSPropertyOp33
 70
     1
102
RTVSPropertyOp34
 70
     1
102
RTVSPropertyOp35
 70
     1
102
RTVSPropertyOp36
 70
     1
102
RTVSPropertyOp37
 70
     1
102
RTVSPropertyOp38
 70
     1
102
RTVSPropertyOp39
 70
     1
102
RTVSPropertyOp40
 70
     1
102
RTVSPropertyOp41
 70
     1
102
RTVSPropertyOp42
 70
     1
102
RTVSPropertyOp43
 70
     1
102
RTVSPropertyOp44
 70
     1
102
RTVSPropertyOp45
 70
     1
102
RTVSPropertyOp46
 70
     1
102
RTVSPropertyOp47
 70
     1
102
RTVSPropertyOp48
 70
     1
102
RTVSPropertyOp49
 70
     1
102
RTVSPropertyOp50
 70
     1
102
RTVSPropertyOp51
 70
     0
102
RTVSPropertyOp52
 70
     0
102
RTVSPropertyOp53
 70
     1
102
RTVSPropertyOp54
 70
     1
102
RTVSPropertyOp55
 70
     1
102
RTVSPropertyOp56
 70
     1
102
RTVSPropertyOp57
 70
     1
102
RTVSPost2010Prop28
280
     0
102
RTVSPost2010PropOp28
 70
     1
102
RTVSPost2010Prop29
280
     1
102
RTVSPost2010PropOp29
 70
     1
102
RTVSPost2010Prop30
280
     1
102
RTVSPost2010PropOp30
 70
     1
102
RTVSPost2010Prop31
280
     0
102
RTVSPost2010PropOp31
 70
     1
102
RTVSPost2010Prop32
280
     0
102
RTVSPost2010PropOp32
 70
     1
102
RTVSPost2010Prop33
280
     0
102
RTVSPost2010PropOp33
 70
     1
102
RTVSPost2010Prop34
280
     0
102
RTVSPost2010PropOp34
 70
     1
102
RTVSPost2010Prop35
280
     0
102
RTVSPost2010PropOp35
 70
     1
102
RTVSPost2010Prop36
280
     0
102
RTVSPost2010PropOp36
 70
     1
102
RTVSPost2010Prop37
 90
       50
102
RTVSPost2010PropOp37
 70
     1
102
RTVSPost2010Prop38
140
0.0
102
RTVSPost2010PropOp38
 70
     1
102
RTVSPost2010Prop39
140
1.0
102
RTVSPost2010PropOp39
 70
     1
102
RTVSPost2010Prop40
 90
        0
102
RTVSPost2010PropOp40
 70
     1
102
RTVSPost2010Prop41ColorIndex
 90
       18
102
RTVSPost2010Prop41ColorRGB
 90
        0
102
RTVSPost2010PropOp41
 70
     1
102
RTVSPost2010Prop42
 90
       50
102
RTVSPost2010PropOp42
 70
     1
102
RTVSPost2010Prop43
 90
        3
102
RTVSPost2010PropOp43
 70
     1
102
RTVSPost2010Prop44ColorIndex
 90
        5
102
RTVSPost2010Prop44ColorRGB
 90
      255
102
RTVSPost2010PropOp44
 70
     1
102
RTVSPost2010Prop45
280
     0
102
RTVSPost2010PropOp45
 70
     1
102
RTVSPost2010Prop46
 90
       50
102
RTVSPost2010PropOp46
 70
     1
102
RTVSPost2010Prop47
 90
       50
102
RTVSPost2010PropOp47
 70
     1
102
RTVSPost2010Prop48
 90
       50
102
RTVSPost2010PropOp48
 70
     1
102
RTVSPost2010Prop49
280
     0
102
RTVSPost2010PropOp49
 70
     1
102
RTVSPost2010Prop50
 90
       50
102
RTVSPost2010PropOp50
 70
     1
102
RTVSPost2010Prop51ColorIndex
 90
      256
102
RTVSPost2010Prop51ColorRGB
 90
-16777216
102
RTVSPost2010PropOp51
 70
     0
102
RTVSPost2010Prop52
140
1.0
102
RTVSPost2010PropOp52
 70
     0
102
RTVSPost2010Prop53
 90
        2
102
RTVSPost2010PropOp53
 70
     1
102
RTVSPost2010Prop54
  1
strokes_ogs.tif
102
RTVSPost2010PropOp54
 70
     1
102
RTVSPost2010Prop55
280
     0
102
RTVSPost2010PropOp55
 70
     1
102
RTVSPost2010Prop56
140
1.0
102
RTVSPost2010PropOp56
 70
     1
102
RTVSPost2010Prop57
140
1.0
102
RTVSPost2010PropOp57
 70
     1
  0
XRECORD
  5
3CE
102
{ACAD_REACTORS
330
3CD
102
}
330
3CD
100
AcDbXrecord
280
     1
102
RTVSPropertyOp0
 70
     1
102
RTVSPropertyOp1
 70
     1
102
RTVSPropertyOp2
 70
     1
102
RTVSPropertyOp3
 70
     1
102
RTVSPropertyOp4
 70
     1
102
RTVSPropertyOp5
 70
     1
102
RTVSPropertyOp6
 70
     1
102
RTVSPropertyOp7
 70
     1
102
RTVSPropertyOp8
 70
     1
102
RTVSPropertyOp9
 70
     1
102
RTVSPropertyOp10
 70
     1
102
RTVSPropertyOp11
 70
     1
102
RTVSPropertyOp12
 70
     1
102
RTVSPropertyOp13
 70
     1
102
RTVSPropertyOp14
 70
     1
102
RTVSPropertyOp15
 70
     1
102
RTVSPropertyOp16
 70
     1
102
RTVSPropertyOp17
 70
     1
102
RTVSPropertyOp18
 70
     1
102
RTVSPropertyOp19
 70
     1
102
RTVSPropertyOp20
 70
     1
102
RTVSPropertyOp21
 70
     1
102
RTVSPropertyOp22
 70
     1
102
RTVSPropertyOp23
 70
     1
102
RTVSPropertyOp24
 70
     1
102
RTVSPropertyOp25
 70
     1
102
RTVSPropertyOp26
 70
     1
102
RTVSPropertyOp27
 70
     1
102
RTVSPropertyOp28
 70
     1
102
RTVSPropertyOp29
 70
     1
102
RTVSPropertyOp30
 70
     1
102
RTVSPropertyOp31
 70
     1
102
RTVSPropertyOp32
 70
     1
102
RTVSPropertyOp33
 70
     1
102
RTVSPropertyOp34
 70
     1
102
RTVSPropertyOp35
 70
     1
102
RTVSPropertyOp36
 70
     1
102
RTVSPropertyOp37
 70
     1
102
RTVSPropertyOp38
 70
     1
102
RTVSPropertyOp39
 70
     1
102
RTVSPropertyOp40
 70
     1
102
RTVSPropertyOp41
 70
     1
102
RTVSPropertyOp42
 70
     1
102
RTVSPropertyOp43
 70
     1
102
RTVSPropertyOp44
 70
     1
102
RTVSPropertyOp45
 70
     1
102
RTVSPropertyOp46
 70
     1
102
RTVSPropertyOp47
 70
     1
102
RTVSPropertyOp48
 70
     1
102
RTVSPropertyOp49
 70
     1
102
RTVSPropertyOp50
 70
     1
102
RTVSPropertyOp51
 70
     0
102
RTVSPropertyOp52
 70
     0
102
RTVSPropertyOp53
 70
     1
102
RTVSPropertyOp54
 70
     1
102
RTVSPropertyOp55
 70
     1
102
RTVSPropertyOp56
 70
     1
102
RTVSPropertyOp57
 70
     1
102
RTVSPost2010Prop28
280
     0
102
RTVSPost2010PropOp28
 70
     1
102
RTVSPost2010Prop29
280
     1
102
RTVSPost2010PropOp29
 70
     1
102
RTVSPost2010Prop30
280
     1
102
RTVSPost2010PropOp30
 70
     1
102
RTVSPost2010Prop31
280
     0
102
RTVSPost2010PropOp31
 70
     1
102
RTVSPost2010Prop32
280
     0
102
RTVSPost2010PropOp32
 70
     1
102
RTVSPost2010Prop33
280
     0
102
RTVSPost2010PropOp33
 70
     1
102
RTVSPost2010Prop34
280
     0
102
RTVSPost2010PropOp34
 70
     1
102
RTVSPost2010Prop35
280
     0
102
RTVSPost2010PropOp35
 70
     1
102
RTVSPost2010Prop36
280
     0
102
RTVSPost2010PropOp36
 70
     1
102
RTVSPost2010Prop37
 90
       50
102
RTVSPost2010PropOp37
 70
     1
102
RTVSPost2010Prop38
140
0.0
102
RTVSPost2010PropOp38
 70
     1
102
RTVSPost2010Prop39
140
1.0
102
RTVSPost2010PropOp39
 70
     1
102
RTVSPost2010Prop40
 90
        0
102
RTVSPost2010PropOp40
 70
     1
102
RTVSPost2010Prop41ColorIndex
 90
       18
102
RTVSPost2010Prop41ColorRGB
 90
        0
102
RTVSPost2010PropOp41
 70
     1
102
RTVSPost2010Prop42
 90
       50
102
RTVSPost2010PropOp42
 70
     1
102
RTVSPost2010Prop43
 90
        3
102
RTVSPost2010PropOp43
 70
     1
102
RTVSPost2010Prop44ColorIndex
 90
        5
102
RTVSPost2010Prop44ColorRGB
 90
      255
102
RTVSPost2010PropOp44
 70
     1
102
RTVSPost2010Prop45
280
     0
102
RTVSPost2010PropOp45
 70
     1
102
RTVSPost2010Prop46
 90
       50
102
RTVSPost2010PropOp46
 70
     1
102
RTVSPost2010Prop47
 90
       50
102
RTVSPost2010PropOp47
 70
     1
102
RTVSPost2010Prop48
 90
       50
102
RTVSPost2010PropOp48
 70
     1
102
RTVSPost2010Prop49
280
     0
102
RTVSPost2010PropOp49
 70
     1
102
RTVSPost2010Prop50
 90
       50
102
RTVSPost2010PropOp50
 70
     1
102
RTVSPost2010Prop51ColorIndex
 90
      256
102
RTVSPost2010Prop51ColorRGB
 90
-16777216
102
RTVSPost2010PropOp51
 70
     0
102
RTVSPost2010Prop52
140
1.0
102
RTVSPost2010PropOp52
 70
     0
102
RTVSPost2010Prop53
 90
        2
102
RTVSPost2010PropOp53
 70
     1
102
RTVSPost2010Prop54
  1
strokes_ogs.tif
102
RTVSPost2010PropOp54
 70
     1
102
RTVSPost2010Prop55
280
     0
102
RTVSPost2010PropOp55
 70
     1
102
RTVSPost2010Prop56
140
1.0
102
RTVSPost2010PropOp56
 70
     1
102
RTVSPost2010Prop57
140
1.0
102
RTVSPost2010PropOp57
 70
     1
  0
ENDSEC
  0
EOF
