  0
SECTION
  2
HEADER
  9
$ACADVER
  1
AC1015
  9
$ACADMAINTVER
 70
     6
  9
$DWGCODEPAGE
  3
ANSI_932
  9
$INSBASE
 10
0.0
 20
0.0
 30
0.0
  9
$EXTMIN
 10
37.97023789110882
 20
41.47233120781252
 30
0.0
  9
$EXTMAX
 10
686.1607308201885
 20
289.7411721671875
 30
0.0
  9
$LIMMIN
 10
37.97023789110882
 20
41.47233120781252
  9
$LIMMAX
 10
686.1607308201885
 20
289.7411721671875
  9
$ORTHOMODE
 70
     0
  9
$REGENMODE
 70
     1
  9
$FILLMODE
 70
     1
  9
$QTEXTMODE
 70
     0
  9
$MIRRTEXT
 70
     1
  9
$LTSCALE
 40
0.5
  9
$ATTMODE
 70
     1
  9
$TEXTSIZE
 40
0.2
  9
$TRACEWID
 40
0.05
  9
$TEXTSTYLE
  7
Standard
  9
$CLAYER
  8
新しいレイヤ 1
  9
$CELTYPE
  6
ByLayer
  9
$CECOLOR
 62
   256
  9
$CELTSCALE
 40
1.0
  9
$DISPSILH
 70
     0
  9
$DIMSCALE
 40
1.0
  9
$DIMASZ
 40
0.18
  9
$DIMEXO
 40
0.0625
  9
$DIMDLI
 40
0.38
  9
$DIMRND
 40
0.0
  9
$DIMDLE
 40
0.0
  9
$DIMEXE
 40
0.18
  9
$DIMTP
 40
0.0
  9
$DIMTM
 40
0.0
  9
$DIMTXT
 40
0.18
  9
$DIMCEN
 40
0.09
  9
$DIMTSZ
 40
0.0
  9
$DIMTOL
 70
     0
  9
$DIMLIM
 70
     0
  9
$DIMTIH
 70
     1
  9
$DIMTOH
 70
     1
  9
$DIMSE1
 70
     0
  9
$DIMSE2
 70
     0
  9
$DIMTAD
 70
     0
  9
$DIMZIN
 70
     0
  9
$DIMBLK
  1

  9
$DIMASO
 70
     1
  9
$DIMSHO
 70
     1
  9
$DIMPOST
  1

  9
$DIMAPOST
  1

  9
$DIMALT
 70
     0
  9
$DIMALTD
 70
     2
  9
$DIMALTF
 40
25.4
  9
$DIMLFAC
 40
1.0
  9
$DIMTOFL
 70
     0
  9
$DIMTVP
 40
0.0
  9
$DIMTIX
 70
     0
  9
$DIMSOXD
 70
     0
  9
$DIMSAH
 70
     0
  9
$DIMBLK1
  1

  9
$DIMBLK2
  1

  9
$DIMSTYLE
  2
Standard
  9
$DIMCLRD
 70
     0
  9
$DIMCLRE
 70
     0
  9
$DIMCLRT
 70
     0
  9
$DIMTFAC
 40
1.0
  9
$DIMGAP
 40
0.09
  9
$DIMJUST
 70
     0
  9
$DIMSD1
 70
     0
  9
$DIMSD2
 70
     0
  9
$DIMTOLJ
 70
     1
  9
$DIMTZIN
 70
     0
  9
$DIMALTZ
 70
     0
  9
$DIMALTTZ
 70
     0
  9
$DIMUPT
 70
     0
  9
$DIMDEC
 70
     4
  9
$DIMTDEC
 70
     4
  9
$DIMALTU
 70
     2
  9
$DIMALTTD
 70
     2
  9
$DIMTXSTY
  7
Standard
  9
$DIMAUNIT
 70
     0
  9
$DIMADEC
 70
     0
  9
$DIMALTRND
 40
0.0
  9
$DIMAZIN
 70
     0
  9
$DIMDSEP
 70
    46
  9
$DIMATFIT
 70
     3
  9
$DIMFRAC
 70
     0
  9
$DIMLDRBLK
  1

  9
$DIMLUNIT
 70
     2
  9
$DIMLWD
 70
    -2
  9
$DIMLWE
 70
    -2
  9
$DIMTMOVE
 70
     0
  9
$LUNITS
 70
     2
  9
$LUPREC
 70
     2
  9
$SKETCHINC
 40
0.1
  9
$FILLETRAD
 40
0.5
  9
$AUNITS
 70
     0
  9
$AUPREC
 70
     0
  9
$MENU
  1
.
  9
$ELEVATION
 40
0.0
  9
$PELEVATION
 40
0.0
  9
$THICKNESS
 40
0.0
  9
$LIMCHECK
 70
     0
  9
$CHAMFERA
 40
0.0
  9
$CHAMFERB
 40
0.0
  9
$CHAMFERC
 40
0.0
  9
$CHAMFERD
 40
0.0
  9
$SKPOLY
 70
     0
  9
$TDCREATE
 40
2460165.411556146
  9
$TDUCREATE
 40
2460165.036556146
  9
$TDUPDATE
 40
2460165.411557049
  9
$TDUUPDATE
 40
2460165.036557049
  9
$TDINDWG
 40
0.0000000116
  9
$TDUSRTIMER
 40
0.0000000116
  9
$USRTIMER
 70
     1
  9
$ANGBASE
 50
0.0
  9
$ANGDIR
 70
     0
  9
$PDMODE
 70
     0
  9
$PDSIZE
 40
0.0
  9
$PLINEWID
 40
0.0
  9
$SPLFRAME
 70
     0
  9
$SPLINETYPE
 70
     6
  9
$SPLINESEGS
 70
     8
  9
$HANDSEED
  5
423
  9
$SURFTAB1
 70
     6
  9
$SURFTAB2
 70
     6
  9
$SURFTYPE
 70
     6
  9
$SURFU
 70
     6
  9
$SURFV
 70
     6
  9
$UCSBASE
  2

  9
$UCSNAME
  2

  9
$UCSORG
 10
0.0
 20
0.0
 30
0.0
  9
$UCSXDIR
 10
1.0
 20
0.0
 30
0.0
  9
$UCSYDIR
 10
0.0
 20
1.0
 30
0.0
  9
$UCSORTHOREF
  2

  9
$UCSORTHOVIEW
 70
     0
  9
$UCSORGTOP
 10
0.0
 20
0.0
 30
0.0
  9
$UCSORGBOTTOM
 10
0.0
 20
0.0
 30
0.0
  9
$UCSORGLEFT
 10
0.0
 20
0.0
 30
0.0
  9
$UCSORGRIGHT
 10
0.0
 20
0.0
 30
0.0
  9
$UCSORGFRONT
 10
0.0
 20
0.0
 30
0.0
  9
$UCSORGBACK
 10
0.0
 20
0.0
 30
0.0
  9
$PUCSBASE
  2

  9
$PUCSNAME
  2

  9
$PUCSORG
 10
0.0
 20
0.0
 30
0.0
  9
$PUCSXDIR
 10
1.0
 20
0.0
 30
0.0
  9
$PUCSYDIR
 10
0.0
 20
1.0
 30
0.0
  9
$PUCSORTHOREF
  2

  9
$PUCSORTHOVIEW
 70
     0
  9
$PUCSORGTOP
 10
0.0
 20
0.0
 30
0.0
  9
$PUCSORGBOTTOM
 10
0.0
 20
0.0
 30
0.0
  9
$PUCSORGLEFT
 10
0.0
 20
0.0
 30
0.0
  9
$PUCSORGRIGHT
 10
0.0
 20
0.0
 30
0.0
  9
$PUCSORGFRONT
 10
0.0
 20
0.0
 30
0.0
  9
$PUCSORGBACK
 10
0.0
 20
0.0
 30
0.0
  9
$USERI1
 70
     0
  9
$USERI2
 70
     0
  9
$USERI3
 70
     0
  9
$USERI4
 70
     0
  9
$USERI5
 70
     0
  9
$USERR1
 40
0.0
  9
$USERR2
 40
0.0
  9
$USERR3
 40
0.0
  9
$USERR4
 40
0.0
  9
$USERR5
 40
0.0
  9
$WORLDVIEW
 70
     1
  9
$SHADEDGE
 70
     3
  9
$SHADEDIF
 70
    70
  9
$TILEMODE
 70
     1
  9
$MAXACTVP
 70
    64
  9
$PINSBASE
 10
0.0
 20
0.0
 30
0.0
  9
$PLIMCHECK
 70
     0
  9
$PEXTMIN
 10
-9.375
 20
-25.0
 30
0.0
  9
$PEXTMAX
 10
742.5
 20
525.0
 30
0.0
  9
$PLIMMIN
 10
-7.5
 20
-20.0
  9
$PLIMMAX
 10
594.0
 20
420.0
  9
$UNITMODE
 70
     0
  9
$VISRETAIN
 70
     1
  9
$PLINEGEN
 70
     0
  9
$PSLTSCALE
 70
     0
  9
$TREEDEPTH
 70
  3020
  9
$CMLSTYLE
  2
Standard
  9
$CMLJUST
 70
     0
  9
$CMLSCALE
 40
1.0
  9
$PROXYGRAPHICS
 70
     1
  9
$MEASUREMENT
 70
     1
  9
$CELWEIGHT
370
    -1
  9
$ENDCAPS
280
     0
  9
$JOINSTYLE
280
     0
  9
$LWDISPLAY
290
     1
  9
$INSUNITS
 70
     0
  9
$HYPERLINKBASE
  1

  9
$STYLESHEET
  1

  9
$XEDIT
290
     1
  9
$CEPSNTYPE
380
     0
  9
$PSTYLEMODE
290
     1
  9
$FINGERPRINTGUID
  2
{018e3ba2-1191-4500-8fec-b8124a91f6a2}
  9
$VERSIONGUID
  2
{FAEB1C32-E019-11D5-929B-00C0DF256EC4}
  9
$EXTNAMES
290
     1
  9
$PSVPSCALE
 40
0.0
  9
$OLESTARTUP
290
     0
  0
ENDSEC
  0
SECTION
  2
CLASSES
  0
CLASS
  1
ACDBDICTIONARYWDFLT
  2
AcDbDictionaryWithDefault
  3
ObjectDBX Classes
 90
        0
280
     0
281
     0
  0
CLASS
  1
VISUALSTYLE
  2
AcDbVisualStyle
  3
ObjectDBX Classes
 90
     4095
280
     0
281
     0
  0
CLASS
  1
MATERIAL
  2
AcDbMaterial
  3
ObjectDBX Classes
 90
     1153
280
     0
281
     0
  0
CLASS
  1
SCALE
  2
AcDbScale
  3
ObjectDBX Classes
 90
     1153
280
     0
281
     0
  0
CLASS
  1
TABLESTYLE
  2
AcDbTableStyle
  3
ObjectDBX Classes
 90
     4095
280
     0
281
     0
  0
CLASS
  1
MLEADERSTYLE
  2
AcDbMLeaderStyle
  3
ACDB_MLEADERSTYLE_CLASS
 90
     4095
280
     0
281
     0
  0
CLASS
  1
SUN
  2
AcDbSun
  3
SCENEOE
 90
     1153
280
     0
281
     0
  0
CLASS
  1
RASTERVARIABLES
  2
AcDbRasterVariables
  3
ISM
 90
        0
280
     0
281
     0
  0
CLASS
  1
DICTIONARYVAR
  2
AcDbDictionaryVar
  3
ObjectDBX Classes
 90
        0
280
     0
281
     0
  0
CLASS
  1
ACDBPLACEHOLDER
  2
AcDbPlaceHolder
  3
ObjectDBX Classes
 90
        0
280
     0
281
     0
  0
CLASS
  1
LAYOUT
  2
AcDbLayout
  3
ObjectDBX Classes
 90
        0
280
     0
281
     0
  0
ENDSEC
  0
SECTION
  2
TABLES
  0
TABLE
  2
VPORT
  5
8
102
{ACAD_XDICTIONARY
360
3E6
102
}
330
0
100
AcDbSymbolTable
 70
     1
  0
VPORT
  5
29
330
8
100
AcDbSymbolTableRecord
100
AcDbViewportTableRecord
  2
*Active
 70
     0
 10
0.0
 20
0.0
 11
1.0
 21
1.0
 12
289.652387484519
 22
132.48540135
 13
0.0
 23
0.0
 14
0.5
 24
0.5
 15
0.5
 25
0.5
 16
0.0
 26
0.0
 36
1.0
 17
0.0
 27
0.0
 37
0.0
 40
208.545826405875
 41
2.610841096386901
 42
50.0
 43
0.0
 44
0.0
 50
0.0
 51
0.0
 71
     0
 72
 20000
 73
     1
 74
     3
 75
     0
 76
     0
 77
     0
 78
     0
281
     0
 65
     1
110
0.0
120
0.0
130
0.0
111
1.0
121
0.0
131
0.0
112
0.0
122
1.0
132
0.0
 79
     0
146
0.0
  0
ENDTAB
  0
TABLE
  2
LTYPE
  5
5
330
0
100
AcDbSymbolTable
 70
     7
  0
LTYPE
  5
14
330
5
100
AcDbSymbolTableRecord
100
AcDbLinetypeTableRecord
  2
ByBlock
 70
     0
  3

 72
    65
 73
     0
 40
0.0
  0
LTYPE
  5
15
330
5
100
AcDbSymbolTableRecord
100
AcDbLinetypeTableRecord
  2
ByLayer
 70
     0
  3

 72
    65
 73
     0
 40
0.0
  0
LTYPE
  5
16
330
5
100
AcDbSymbolTableRecord
100
AcDbLinetypeTableRecord
  2
Continuous
 70
     0
  3
Solid line
 72
    65
 73
     0
 40
0.0
  0
LTYPE
  5
70
330
5
100
AcDbSymbolTableRecord
100
AcDbLinetypeTableRecord
  2
ACAD_ISO02W100
 70
     0
  3
ISO dash __ __ __ __ __ __ __ __ __ __ __ __ __
 72
    65
 73
     2
 40
15.0
 49
12.0
 74
     0
 49
-3.0
 74
     0
  0
LTYPE
  5
71
330
5
100
AcDbSymbolTableRecord
100
AcDbLinetypeTableRecord
  2
CENTER
 70
     0
  3

 72
    65
 73
     4
 40
2.25
 49
1.25
 74
     0
 49
-0.25
 74
     0
 49
0.5
 74
     0
 49
-0.25
 74
     0
  0
LTYPE
  5
72
330
5
100
AcDbSymbolTableRecord
100
AcDbLinetypeTableRecord
  2
sekkei(A2)
 70
     0
  3

 72
    65
 73
     4
 40
14.2875
 49
9.525
 74
     0
 49
-1.5875
 74
     0
 49
1.5875
 74
     0
 49
-1.5875
 74
     0
  0
LTYPE
  5
73
330
5
100
AcDbSymbolTableRecord
100
AcDbLinetypeTableRecord
  2
Dashed
 70
     0
  3

 72
    65
 73
     2
 40
1.5
 49
0.5
 74
     0
 49
-1.0
 74
     0
  0
LTYPE
  5
74
330
5
100
AcDbSymbolTableRecord
100
AcDbLinetypeTableRecord
  2
HIDDEN2
 70
     0
  3

 72
    65
 73
     2
 40
4.762499999999999
 49
3.175
 74
     0
 49
-1.5875
 74
     0
  0
LTYPE
  5
75
330
5
100
AcDbSymbolTableRecord
100
AcDbLinetypeTableRecord
  2
sekkei_H
 70
     0
  3

 72
    65
 73
     2
 40
2.38125
 49
1.5875
 74
     0
 49
-0.79375
 74
     0
  0
ENDTAB
  0
TABLE
  2
LAYER
  5
2
330
0
100
AcDbSymbolTable
 70
    15
  0
LAYER
  5
10
330
2
100
AcDbSymbolTableRecord
100
AcDbLayerTableRecord
  2
0
 70
     0
 62
     7
  6
Continuous
370
    25
390
F
  0
LAYER
  5
76
330
2
100
AcDbSymbolTableRecord
100
AcDbLayerTableRecord
  2
新しいレイヤ 1
 70
     0
 62
     7
  6
Continuous
370
    13
390
F
  0
LAYER
  5
77
330
2
100
AcDbSymbolTableRecord
100
AcDbLayerTableRecord
  2
_2
 70
     0
 62
     7
  6
Continuous
370
    13
390
F
  0
LAYER
  5
78
330
2
100
AcDbSymbolTableRecord
100
AcDbLayerTableRecord
  2
新しいレイヤ 2
 70
     0
 62
     7
  6
Continuous
370
    13
390
F
  0
LAYER
  5
79
330
2
100
AcDbSymbolTableRecord
100
AcDbLayerTableRecord
  2
3
 70
     0
 62
     7
  6
Continuous
370
    13
390
F
  0
LAYER
  5
7A
330
2
100
AcDbSymbolTableRecord
100
AcDbLayerTableRecord
  2
CENTER
 70
     0
 62
     3
  6
sekkei(A2)
370
    25
390
F
  0
LAYER
  5
7B
330
2
100
AcDbSymbolTableRecord
100
AcDbLayerTableRecord
  2
1
 70
     0
 62
     2
  6
Continuous
370
    13
390
F
  0
LAYER
  5
7C
330
2
100
AcDbSymbolTableRecord
100
AcDbLayerTableRecord
  2
AM_9
 70
     0
 62
    -6
  6
Dashed
370
    25
390
F
  0
LAYER
  5
7D
330
2
100
AcDbSymbolTableRecord
100
AcDbLayerTableRecord
  2
AM_7
 70
     0
 62
    -7
  6
CENTER
370
    25
390
F
  0
LAYER
  5
7E
330
2
100
AcDbSymbolTableRecord
100
AcDbLayerTableRecord
  2
AM_0
 70
     0
 62
     7
  6
Continuous
370
    50
390
F
  0
LAYER
  5
7F
330
2
100
AcDbSymbolTableRecord
100
AcDbLayerTableRecord
  2
AM_4
 70
     0
 62
     3
  6
Continuous
370
    25
390
F
  0
LAYER
  5
80
330
2
100
AcDbSymbolTableRecord
100
AcDbLayerTableRecord
  2
2d ConnectionPoints
 70
     0
 62
     7
  6
Continuous
370
    50
390
F
  0
LAYER
  5
81
330
2
100
AcDbSymbolTableRecord
100
AcDbLayerTableRecord
  2
HIDS
 70
     0
 62
     1
  6
HIDDEN2
370
    25
390
F
  0
LAYER
  5
82
330
2
100
AcDbSymbolTableRecord
100
AcDbLayerTableRecord
  2
HOJO
 70
     0
 62
     4
  6
Continuous
370
    25
390
F
  0
LAYER
  5
83
330
2
100
AcDbSymbolTableRecord
100
AcDbLayerTableRecord
  2
rcviewportframe
 70
     0
 62
    -7
  6
Continuous
370
    25
390
F
  0
ENDTAB
  0
TABLE
  2
STYLE
  5
3
330
0
100
AcDbSymbolTable
 70
     4
  0
STYLE
  5
11
330
3
100
AcDbSymbolTableRecord
100
AcDbTextStyleTableRecord
  2
Standard
 70
     0
 40
0.0
 41
1.0
 50
0.0
 71
     0
 42
0.2
  3
txt.shx
  4
extfont
  0
STYLE
  5
84
330
3
100
AcDbSymbolTableRecord
100
AcDbTextStyleTableRecord
  2
MS PGothic
 70
     0
 40
0.0
 41
1.0
 50
0.0
 71
     0
 42
0.2
  3
MS PGothic.ttf
  4

1001
ACAD
1000
ＭＳ Ｐゴシック
1071
    32818
  0
STYLE
  5
85
330
3
100
AcDbSymbolTableRecord
100
AcDbTextStyleTableRecord
  2
VERTICAL
 70
     4
 40
0.0
 41
1.0
 50
0.0
 71
     0
 42
0.2
  3
txt.shx
  4
extfont
  0
STYLE
  5
86
330
3
100
AcDbSymbolTableRecord
100
AcDbTextStyleTableRecord
  2
VERTICAL MS PGothic
 70
     0
 40
0.0
 41
1.0
 50
0.0
 71
     0
 42
0.2
  3
MS PGothic.ttf
  4

1001
ACAD
1000
@ＭＳ Ｐゴシック
1071
    32818
  0
ENDTAB
  0
TABLE
  2
VIEW
  5
6
330
0
100
AcDbSymbolTable
 70
     0
  0
ENDTAB
  0
TABLE
  2
UCS
  5
7
330
0
100
AcDbSymbolTable
 70
     0
  0
ENDTAB
  0
TABLE
  2
APPID
  5
9
330
0
100
AcDbSymbolTable
 70
     3
  0
APPID
  5
12
330
9
100
AcDbSymbolTableRecord
100
AcDbRegAppTableRecord
  2
ACAD
 70
     0
  0
APPID
  5
6E
330
9
100
AcDbSymbolTableRecord
100
AcDbRegAppTableRecord
  2
RootPro CAD
 70
     0
  0
APPID
  5
420
330
9
100
AcDbSymbolTableRecord
100
AcDbRegAppTableRecord
  2
ACAD_MLEADERVER
 70
     0
  0
ENDTAB
  0
TABLE
  2
DIMSTYLE
  5
A
330
0
100
AcDbSymbolTable
 70
     1
100
AcDbDimStyleTable
  0
DIMSTYLE
105
27
330
A
100
AcDbSymbolTableRecord
100
AcDbDimStyleTableRecord
  2
Standard
 70
     0
178
     0
340
11
  0
ENDTAB
  0
TABLE
  2
BLOCK_RECORD
  5
1
330
0
100
AcDbSymbolTable
 70
     2
  0
BLOCK_RECORD
  5
1F
330
1
100
AcDbSymbolTableRecord
100
AcDbBlockTableRecord
  2
*Model_Space
340
22
  0
BLOCK_RECORD
  5
1B
330
1
100
AcDbSymbolTableRecord
100
AcDbBlockTableRecord
  2
*Paper_Space
340
1E
  0
BLOCK_RECORD
  5
87
330
1
100
AcDbSymbolTableRecord
100
AcDbBlockTableRecord
  2
1_MHMF_Connector_9_Pin_A6_0_in_MSMF022L1S2_0
340
0
102
{BLKREFS
331
202
102
}
  0
BLOCK_RECORD
  5
D8
330
1
100
AcDbSymbolTableRecord
100
AcDbBlockTableRecord
  2
4_Motor_Connector_2_0_in_MSMF022L1S2_0
340
0
102
{BLKREFS
331
20E
102
}
  0
ENDTAB
  0
ENDSEC
  0
SECTION
  2
BLOCKS
  0
BLOCK
  5
20
330
1F
100
AcDbEntity
  8
0
100
AcDbBlockBegin
  2
*Model_Space
 70
     0
 10
0.0
 20
0.0
 30
0.0
  3
*Model_Space
  1

  0
ENDBLK
  5
21
330
1F
100
AcDbEntity
  8
0
100
AcDbBlockEnd
  0
BLOCK
  5
1C
330
1B
100
AcDbEntity
 67
     1
  8
0
100
AcDbBlockBegin
  2
*Paper_Space
 70
     0
 10
0.0
 20
0.0
 30
0.0
  3
*Paper_Space
  1

  0
ENDBLK
  5
1D
330
1B
100
AcDbEntity
 67
     1
  8
0
100
AcDbBlockEnd
  0
BLOCK
  5
88
330
87
100
AcDbEntity
  8
0
100
AcDbBlockBegin
  2
1_MHMF_Connector_9_Pin_A6_0_in_MSMF022L1S2_0
 70
     2
 10
0.0
 20
0.0
 30
0.0
  3
1_MHMF_Connector_9_Pin_A6_0_in_MSMF022L1S2_0
  1

  0
LINE
  5
8A
330
87
100
AcDbEntity
  8
AM_9
100
AcDbLine
 10
-61.31004657516671
 20
96.49421303247588
 30
0.0
 11
-61.31004657516671
 21
98.11890286352275
 31
0.0
  0
LINE
  5
8B
330
87
100
AcDbEntity
  8
AM_9
100
AcDbLine
 10
-56.52504657516671
 20
108.2980634563184
 30
0.0
 11
-56.52504657516671
 21
98.99806345631839
 31
0.0
  0
LINE
  5
8C
330
87
100
AcDbEntity
  8
AM_9
100
AcDbLine
 10
-49.69504657516671
 20
108.2980634563184
 30
0.0
 11
-49.69504657516671
 21
98.99806345631839
 31
0.0
  0
LINE
  5
8D
330
87
100
AcDbEntity
  8
AM_9
100
AcDbLine
 10
-52.3850465751667
 20
108.2980634563184
 30
0.0
 11
-52.3850465751667
 21
98.99806345631839
 31
0.0
  0
LINE
  5
8E
330
87
100
AcDbEntity
  8
AM_9
100
AcDbLine
 10
-53.83504657516671
 20
108.2980634563184
 30
0.0
 11
-53.83504657516671
 21
98.99806345631839
 31
0.0
  0
LINE
  5
8F
330
87
100
AcDbEntity
  8
AM_9
100
AcDbLine
 10
-60.11004657516671
 20
84.5980634563184
 30
0.0
 11
-60.11004657516671
 21
85.5980634563184
 31
0.0
  0
LINE
  5
90
330
87
100
AcDbEntity
  8
AM_9
100
AcDbLine
 10
-54.41004657516671
 20
108.2980634563184
 30
0.0
 11
-54.41004657516671
 21
98.99806345631839
 31
0.0
  0
LINE
  5
91
330
87
100
AcDbEntity
  8
AM_9
100
AcDbLine
 10
-51.8100465751667
 20
98.99806345631839
 30
0.0
 11
-51.8100465751667
 21
108.2980634563184
 31
0.0
  0
LINE
  5
92
330
87
100
AcDbEntity
  8
AM_9
100
AcDbLine
 10
-50.2700465751667
 20
108.2980634563184
 30
0.0
 11
-50.2700465751667
 21
98.99806345631839
 31
0.0
  0
LINE
  5
93
330
87
100
AcDbEntity
  8
AM_9
100
AcDbLine
 10
-47.67004657516671
 20
98.99806345631839
 30
0.0
 11
-47.67004657516671
 21
108.2980634563184
 31
0.0
  0
LINE
  5
94
330
87
100
AcDbEntity
  8
AM_9
100
AcDbLine
 10
-58.55004657516671
 20
108.2980634563184
 30
0.0
 11
-58.55004657516671
 21
98.99806345631839
 31
0.0
  0
LINE
  5
95
330
87
100
AcDbEntity
  8
AM_9
100
AcDbLine
 10
-55.95004657516671
 20
98.99806345631839
 30
0.0
 11
-55.95004657516671
 21
108.2980634563184
 31
0.0
  0
LINE
  5
96
330
87
100
AcDbEntity
  8
AM_9
100
AcDbLine
 10
-47.13004657516671
 20
84.5980634563184
 30
0.0
 11
-47.13004657516671
 21
98.29806345631839
 31
0.0
  0
LINE
  5
97
330
87
100
AcDbEntity
  8
AM_9
100
AcDbLine
 10
-50.83004657516671
 20
84.5980634563184
 30
0.0
 11
-50.83004657516671
 21
98.29806345631839
 31
0.0
  0
LINE
  5
98
330
87
100
AcDbEntity
  8
AM_9
100
AcDbLine
 10
-47.13004657516671
 20
98.29806345631839
 30
0.0
 11
-50.83004657516671
 21
98.29806345631839
 31
0.0
  0
LINE
  5
99
330
87
100
AcDbEntity
  8
AM_9
100
AcDbLine
 10
-59.11004657516671
 20
84.5980634563184
 30
0.0
 11
-59.11004657516671
 21
98.29806345631839
 31
0.0
  0
LINE
  5
9A
330
87
100
AcDbEntity
  8
AM_9
100
AcDbLine
 10
-55.41004657516671
 20
84.5980634563184
 30
0.0
 11
-55.41004657516671
 21
98.29806345631839
 31
0.0
  0
LINE
  5
9B
330
87
100
AcDbEntity
  8
AM_9
100
AcDbLine
 10
-51.2700465751667
 20
98.29806345631839
 30
0.0
 11
-54.97004657516671
 21
98.29806345631839
 31
0.0
  0
LINE
  5
9C
330
87
100
AcDbEntity
  8
AM_9
100
AcDbLine
 10
-54.97004657516671
 20
84.5980634563184
 30
0.0
 11
-54.97004657516671
 21
98.29806345631839
 31
0.0
  0
LINE
  5
9D
330
87
100
AcDbEntity
  8
AM_9
100
AcDbLine
 10
-55.41004657516671
 20
98.29806345631839
 30
0.0
 11
-59.11004657516671
 21
98.29806345631839
 31
0.0
  0
LINE
  5
9E
330
87
100
AcDbEntity
  8
AM_9
100
AcDbLine
 10
-51.2700465751667
 20
84.5980634563184
 30
0.0
 11
-51.2700465751667
 21
98.29806345631839
 31
0.0
  0
LINE
  5
9F
330
87
100
AcDbEntity
  8
AM_7
100
AcDbLine
 10
-48.97004657516671
 20
98.53306345631839
 30
0.0
 11
-48.97004657516671
 21
108.7630634563184
 31
0.0
  0
LINE
  5
A0
330
87
100
AcDbEntity
  8
AM_7
100
AcDbLine
 10
-53.11004657516671
 20
98.53306345631839
 30
0.0
 11
-53.11004657516671
 21
108.7630634563184
 31
0.0
  0
LINE
  5
A1
330
87
100
AcDbEntity
  8
AM_7
100
AcDbLine
 10
-57.25004657516671
 20
98.53306345631839
 30
0.0
 11
-57.25004657516671
 21
108.7630634563184
 31
0.0
  0
LINE
  5
A2
330
87
100
AcDbEntity
  8
AM_0
100
AcDbLine
 10
-60.69464657516671
 20
102.7480634563184
 30
0.0
 11
-60.69464657516671
 21
101.9980634563184
 31
0.0
  0
LINE
  5
A3
330
87
100
AcDbEntity
  8
AM_0
100
AcDbLine
 10
-60.69464657516671
 20
101.9980634563184
 30
0.0
 11
-63.44464657516671
 21
101.9980634563184
 31
0.0
  0
LINE
  5
A4
330
87
100
AcDbEntity
  8
AM_0
100
AcDbLine
 10
-62.44464657516671
 20
103.9980634563184
 30
0.0
 11
-61.44464657516671
 21
103.9980634563184
 31
0.0
  0
LINE
  5
A5
330
87
100
AcDbEntity
  8
AM_0
100
AcDbLine
 10
-63.44464657516671
 20
103.4980634563184
 30
0.0
 11
-62.44464657516671
 21
103.9980634563184
 31
0.0
  0
LINE
  5
A6
330
87
100
AcDbEntity
  8
AM_0
100
AcDbLine
 10
-61.44464657516671
 20
103.9980634563184
 30
0.0
 11
-60.69464657516671
 21
102.7480634563184
 31
0.0
  0
LINE
  5
A7
330
87
100
AcDbEntity
  8
AM_0
100
AcDbLine
 10
-60.46090890054776
 20
98.99806345631839
 30
0.0
 11
-46.11004657516671
 21
98.99806345631839
 31
0.0
  0
LINE
  5
A8
330
87
100
AcDbEntity
  8
AM_0
100
AcDbLine
 10
-64.1100465751667
 20
90.99806345631839
 30
0.0
 11
-64.1100465751667
 21
91.99806345631839
 31
0.0
  0
LINE
  5
A9
330
87
100
AcDbEntity
  8
AM_0
100
AcDbLine
 10
-61.94766500422967
 20
95.97912935901182
 30
0.0
 11
-62.0224934168015
 21
95.74806345631839
 31
0.0
  0
LINE
  5
AA
330
87
100
AcDbEntity
  8
AM_0
100
AcDbLine
 10
-61.11004657516671
 20
96.49806345631839
 30
0.0
 11
-61.23414657516671
 21
96.49806345631839
 31
0.0
  0
ARC
  5
AB
330
87
100
AcDbEntity
  8
AM_0
100
AcDbCircle
 10
-61.91004657516676
 20
99.54806345631847
 30
0.0
 40
1.55000000000008
100
AcDbArc
 50
277.988118334429
 51
339.2164404041521
  0
LINE
  5
AC
330
87
100
AcDbEntity
  8
AM_0
100
AcDbLine
 10
-61.69464657516671
 20
101.9980634563184
 30
0.0
 11
-61.69464657516671
 21
98.01310324836511
 31
0.0
  0
LINE
  5
AD
330
87
100
AcDbEntity
  8
AM_0
100
AcDbLine
 10
-63.44464657516671
 20
93.41815242395063
 30
0.0
 11
-63.44464657516671
 21
103.4980634563184
 31
0.0
  0
LINE
  5
AE
330
87
100
AcDbEntity
  8
AM_0
100
AcDbLine
 10
-63.6950465751667
 20
91.99806345631839
 30
0.0
 11
-63.44464657516671
 21
93.41815242395063
 31
0.0
  0
LINE
  5
AF
330
87
100
AcDbEntity
  8
AM_0
100
AcDbLine
 10
-64.1100465751667
 20
91.99806345631839
 30
0.0
 11
-63.6950465751667
 21
91.99806345631839
 31
0.0
  0
LINE
  5
B0
330
87
100
AcDbEntity
  8
AM_0
100
AcDbLine
 10
-62.86004657516671
 20
90.99806345631839
 30
0.0
 11
-64.1100465751667
 21
90.99806345631839
 31
0.0
  0
LINE
  5
B1
330
87
100
AcDbEntity
  8
AM_0
100
AcDbLine
 10
-62.0224934168015
 20
95.74806345631839
 30
0.0
 11
-62.86004657516671
 21
90.99806345631839
 31
0.0
  0
ARC
  5
B2
330
87
100
AcDbEntity
  8
AM_0
100
AcDbCircle
 10
-61.2341465751667
 20
95.74806345631838
 30
0.0
 40
0.7500000000000142
100
AcDbArc
 50
90.00000000000054
 51
162.055965604244
  0
ARC
  5
B3
330
87
100
AcDbEntity
  8
AM_0
100
AcDbCircle
 10
-61.11004657516669
 20
95.7480634563184
 30
0.0
 40
0.7499999999999858
100
AcDbArc
 50
0.0
 51
90.0000000000011
  0
LINE
  5
B4
330
87
100
AcDbEntity
  8
AM_0
100
AcDbLine
 10
-60.11004657516671
 20
95.74806345631839
 30
0.0
 11
-60.36004657516671
 21
95.74806345631839
 31
0.0
  0
LINE
  5
B5
330
87
100
AcDbEntity
  8
AM_0
100
AcDbLine
 10
-61.69464657516671
 20
98.29806345631839
 30
0.0
 11
-63.44464657516671
 21
98.29806345631839
 31
0.0
  0
LINE
  5
B6
330
87
100
AcDbEntity
  8
AM_0
100
AcDbLine
 10
-51.38504657516671
 20
108.2980634563184
 30
0.0
 11
-54.83504657516671
 21
108.2980634563184
 31
0.0
  0
LINE
  5
B7
330
87
100
AcDbEntity
  8
AM_0
100
AcDbLine
 10
-54.83504657516671
 20
108.2980634563184
 30
0.0
 11
-54.83504657516671
 21
98.99806345631839
 31
0.0
  0
LINE
  5
B8
330
87
100
AcDbEntity
  8
AM_0
100
AcDbLine
 10
-51.38504657516671
 20
108.2980634563184
 30
0.0
 11
-51.38504657516671
 21
98.99806345631839
 31
0.0
  0
LINE
  5
B9
330
87
100
AcDbEntity
  8
AM_0
100
AcDbLine
 10
-47.2450465751667
 20
108.2980634563184
 30
0.0
 11
-47.2450465751667
 21
98.99806345631839
 31
0.0
  0
LINE
  5
BA
330
87
100
AcDbEntity
  8
AM_0
100
AcDbLine
 10
-47.2450465751667
 20
108.2980634563184
 30
0.0
 11
-50.69504657516671
 21
108.2980634563184
 31
0.0
  0
LINE
  5
BB
330
87
100
AcDbEntity
  8
AM_0
100
AcDbLine
 10
-50.69504657516671
 20
108.2980634563184
 30
0.0
 11
-50.69504657516671
 21
98.99806345631839
 31
0.0
  0
LINE
  5
BC
330
87
100
AcDbEntity
  8
AM_0
100
AcDbLine
 10
-55.52504657516671
 20
108.2980634563184
 30
0.0
 11
-55.52504657516671
 21
98.99806345631839
 31
0.0
  0
LINE
  5
BD
330
87
100
AcDbEntity
  8
AM_0
100
AcDbLine
 10
-55.52504657516671
 20
108.2980634563184
 30
0.0
 11
-58.97504657516671
 21
108.2980634563184
 31
0.0
  0
LINE
  5
BE
330
87
100
AcDbEntity
  8
AM_0
100
AcDbLine
 10
-58.97504657516671
 20
108.2980634563184
 30
0.0
 11
-58.97504657516671
 21
98.99806345631839
 31
0.0
  0
LINE
  5
BF
330
87
100
AcDbEntity
  8
AM_0
100
AcDbLine
 10
-46.61004657516671
 20
85.5980634563184
 30
0.0
 11
-45.61004657516671
 21
85.5980634563184
 31
0.0
  0
LWPOLYLINE
  5
C0
330
87
100
AcDbEntity
  8
AM_0
100
AcDbPolyline
 90
       19
 70
     0
 43
0.0
 10
-61.11004657516671
 20
85.0980634563184
 10
-61.10814392421258
 20
85.14164132769223
 10
-61.10245045167282
 20
85.18488754515187
 10
-61.09300948831124
 20
85.22747297886967
 10
-61.07989288555967
 20
85.26907352798123
 10
-61.06320046868503
 20
85.30937258718875
 10
-61.04305927705893
 20
85.3480634563184
 10
-61.0196225973112
 20
85.38485167449393
 10
-60.9930687967262
 20
85.41945726116167
 10
-60.96359996575998
 20
85.45161684691168
 10
-60.93144038000998
 20
85.48108567787789
 10
-60.89683479334223
 20
85.50763947846289
 10
-60.86004657516671
 20
85.53107615821062
 10
-60.82135570603705
 20
85.55121734983673
 10
-60.78105664682954
 20
85.56790976671135
 10
-60.73945609771797
 20
85.58102636946293
 10
-60.69687066400017
 20
85.5904673328245
 10
-60.65362444654054
 20
85.59616080536428
 10
-60.61004657516671
 20
85.5980634563184
  0
LINE
  5
C1
330
87
100
AcDbEntity
  8
AM_0
100
AcDbLine
 10
-61.11004657516671
 20
84.59806345631839
 30
0.0
 11
-61.11004657516671
 21
85.0980634563184
 31
0.0
  0
LINE
  5
C2
330
87
100
AcDbEntity
  8
AM_0
100
AcDbLine
 10
-60.61004657516671
 20
85.5980634563184
 30
0.0
 11
-59.61004657516671
 21
85.5980634563184
 31
0.0
  0
LINE
  5
C3
330
87
100
AcDbEntity
  8
AM_4
100
AcDbLine
 10
-60.61004657516671
 20
84.5980634563184
 30
0.0
 11
-60.61004657516671
 21
85.5980634563184
 31
0.0
  0
LINE
  5
C4
330
87
100
AcDbEntity
  8
AM_4
100
AcDbLine
 10
-59.61004657516671
 20
85.5980634563184
 30
0.0
 11
-59.61004657516671
 21
98.99806345631839
 31
0.0
  0
LINE
  5
C5
330
87
100
AcDbEntity
  8
AM_0
100
AcDbLine
 10
-60.11004657516671
 20
85.5980634563184
 30
0.0
 11
-60.11004657516671
 21
98.99806345631839
 31
0.0
  0
LINE
  5
C6
330
87
100
AcDbEntity
  8
AM_0
100
AcDbLine
 10
-46.11004657516671
 20
85.5980634563184
 30
0.0
 11
-46.11004657516671
 21
98.99806345631839
 31
0.0
  0
LINE
  5
C7
330
87
100
AcDbEntity
  8
AM_4
100
AcDbLine
 10
-46.61004657516671
 20
85.5980634563184
 30
0.0
 11
-46.61004657516671
 21
98.99806345631839
 31
0.0
  0
LINE
  5
C8
330
87
100
AcDbEntity
  8
AM_0
100
AcDbLine
 10
-45.11004657516671
 20
85.0980634563184
 30
0.0
 11
-45.11004657516671
 21
84.5980634563184
 31
0.0
  0
LWPOLYLINE
  5
C9
330
87
100
AcDbEntity
  8
AM_0
100
AcDbPolyline
 90
       19
 70
     0
 43
0.0
 10
-45.6100465343582
 20
85.5980634563184
 10
-45.56646866313965
 20
85.59616080180759
 10
-45.52322244614471
 20
85.59046732573817
 10
-45.48063701319745
 20
85.58102635890091
 10
-45.43903646515641
 20
85.56790975275402
 10
-45.39873740731128
 20
85.5512173325903
 10
-45.3600465398255
 20
85.53107613780637
 10
-45.3232583235628
 20
85.5076394550561
 10
-45.2886527390623
 20
85.48108565164668
 10
-45.25649315571746
 20
85.4516168180557
 10
-45.22702432737601
 20
85.41945722990053
 10
-45.20047052961542
 20
85.38485164106555
 10
-45.17703385287023
 20
85.3480634209772
 10
-45.15689266440196
 20
85.30937255020368
 10
-45.14020025081642
 20
85.26907348963378
 10
-45.12708365146015
 20
85.22747293945167
 10
-45.11764269157428
 20
85.18488750496334
 10
-45.11194922256414
 20
85.14164128703901
 10
-45.11004657516671
 20
85.0980634563184
  0
LINE
  5
CA
330
87
100
AcDbEntity
  8
AM_4
100
AcDbLine
 10
-45.61004657516671
 20
84.59806345631839
 30
0.0
 11
-45.61004657516671
 21
85.5980634563184
 31
0.0
  0
LINE
  5
CB
330
87
100
AcDbEntity
  8
AM_0
100
AcDbLine
 10
-58.8595465751667
 20
84.5980634563184
 30
0.0
 11
-58.8595465751667
 21
98.99806345631839
 31
0.0
  0
LINE
  5
CC
330
87
100
AcDbEntity
  8
AM_0
100
AcDbLine
 10
-45.11004657516671
 20
84.5980634563184
 30
0.0
 11
-61.11004657516671
 21
84.59806345631839
 31
0.0
  0
LINE
  5
CD
330
87
100
AcDbEntity
  8
AM_0
100
AcDbLine
 10
-58.3595465751667
 20
84.5980634563184
 30
0.0
 11
-58.3595465751667
 21
98.99806345631839
 31
0.0
  0
ATTDEF
  5
CE
330
87
100
AcDbEntity
  8
新しいレイヤ 1
100
AcDbText
 10
0.0
 20
0.0
 30
0.0
 40
0.2
  1
MHMF Connector 9 Pin_A6
100
AcDbAttributeDefinition
  3

  2
NB
 70
     1
  0
ATTDEF
  5
CF
330
87
100
AcDbEntity
  8
新しいレイヤ 1
100
AcDbText
 10
0.0
 20
0.0
 30
0.0
 40
0.2
  1
Brake Connector 9 Pin
100
AcDbAttributeDefinition
  3

  2
NN
 70
     1
  0
ATTDEF
  5
D0
330
87
100
AcDbEntity
  8
新しいレイヤ 1
100
AcDbText
 10
0.0
 20
0.0
 30
0.0
 40
0.2
  1

100
AcDbAttributeDefinition
  3

  2
NT
 70
     1
  0
ATTDEF
  5
D1
330
87
100
AcDbEntity
  8
新しいレイヤ 1
100
AcDbText
 10
0.0
 20
0.0
 30
0.0
 40
0.2
  1
$IDNR._A6
100
AcDbAttributeDefinition
  3

  2
NBSYN
 70
     1
  0
ATTDEF
  5
D2
330
87
100
AcDbEntity
  8
新しいレイヤ 1
100
AcDbText
 10
0.0
 20
0.0
 30
0.0
 40
0.2
  1
MHMF Connector 9 Pin_A6
100
AcDbAttributeDefinition
  3

  2
LINA
 70
     1
  0
ATTDEF
  5
D3
330
87
100
AcDbEntity
  8
新しいレイヤ 1
100
AcDbText
 10
0.0
 20
0.0
 30
0.0
 40
0.2
  1
Panasonic Industry Co., Ltd. , Motors for FA & Industrial Application
100
AcDbAttributeDefinition
  3

  2
CATALOG
 70
     1
  0
ATTDEF
  5
D4
330
87
100
AcDbEntity
  8
新しいレイヤ 1
100
AcDbText
 10
0.0
 20
0.0
 30
0.0
 40
0.2
  1
MHMF Connector 9 Pin
100
AcDbAttributeDefinition
  3

  2
IDNR
 70
     1
  0
ATTDEF
  5
D5
330
87
100
AcDbEntity
  8
新しいレイヤ 1
100
AcDbText
 10
0.0
 20
0.0
 30
0.0
 40
0.2
  1
matsushita
100
AcDbAttributeDefinition
  3

  2
COMPANY
 70
     1
  0
ATTDEF
  5
D6
330
87
100
AcDbEntity
  8
新しいレイヤ 1
100
AcDbText
 10
0.0
 20
0.0
 30
0.0
 40
0.2
  1
{$CADENAS_DATA/23d-libs/matsushita/ac_servo_motor/servo_motor_wtout_gear/parts/brake_connector.prj},201 {VTYP=3D},{NB=MHMF Connector 9 Pin_A6},{LINA=MHMF Connector 9 Pin_A6},{NN=Brake Connector 9 Pin},{DATE=07.04.2022 00:15:14},{GEOMDATE=24.09.2015 08:34:
100
AcDbAttributeDefinition
  3

  2
PSOL_0
 70
     1
  0
ATTDEF
  5
D7
330
87
100
AcDbEntity
  8
新しいレイヤ 1
100
AcDbText
 10
0.0
 20
0.0
 30
0.0
 40
0.2
  1
39},{VERSION=},{LINEID=10},{WBVAR=},{WBNUMERIC=}  {NB=MHMF Connector 9 Pin_A6},{LINA=MHMF Connector 9 Pin_A6},{KT=DUMMY},{IDNR=MHMF Connector 9 Pin}
100
AcDbAttributeDefinition
  3

  2
PSOL_1
 70
     1
  0
ENDBLK
  5
89
330
87
100
AcDbEntity
  8
0
100
AcDbBlockEnd
  0
BLOCK
  5
D9
330
D8
100
AcDbEntity
  8
0
100
AcDbBlockBegin
  2
4_Motor_Connector_2_0_in_MSMF022L1S2_0
 70
     2
 10
0.0
 20
0.0
 30
0.0
  3
4_Motor_Connector_2_0_in_MSMF022L1S2_0
  1

  0
LINE
  5
DB
330
D8
100
AcDbEntity
  8
AM_9
100
AcDbLine
 10
-16.2012
 20
103.9823
 30
0.0
 11
-17.2012
 21
103.9823
 31
0.0
  0
LINE
  5
DC
330
D8
100
AcDbEntity
  8
AM_9
100
AcDbLine
 10
-16.2012
 20
103.9823
 30
0.0
 11
-16.2012
 21
91.98230000000002
 31
0.0
  0
LINE
  5
DD
330
D8
100
AcDbEntity
  8
AM_9
100
AcDbLine
 10
-7.401200000000001
 20
103.9823
 30
0.0
 11
-8.401200000000001
 21
103.9823
 31
0.0
  0
LINE
  5
DE
330
D8
100
AcDbEntity
  8
AM_9
100
AcDbLine
 10
-8.401200000000001
 20
103.9823
 30
0.0
 11
-8.401200000000001
 21
91.98230000000002
 31
0.0
  0
LINE
  5
DF
330
D8
100
AcDbEntity
  8
AM_9
100
AcDbLine
 10
-7.401200000000001
 20
92.98230000000002
 30
0.0
 11
-7.401200000000001
 21
91.98230000000002
 31
0.0
  0
LINE
  5
E0
330
D8
100
AcDbEntity
  8
AM_9
100
AcDbLine
 10
-17.2012
 20
92.98230000000002
 30
0.0
 11
-17.2012
 21
91.98230000000002
 31
0.0
  0
LWPOLYLINE
  5
E1
330
D8
100
AcDbEntity
  8
AM_9
100
AcDbPolyline
 90
        4
 70
     0
 43
0.0
 10
-12.09929251967178
 20
106.5266047856978
 10
-12.12217490632562
 20
106.5139023951941
 10
-12.14607730486889
 20
106.5032426725258
 10
-12.16553821425881
 20
106.4963272030311
  0
LWPOLYLINE
  5
E2
330
D8
100
AcDbEntity
  8
AM_9
100
AcDbPolyline
 90
        8
 70
     0
 43
0.0
 10
-12.43686178574119
 20
106.4963272030311
 10
-12.46144096180035
 20
106.5053171111362
 10
-12.48514308455582
 20
106.5164150262724
 10
-12.50778776654169
 20
106.5295364866044
 10
-12.52920266805482
 20
106.5445816298962
 10
-12.54922480876401
 20
106.5614359535227
 10
-12.56770180808878
 20
106.5799711859042
 10
-12.57764359968325
 20
106.591423442598
  0
LINE
  5
E3
330
D8
100
AcDbEntity
  8
AM_9
100
AcDbLine
 10
-9.506611613907044
 20
106.7665901649208
 30
0.0
 11
-9.506200000000002
 21
106.7823000044704
 31
0.0
  0
LWPOLYLINE
  5
E4
330
D8
100
AcDbEntity
  8
AM_9
100
AcDbPolyline
 90
        4
 70
     0
 43
0.0
 10
-10.9562
 20
106.7823
 10
-10.95505840942753
 20
106.7561532771757
 10
-10.95164232590367
 20
106.7302055466999
 10
-10.95121046020527
 20
106.7278130440428
  0
LINE
  5
E5
330
D8
100
AcDbEntity
  8
AM_9
100
AcDbLine
 10
-11.9562
 20
106.7823
 30
0.0
 11
-8.488498334620743
 21
106.7823
 31
0.0
  0
LINE
  5
E6
330
D8
100
AcDbEntity
  8
AM_9
100
AcDbLine
 10
-16.11390166537926
 20
106.7823
 30
0.0
 11
-12.6462
 21
106.7823
 31
0.0
  0
LINE
  5
E7
330
D8
100
AcDbEntity
  8
AM_9
100
AcDbLine
 10
-9.506200000000002
 20
106.7823
 30
0.0
 11
-9.506200000000002
 21
115.6823
 31
0.0
  0
LINE
  5
E8
330
D8
100
AcDbEntity
  8
AM_9
100
AcDbLine
 10
-10.9562
 20
115.6823
 30
0.0
 11
-10.9562
 21
106.7823
 31
0.0
  0
LINE
  5
E9
330
D8
100
AcDbEntity
  8
AM_9
100
AcDbLine
 10
-18.536
 20
104.4823
 30
0.0
 11
-18.536
 21
105.4833943013025
 31
0.0
  0
LINE
  5
EA
330
D8
100
AcDbEntity
  8
AM_9
100
AcDbLine
 10
-18.6012
 20
103.7672200957007
 30
0.0
 11
-18.6012
 21
104.4823
 31
0.0
  0
LINE
  5
EB
330
D8
100
AcDbEntity
  8
AM_9
100
AcDbLine
 10
-18.536
 20
104.4823
 30
0.0
 11
-18.6012
 21
104.4823
 31
0.0
  0
LINE
  5
EC
330
D8
100
AcDbEntity
  8
AM_9
100
AcDbLine
 10
-11.96118953979473
 20
106.7278130440429
 30
0.0
 11
-10.95121046020527
 21
106.7278130440429
 31
0.0
  0
LWPOLYLINE
  5
ED
330
D8
100
AcDbEntity
  8
AM_9
100
AcDbPolyline
 90
       17
 70
     0
 43
0.0
 10
-10.95121046020527
 20
106.7278130440429
 10
-10.95364249649037
 20
106.7023085275828
 10
-10.95698601900475
 20
106.677412794528
 10
-10.9612155815232
 20
106.6533153164395
 10
-10.96629899452108
 20
106.630199489676
 10
-10.97219757015602
 20
106.6082412396368
 10
-10.97886641670578
 20
106.5876076818636
 10
-10.98625478022137
 20
106.5684558501898
 10
-10.9943064307952
 20
106.5509315016187
 10
-11.0029600905047
 20
106.5351680070244
 10
-11.01214989977425
 20
106.521285336119
 10
-11.02180591860635
 20
106.5093891444107
 10
-11.03185465886723
 20
106.4995699691015
 10
-11.0422196435759
 20
106.4919025400445
 10
-11.05282198894019
 20
106.4864452110046
 10
-11.06358100471
 20
106.4832395155509
 10
-11.07340779386422
 20
106.4823
  0
LINE
  5
EE
330
D8
100
AcDbEntity
  8
AM_9
100
AcDbLine
 10
-9.506611613907044
 20
106.7665901649208
 30
0.0
 11
-8.484098464434036
 21
106.7665901649208
 31
0.0
  0
LWPOLYLINE
  5
EF
330
D8
100
AcDbEntity
  8
AM_9
100
AcDbPolyline
 90
       19
 70
     0
 43
0.0
 10
-9.382518041257871
 20
106.4823
 10
-9.393348368463306
 20
106.4834415905725
 10
-9.404096270339176
 20
106.4868576740964
 10
-9.414679948862448
 20
106.4925222521133
 10
-9.425018855848956
 20
106.5003922137642
 10
-9.435034305973735
 20
106.510407663889
 10
-9.444650075613835
 20
106.5224923788647
 10
-9.453792982956141
 20
106.5365543867133
 10
-9.462393444955136
 20
106.5524866670643
 10
-9.470386006901906
 20
106.570167965644
 10
-9.477709840573999
 20
106.589463717094
 10
-9.484309207174915
 20
106.6102270690947
 10
-9.490133881540016
 20
106.6323
 10
-9.49513953438035
 20
106.6555145214778
 10
-9.499288069655304
 20
106.6796939570023
 10
-9.502547914506483
 20
106.7046542864692
 10
-9.504894259546221
 20
106.7302055466999
 10
-9.506309247672004
 20
106.7561532771757
 10
-9.506611613907044
 20
106.7665901649208
  0
LINE
  5
F0
330
D8
100
AcDbEntity
  8
AM_9
100
AcDbLine
 10
-19.6012
 20
99.03342002330282
 30
0.0
 11
-19.6012
 21
104.7826799886147
 31
0.0
  0
LINE
  5
F1
330
D8
100
AcDbEntity
  8
AM_9
100
AcDbLine
 10
-13.4612
 20
105.4823
 30
0.0
 11
-15.2812
 21
105.4823
 31
0.0
  0
LINE
  5
F2
330
D8
100
AcDbEntity
  8
AM_9
100
AcDbLine
 10
-15.2812
 20
105.4823
 30
0.0
 11
-15.2812
 21
102.2023
 31
0.0
  0
LINE
  5
F3
330
D8
100
AcDbEntity
  8
AM_9
100
AcDbLine
 10
-13.4612
 20
102.2023
 30
0.0
 11
-13.4612
 21
105.4823
 31
0.0
  0
LINE
  5
F4
330
D8
100
AcDbEntity
  8
AM_9
100
AcDbLine
 10
-9.321200000000001
 20
105.4823
 30
0.0
 11
-11.1412
 21
105.4823
 31
0.0
  0
LINE
  5
F5
330
D8
100
AcDbEntity
  8
AM_9
100
AcDbLine
 10
-11.1412
 20
105.4823
 30
0.0
 11
-11.1412
 21
102.2023
 31
0.0
  0
LINE
  5
F6
330
D8
100
AcDbEntity
  8
AM_9
100
AcDbLine
 10
-9.321200000000001
 20
102.2023
 30
0.0
 11
-9.321200000000001
 21
105.4823
 31
0.0
  0
LINE
  5
F7
330
D8
100
AcDbEntity
  8
AM_9
100
AcDbLine
 10
-11.5312
 20
115.3823
 30
0.0
 11
-11.5312
 21
106.4823
 31
0.0
  0
LINE
  5
F8
330
D8
100
AcDbEntity
  8
AM_9
100
AcDbLine
 10
-8.931200000000002
 20
106.4823
 30
0.0
 11
-8.931200000000002
 21
115.3823
 31
0.0
  0
LINE
  5
F9
330
D8
100
AcDbEntity
  8
AM_9
100
AcDbLine
 10
-15.6712
 20
115.3823
 30
0.0
 11
-15.6712
 21
106.4823
 31
0.0
  0
LINE
  5
FA
330
D8
100
AcDbEntity
  8
AM_9
100
AcDbLine
 10
-13.0712
 20
106.4823
 30
0.0
 11
-13.0712
 21
115.3823
 31
0.0
  0
LINE
  5
FB
330
D8
100
AcDbEntity
  8
AM_9
100
AcDbLine
 10
-8.381200000000002
 20
91.98230000000002
 30
0.0
 11
-8.381200000000002
 21
99.75230000000002
 31
0.0
  0
LINE
  5
FC
330
D8
100
AcDbEntity
  8
AM_9
100
AcDbLine
 10
-12.5212
 20
91.98230000000002
 30
0.0
 11
-12.5212
 21
99.75230000000002
 31
0.0
  0
LINE
  5
FD
330
D8
100
AcDbEntity
  8
AM_9
100
AcDbLine
 10
-16.2212
 20
91.98230000000002
 30
0.0
 11
-16.2212
 21
99.75230000000002
 31
0.0
  0
LINE
  5
FE
330
D8
100
AcDbEntity
  8
AM_9
100
AcDbLine
 10
-12.0812
 20
91.98230000000002
 30
0.0
 11
-12.0812
 21
99.75230000000002
 31
0.0
  0
LINE
  5
FF
330
D8
100
AcDbEntity
  8
AM_9
100
AcDbLine
 10
-13.0712
 20
115.3823
 30
0.0
 11
-15.6712
 21
115.3823
 31
0.0
  0
LINE
  5
100
330
D8
100
AcDbEntity
  8
AM_9
100
AcDbLine
 10
-13.0712
 20
115.3823
 30
0.0
 11
-12.7712
 21
115.6823
 31
0.0
  0
LINE
  5
101
330
D8
100
AcDbEntity
  8
AM_9
100
AcDbLine
 10
-15.9712
 20
115.6823
 30
0.0
 11
-15.6712
 21
115.3823
 31
0.0
  0
LINE
  5
102
330
D8
100
AcDbEntity
  8
AM_9
100
AcDbLine
 10
-8.931200000000002
 20
115.3823
 30
0.0
 11
-11.5312
 21
115.3823
 31
0.0
  0
LINE
  5
103
330
D8
100
AcDbEntity
  8
AM_9
100
AcDbLine
 10
-8.931200000000002
 20
115.3823
 30
0.0
 11
-8.631200000000002
 21
115.6823
 31
0.0
  0
LINE
  5
104
330
D8
100
AcDbEntity
  8
AM_9
100
AcDbLine
 10
-11.8312
 20
115.6823
 30
0.0
 11
-11.5312
 21
115.3823
 31
0.0
  0
LINE
  5
105
330
D8
100
AcDbEntity
  8
AM_9
100
AcDbLine
 10
-9.321200000000001
 20
102.2023
 30
0.0
 11
-11.1412
 21
102.2023
 31
0.0
  0
LINE
  5
106
330
D8
100
AcDbEntity
  8
AM_9
100
AcDbLine
 10
-11.1412
 20
102.2023
 30
0.0
 11
-12.0812
 21
99.75230000000002
 31
0.0
  0
LINE
  5
107
330
D8
100
AcDbEntity
  8
AM_9
100
AcDbLine
 10
-8.381200000000002
 20
99.75230000000002
 30
0.0
 11
-9.321200000000001
 21
102.2023
 31
0.0
  0
LINE
  5
108
330
D8
100
AcDbEntity
  8
AM_9
100
AcDbLine
 10
-13.4612
 20
102.2023
 30
0.0
 11
-15.2812
 21
102.2023
 31
0.0
  0
LINE
  5
109
330
D8
100
AcDbEntity
  8
AM_9
100
AcDbLine
 10
-15.2812
 20
102.2023
 30
0.0
 11
-16.2212
 21
99.75230000000002
 31
0.0
  0
LINE
  5
10A
330
D8
100
AcDbEntity
  8
AM_9
100
AcDbLine
 10
-12.5212
 20
99.75230000000002
 30
0.0
 11
-13.4612
 21
102.2023
 31
0.0
  0
LINE
  5
10B
330
D8
100
AcDbEntity
  8
AM_9
100
AcDbLine
 10
-11.5812
 20
91.98230000000002
 30
0.0
 11
-11.5812
 21
99.75230000000002
 31
0.0
  0
LINE
  5
10C
330
D8
100
AcDbEntity
  8
AM_9
100
AcDbLine
 10
-8.881200000000002
 20
91.98230000000002
 30
0.0
 11
-8.881200000000002
 21
99.75230000000002
 31
0.0
  0
LINE
  5
10D
330
D8
100
AcDbEntity
  8
AM_9
100
AcDbLine
 10
-8.381200000000002
 20
99.75230000000002
 30
0.0
 11
-12.0812
 21
99.75230000000002
 31
0.0
  0
LINE
  5
10E
330
D8
100
AcDbEntity
  8
AM_9
100
AcDbLine
 10
-15.7212
 20
91.98230000000002
 30
0.0
 11
-15.7212
 21
99.75230000000002
 31
0.0
  0
LINE
  5
10F
330
D8
100
AcDbEntity
  8
AM_9
100
AcDbLine
 10
-12.5212
 20
99.75230000000002
 30
0.0
 11
-16.2212
 21
99.75230000000002
 31
0.0
  0
LINE
  5
110
330
D8
100
AcDbEntity
  8
AM_9
100
AcDbLine
 10
-13.0212
 20
91.98230000000002
 30
0.0
 11
-13.0212
 21
99.75230000000002
 31
0.0
  0
LINE
  5
111
330
D8
100
AcDbEntity
  8
AM_7
100
AcDbLine
 10
-14.3712
 20
116.4788
 30
0.0
 11
-14.3712
 21
98.95580000000002
 31
0.0
  0
LINE
  5
112
330
D8
100
AcDbEntity
  8
AM_7
100
AcDbLine
 10
-10.2312
 20
116.4788
 30
0.0
 11
-10.2312
 21
98.95580000000002
 31
0.0
  0
LINE
  5
113
330
D8
100
AcDbEntity
  8
AM_0
100
AcDbLine
 10
-20.286
 20
100.9823
 30
0.0
 11
-20.286
 21
110.9823
 31
0.0
  0
LINE
  5
114
330
D8
100
AcDbEntity
  8
AM_0
100
AcDbLine
 10
-18.536
 20
105.4833943013025
 30
0.0
 11
-18.536
 21
109.4823
 31
0.0
  0
LINE
  5
115
330
D8
100
AcDbEntity
  8
AM_0
100
AcDbLine
 10
-20.27130952893731
 20
100.9823
 30
0.0
 11
-20.286
 21
100.9823
 31
0.0
  0
LINE
  5
116
330
D8
100
AcDbEntity
  8
AM_0
100
AcDbLine
 10
-20.286
 20
110.9823
 30
0.0
 11
-19.286
 21
111.4823
 31
0.0
  0
LINE
  5
117
330
D8
100
AcDbEntity
  8
AM_0
100
AcDbLine
 10
-17.536
 20
109.4823
 30
0.0
 11
-18.536
 21
109.4823
 31
0.0
  0
LINE
  5
118
330
D8
100
AcDbEntity
  8
AM_0
100
AcDbLine
 10
-17.536
 20
110.2323
 30
0.0
 11
-17.536
 21
109.4823
 31
0.0
  0
LINE
  5
119
330
D8
100
AcDbEntity
  8
AM_0
100
AcDbLine
 10
-18.286
 20
111.4823
 30
0.0
 11
-17.536
 21
110.2323
 31
0.0
  0
LINE
  5
11A
330
D8
100
AcDbEntity
  8
AM_0
100
AcDbLine
 10
-19.286
 20
111.4823
 30
0.0
 11
-18.286
 21
111.4823
 31
0.0
  0
LINE
  5
11B
330
D8
100
AcDbEntity
  8
AM_0
100
AcDbLine
 10
-18.536
 20
107.2823
 30
0.0
 11
-20.286
 21
107.2823
 31
0.0
  0
LWPOLYLINE
  5
11C
330
D8
100
AcDbEntity
  8
AM_0
100
AcDbPolyline
 90
        5
 70
     0
 43
0.0
 10
-8.206200000000003
 20
106.4963272030311
 10
-8.172160697499418
 20
106.4886445930634
 10
-8.137581341243624
 20
106.4839579384382
 10
-8.102725101013313
 20
106.482302907427
 10
-8.1012
 20
106.4823
  0
LINE
  5
11D
330
D8
100
AcDbEntity
  8
AM_0
100
AcDbLine
 10
-18.81340328934522
 20
103.366459359969
 30
0.0
 11
-19.7014
 21
98.48230000000002
 31
0.0
  0
LINE
  5
11E
330
D8
100
AcDbEntity
  8
AM_0
100
AcDbLine
 10
-17.9514
 20
103.9823
 30
0.0
 11
-18.0755
 21
103.9823
 31
0.0
  0
LINE
  5
11F
330
D8
100
AcDbEntity
  8
AM_0
100
AcDbLine
 10
-20.9512
 20
98.48230000000002
 30
0.0
 11
-20.9512
 21
99.48230000000001
 31
0.0
  0
ARC
  5
120
330
D8
100
AcDbEntity
  8
AM_0
100
AcDbCircle
 10
-17.95139999999999
 20
103.2323
 30
0.0
 40
0.7499999999999893
100
AcDbArc
 50
0.0
 51
90.00000000000082
  0
LINE
  5
121
330
D8
100
AcDbEntity
  8
AM_0
100
AcDbLine
 10
-19.7014
 20
98.48230000000002
 30
0.0
 11
-20.9512
 21
98.48230000000002
 31
0.0
  0
ARC
  5
122
330
D8
100
AcDbEntity
  8
AM_0
100
AcDbCircle
 10
-18.07549999884386
 20
103.2323
 30
0.0
 40
0.7500000000000284
100
AcDbArc
 50
90.00000008832274
 51
169.6955199216069
  0
ARC
  5
123
330
D8
100
AcDbEntity
  8
AM_0
100
AcDbCircle
 10
-18.65155536475893
 20
107.0290808664493
 30
0.0
 40
1.550000000000019
100
AcDbArc
 50
266.3066839691332
 51
339.34366450013
  0
LINE
  5
124
330
D8
100
AcDbEntity
  8
AM_0
100
AcDbLine
 10
-19.47783811574921
 20
105.4823
 30
0.0
 11
-18.75140000000001
 21
105.4823
 31
0.0
  0
LINE
  5
125
330
D8
100
AcDbEntity
  8
AM_0
100
AcDbLine
 10
-20.5358
 20
99.48230000000001
 30
0.0
 11
-19.47783811574921
 21
105.4823
 31
0.0
  0
LINE
  5
126
330
D8
100
AcDbEntity
  8
AM_0
100
AcDbLine
 10
-20.9512
 20
99.48230000000001
 30
0.0
 11
-20.5358
 21
99.48230000000001
 31
0.0
  0
LINE
  5
127
330
D8
100
AcDbEntity
  8
AM_0
100
AcDbLine
 10
-12.6462
 20
115.6823
 30
0.0
 11
-12.6462
 21
106.7823
 31
0.0
  0
LINE
  5
128
330
D8
100
AcDbEntity
  8
AM_0
100
AcDbLine
 10
-12.6462
 20
115.6823
 30
0.0
 11
-16.1012
 21
115.6823
 31
0.0
  0
LINE
  5
129
330
D8
100
AcDbEntity
  8
AM_0
100
AcDbLine
 10
-16.1012
 20
106.8823
 30
0.0
 11
-16.1012
 21
115.6823
 31
0.0
  0
LINE
  5
12A
330
D8
100
AcDbEntity
  8
AM_0
100
AcDbLine
 10
-11.9562
 20
106.7823
 30
0.0
 11
-11.9562
 21
115.6823
 31
0.0
  0
LINE
  5
12B
330
D8
100
AcDbEntity
  8
AM_0
100
AcDbLine
 10
-8.501200000000003
 20
115.6823
 30
0.0
 11
-8.5012
 21
106.8823
 31
0.0
  0
LINE
  5
12C
330
D8
100
AcDbEntity
  8
AM_0
100
AcDbLine
 10
-8.501200000000003
 20
115.6823
 30
0.0
 11
-11.9562
 21
115.6823
 31
0.0
  0
LINE
  5
12D
330
D8
100
AcDbEntity
  8
AM_0
100
AcDbLine
 10
-16.3962
 20
106.4963272030311
 30
0.0
 11
-16.3962
 21
106.4823
 31
0.0
  0
ARC
  5
12E
330
D8
100
AcDbEntity
  8
AM_0
100
AcDbCircle
 10
-12.34619999999995
 20
106.7823000000001
 30
0.0
 40
0.3000000000000974
100
AcDbArc
 50
252.409853973267
 51
269.9999999999902
  0
LINE
  5
12F
330
D8
100
AcDbEntity
  8
AM_0
100
AcDbLine
 10
-8.206200000000003
 20
106.4963272030311
 30
0.0
 11
-8.206200000000003
 21
106.4823
 31
0.0
  0
ARC
  5
130
330
D8
100
AcDbEntity
  8
AM_0
100
AcDbCircle
 10
-12.25620000000005
 20
106.7823000000001
 30
0.0
 40
0.3000000000001108
100
AcDbArc
 50
270.0000000000098
 51
287.5901460267325
  0
LINE
  5
131
330
D8
100
AcDbEntity
  8
AM_4
100
AcDbLine
 10
-16.1012
 20
106.8823
 30
0.0
 11
-12.6462
 21
106.8823
 31
0.0
  0
LWPOLYLINE
  5
132
330
D8
100
AcDbEntity
  8
AM_0
100
AcDbPolyline
 90
       16
 70
     0
 43
0.0
 10
-16.3962
 20
106.4963272030311
 10
-16.36295981090015
 20
106.5069472990404
 10
-16.33077171311106
 20
106.5204240557483
 10
-16.29988067749261
 20
106.5366549068985
 10
-16.27052180347836
 20
106.5555163259134
 10
-16.24291852982696
 20
106.5768647660056
 10
-16.21728093411818
 20
106.6005377526552
 10
-16.19380413393579
 20
106.6263551201398
 10
-16.17266680190484
 20
106.654120382704
 10
-16.15402980588516
 20
106.6836222299344
 10
-16.13803498466979
 20
106.7146361349598
 10
-16.12480406850612
 20
106.7469260632365
 10
-16.1144377526552
 20
106.7802462689129
 10
-16.10701493103999
 20
106.8143431651047
 10
-16.10259209581503
 20
106.8489572538434
 10
-16.1012
 20
106.8822999642372
  0
LINE
  5
133
330
D8
100
AcDbEntity
  8
AM_0
100
AcDbLine
 10
-12.43686178574119
 20
106.4963272030311
 30
0.0
 11
-16.3962
 21
106.4963272030311
 31
0.0
  0
LWPOLYLINE
  5
134
330
D8
100
AcDbEntity
  8
AM_0
100
AcDbPolyline
 90
        5
 70
     0
 43
0.0
 10
-12.6462
 20
106.7823
 10
-12.63237803003755
 20
106.6922881389825
 10
-12.59725155450421
 20
106.618065055542
 10
-12.51741725222866
 20
106.5359574487846
 10
-12.43686178574119
 20
106.4963272030311
  0
LWPOLYLINE
  5
135
330
D8
100
AcDbEntity
  8
AM_0
100
AcDbPolyline
 90
        5
 70
     0
 43
0.0
 10
-12.16553821425881
 20
106.4963272030311
 10
-12.0449999301154
 20
106.5692400777228
 10
-11.98718786551207
 20
106.6495126832177
 10
-11.96016534224029
 20
106.733684350204
 10
-11.9562
 20
106.7823
  0
LINE
  5
136
330
D8
100
AcDbEntity
  8
AM_0
100
AcDbLine
 10
-8.206200000000003
 20
106.4963272030311
 30
0.0
 11
-12.16553821425881
 21
106.4963272030311
 31
0.0
  0
LWPOLYLINE
  5
137
330
D8
100
AcDbEntity
  8
AM_0
100
AcDbPolyline
 90
       16
 70
     0
 43
0.0
 10
-8.5012
 20
106.8823000206477
 10
-8.499677881036261
 20
106.84743772347
 10
-8.495123104790313
 20
106.8128407492672
 10
-8.487570335859635
 20
106.7787724019031
 10
-8.477077055376277
 20
106.7454919620722
 10
-8.463723123540738
 20
106.7132527140169
 10
-8.447610171837605
 20
106.6823000178814
 10
-8.428860829558605
 20
106.6528694423732
 10
-8.407617790519648
 20
106.6251849719424
 10
-8.384042727074718
 20
106.5994573021255
 10
-8.35831505969164
 20
106.5758822360245
 10
-8.330630591453989
 20
106.5546391941274
 10
-8.301200017881394
 20
106.5358898488101
 10
-8.270247323409412
 20
106.5197768939114
 10
-8.238008076732717
 20
106.5064229587476
 10
-8.206200000000003
 20
106.4963272030311
  0
LINE
  5
138
330
D8
100
AcDbEntity
  8
AM_4
100
AcDbLine
 10
-11.9562
 20
106.8823
 30
0.0
 11
-8.5012
 21
106.8823
 31
0.0
  0
LINE
  5
139
330
D8
100
AcDbEntity
  8
AM_0
100
AcDbLine
 10
-6.401200000000001
 20
92.98230000000002
 30
0.0
 11
-6.401200000000001
 21
91.98230000000002
 31
0.0
  0
LINE
  5
13A
330
D8
100
AcDbEntity
  8
AM_0
100
AcDbLine
 10
-7.401200000000001
 20
106.4823
 30
0.0
 11
-17.2012
 21
106.4823
 31
0.0
  0
LINE
  5
13B
330
D8
100
AcDbEntity
  8
AM_0
100
AcDbLine
 10
-6.401200000000001
 20
92.98230000000002
 30
0.0
 11
-7.401200000000001
 21
92.98230000000002
 31
0.0
  0
LINE
  5
13C
330
D8
100
AcDbEntity
  8
AM_0
100
AcDbLine
 10
-17.2012
 20
92.98230000000002
 30
0.0
 11
-17.2012
 21
106.4823
 31
0.0
  0
LINE
  5
13D
330
D8
100
AcDbEntity
  8
AM_0
100
AcDbLine
 10
-7.401200000000001
 20
92.98230000000002
 30
0.0
 11
-7.401200000000001
 21
106.4823
 31
0.0
  0
LINE
  5
13E
330
D8
100
AcDbEntity
  8
AM_0
100
AcDbLine
 10
-17.2012
 20
92.98230000000002
 30
0.0
 11
-18.2012
 21
92.98230000000002
 31
0.0
  0
LINE
  5
13F
330
D8
100
AcDbEntity
  8
AM_0
100
AcDbLine
 10
-18.2012
 20
92.98230000000002
 30
0.0
 11
-18.2012
 21
91.98230000000002
 31
0.0
  0
LINE
  5
140
330
D8
100
AcDbEntity
  8
AM_0
100
AcDbLine
 10
-6.401200000000001
 20
91.98230000000002
 30
0.0
 11
-18.2012
 21
91.98230000000002
 31
0.0
  0
ATTDEF
  5
141
330
D8
100
AcDbEntity
  8
新しいレイヤ 1
100
AcDbText
 10
0.0
 20
0.0
 30
0.0
 40
0.2
  1
Motor Connector_2
100
AcDbAttributeDefinition
  3

  2
NB
 70
     1
  0
ATTDEF
  5
142
330
D8
100
AcDbEntity
  8
新しいレイヤ 1
100
AcDbText
 10
0.0
 20
0.0
 30
0.0
 40
0.2
  1

100
AcDbAttributeDefinition
  3

  2
NN
 70
     1
  0
ATTDEF
  5
143
330
D8
100
AcDbEntity
  8
新しいレイヤ 1
100
AcDbText
 10
0.0
 20
0.0
 30
0.0
 40
0.2
  1

100
AcDbAttributeDefinition
  3

  2
NT
 70
     1
  0
ATTDEF
  5
144
330
D8
100
AcDbEntity
  8
新しいレイヤ 1
100
AcDbText
 10
0.0
 20
0.0
 30
0.0
 40
0.2
  1
$IDNR._2
100
AcDbAttributeDefinition
  3

  2
NBSYN
 70
     1
  0
ATTDEF
  5
145
330
D8
100
AcDbEntity
  8
新しいレイヤ 1
100
AcDbText
 10
0.0
 20
0.0
 30
0.0
 40
0.2
  1
Motor Connector_2
100
AcDbAttributeDefinition
  3

  2
LINA
 70
     1
  0
ATTDEF
  5
146
330
D8
100
AcDbEntity
  8
新しいレイヤ 1
100
AcDbText
 10
0.0
 20
0.0
 30
0.0
 40
0.2
  1
Panasonic Industry Co., Ltd. , Motors for FA & Industrial Application
100
AcDbAttributeDefinition
  3

  2
CATALOG
 70
     1
  0
ATTDEF
  5
147
330
D8
100
AcDbEntity
  8
新しいレイヤ 1
100
AcDbText
 10
0.0
 20
0.0
 30
0.0
 40
0.2
  1
Motor Connector
100
AcDbAttributeDefinition
  3

  2
IDNR
 70
     1
  0
ATTDEF
  5
148
330
D8
100
AcDbEntity
  8
新しいレイヤ 1
100
AcDbText
 10
0.0
 20
0.0
 30
0.0
 40
0.2
  1
matsushita
100
AcDbAttributeDefinition
  3

  2
COMPANY
 70
     1
  0
ATTDEF
  5
149
330
D8
100
AcDbEntity
  8
新しいレイヤ 1
100
AcDbText
 10
0.0
 20
0.0
 30
0.0
 40
0.2
  1
{$CADENAS_DATA/23d-libs/matsushita/ac_servo_motor/servo_motor_wtout_gear/parts/motor_connector.prj},168 {VTYP=3D},{NB=Motor Connector_2},{LINA=Motor Connector_2},{NN=},{DATE=07.04.2022 00:15:14},{GEOMDATE=22.09.2015 07:50:00},{VERSION=},{LINEID=10},{WBVAR
100
AcDbAttributeDefinition
  3

  2
PSOL_0
 70
     1
  0
ATTDEF
  5
14A
330
D8
100
AcDbEntity
  8
新しいレイヤ 1
100
AcDbText
 10
0.0
 20
0.0
 30
0.0
 40
0.2
  1
=},{WBNUMERIC=}  {NB=Motor Connector_2},{LINA=Motor Connector_2},{KT=DUMMY},{IDNR=Motor Connector}
100
AcDbAttributeDefinition
  3

  2
PSOL_1
 70
     1
  0
ENDBLK
  5
DA
330
D8
100
AcDbEntity
  8
0
100
AcDbBlockEnd
  0
ENDSEC
  0
SECTION
  2
ENTITIES
  0
LINE
  5
14B
330
1F
100
AcDbEntity
  8
_2
100
AcDbLine
 10
450.4266268639366
 20
189.892002699998
 30
0.0
 11
450.4266268639366
 21
212.892002699998
 31
0.0
  0
LINE
  5
14C
330
1F
100
AcDbEntity
  8
_2
100
AcDbLine
 10
450.4266268639366
 20
212.892002699998
 30
0.0
 11
453.4266268639366
 21
215.892002699998
 31
0.0
  0
LINE
  5
14D
330
1F
100
AcDbEntity
  8
_2
100
AcDbLine
 10
453.4266268639366
 20
215.892002699998
 30
0.0
 11
477.4266268639366
 21
215.892002699998
 31
0.0
  0
LINE
  5
14E
330
1F
100
AcDbEntity
  8
_2
100
AcDbLine
 10
477.4266268639366
 20
215.892002699998
 30
0.0
 11
480.4266268639366
 21
212.892002699998
 31
0.0
  0
LINE
  5
14F
330
1F
100
AcDbEntity
  8
_2
100
AcDbLine
 10
480.4266268639366
 20
212.892002699998
 30
0.0
 11
480.4266268639366
 21
189.892002699998
 31
0.0
  0
LINE
  5
150
330
1F
100
AcDbEntity
  8
_2
100
AcDbLine
 10
424.2167452159493
 20
161.9377287614345
 30
0.0
 11
416.9355836824178
 21
167.2278022688219
 31
0.0
  0
ARC
  5
151
330
1F
100
AcDbEntity
  8
_2
100
AcDbCircle
 10
465.4266268639379
 20
131.8920027
 30
0.0
 40
60.0
100
AcDbArc
 50
104.4775121859311
 51
143.9188860412196
  0
LINE
  5
152
330
1F
100
AcDbEntity
  8
_2
100
AcDbLine
 10
506.5923797722989
 20
161.9981613305451
 30
0.0
 11
513.856924403188
 21
167.3110128535841
 31
0.0
  0
ARC
  5
153
330
1F
100
AcDbEntity
  8
_2
100
AcDbCircle
 10
465.4266268639379
 20
131.8920027
 30
0.0
 40
60.0
100
AcDbArc
 50
36.17949506062763
 51
75.52248781407128
  0
LWPOLYLINE
  5
154
330
1F
100
AcDbEntity
  8
_2
100
AcDbPolyline
 90
        2
 70
     0
 43
0.0
 10
470.7766268639367
 20
203.7420026999981
 10
470.7766268639367
 20
192.0420026999981
  0
ARC
  5
155
330
1F
100
AcDbEntity
  8
_2
100
AcDbCircle
 10
472.9266268639366
 20
203.7420026999981
 30
0.0
 40
2.150000000000006
100
AcDbArc
 50
0.0
 51
180.0000065301982
  0
ARC
  5
156
330
1F
100
AcDbEntity
  8
_2
100
AcDbCircle
 10
472.9266268639366
 20
192.0420026999981
 30
0.0
 40
2.15
100
AcDbArc
 50
179.9999949168946
 51
0.0
  0
LWPOLYLINE
  5
157
330
1F
100
AcDbEntity
  8
_2
100
AcDbPolyline
 90
        2
 70
     0
 43
0.0
 10
475.0766268639366
 20
192.0420026999981
 10
475.0766268639366
 20
203.7420026999981
  0
LWPOLYLINE
  5
158
330
1F
100
AcDbEntity
  8
_2
100
AcDbPolyline
 90
        2
 70
     0
 43
0.0
 10
455.7766268639367
 20
203.7420026999981
 10
455.7766268639367
 20
192.0420026999981
  0
ARC
  5
159
330
1F
100
AcDbEntity
  8
_2
100
AcDbCircle
 10
457.9266268639366
 20
203.7420026999981
 30
0.0
 40
2.150000000000006
100
AcDbArc
 50
0.0
 51
180.0000065301982
  0
ARC
  5
15A
330
1F
100
AcDbEntity
  8
_2
100
AcDbCircle
 10
457.9266268639366
 20
192.0420026999981
 30
0.0
 40
2.15
100
AcDbArc
 50
179.9999949168946
 51
0.0
  0
LWPOLYLINE
  5
15B
330
1F
100
AcDbEntity
  8
_2
100
AcDbPolyline
 90
        2
 70
     0
 43
0.0
 10
460.0766268639366
 20
192.0420026999981
 10
460.0766268639366
 20
203.7420026999981
  0
ARC
  5
15C
330
1F
100
AcDbEntity
  8
_2
100
AcDbCircle
 10
465.4266268639366
 20
131.892002699998
 30
0.0
 40
51.0
100
AcDbArc
 50
36.17949506062847
 51
40.2215755325086
  0
ARC
  5
15D
330
1F
100
AcDbEntity
  8
_2
100
AcDbCircle
 10
465.4266268639366
 20
131.892002699998
 30
0.0
 40
51.0
100
AcDbArc
 50
141.0026768046421
 51
143.9045718009537
  0
ARC
  5
15E
330
1F
100
AcDbEntity
  8
_2
100
AcDbCircle
 10
465.4266268639366
 20
131.892002699998
 30
0.0
 40
51.0
100
AcDbArc
 50
60.8495134738544
 51
117.7750304587932
  0
CIRCLE
  5
15F
330
1F
100
AcDbEntity
  8
新しいレイヤ 2
100
AcDbCircle
 10
459.1361111393605
 20
147.9030378694362
 30
0.0
 40
1.5
  0
CIRCLE
  5
160
330
1F
100
AcDbEntity
  8
新しいレイヤ 2
100
AcDbCircle
 10
451.4075407406352
 20
141.5572361397925
 30
0.0
 40
1.5
  0
LINE
  5
161
330
1F
100
AcDbEntity
  8
0
  6
Continuous
 62
     7
100
AcDbLine
 10
429.2356622754584
 20
178.9767618678069
 30
0.0
 11
427.0146316700831
 21
181.6817615073608
 31
0.0
  0
LINE
  5
162
330
1F
100
AcDbEntity
  8
0
  6
Continuous
 62
     7
100
AcDbLine
 10
423.716921101221
 20
182.467572110736
 30
0.0
 11
423.485061670688
 21
182.2771961551061
 31
0.0
  0
LINE
  5
163
330
1F
100
AcDbEntity
  8
0
  6
CENTER
 62
     2
100
AcDbLine
 10
426.9549470006222
 20
163.3170640592907
 30
0.0
 11
421.5713376115185
 21
169.8737776055965
 31
0.0
  0
LINE
  5
164
330
1F
100
AcDbEntity
  8
0
  6
Continuous
 62
     7
100
AcDbLine
 10
442.7746987188803
 20
177.9307858719156
 30
0.0
 11
435.9735606322874
 21
172.3464835227301
 31
0.0
  0
LINE
  5
165
330
1F
100
AcDbEntity
  8
0
  6
Continuous
 62
     7
100
AcDbLine
 10
431.0514883379759
 20
178.6562539725625
 30
0.0
 11
430.8969192485726
 21
178.5293398417101
 31
0.0
  0
ARC
  5
166
330
1F
100
AcDbEntity
  8
0
  6
Continuous
 62
     7
100
AcDbCircle
 10
438.7207942048278
 20
178.6132711765439
 30
0.0
 40
1.600000399999999
100
AcDbArc
 50
129.3889036317175
 51
309.3888716317175
  0
LINE
  5
167
330
1F
100
AcDbEntity
  8
0
  6
Continuous
 62
     7
100
AcDbLine
 10
437.7054621206037
 20
179.849847077482
 30
0.0
 11
438.5556095016057
 21
180.5478890752238
 31
0.0
  0
LINE
  5
168
330
1F
100
AcDbEntity
  8
0
  6
Continuous
 62
     7
100
AcDbLine
 10
427.0146530013909
 20
181.6817544380391
 30
0.0
 11
427.0561360046591
 21
182.103977791847
 31
0.0
  0
LINE
  5
169
330
1F
100
AcDbEntity
  8
0
  6
CENTER
 62
     2
100
AcDbLine
 10
441.4937134300217
 20
175.5512890551797
 30
0.0
 11
436.2071078698979
 21
181.9898613557993
 31
0.0
  0
LINE
  5
16A
330
1F
100
AcDbEntity
  8
0
  6
Continuous
 62
     7
100
AcDbLine
 10
442.6001081490649
 20
160.9667316709548
 30
0.0
 11
440.8998249799163
 21
159.5706571941737
 31
0.0
  0
LINE
  5
16B
330
1F
100
AcDbEntity
  8
0
  6
Continuous
 62
     7
100
AcDbLine
 10
442.3193686262602
 20
164.6179117980403
 30
0.0
 11
442.3331929449691
 21
164.758650166129
 31
0.0
  0
LINE
  5
16C
330
1F
100
AcDbEntity
  8
0
  6
Continuous
 62
     7
100
AcDbLine
 10
430.4169081650116
 20
179.429111012435
 30
0.0
 11
430.2623390756081
 21
179.3021968815827
 31
0.0
  0
ARC
  5
16D
330
1F
100
AcDbEntity
  8
0
  6
Continuous
 62
     7
100
AcDbCircle
 10
439.5709415858298
 20
179.3113131742856
 30
0.0
 40
1.600000399999999
100
AcDbArc
 50
309.3888716317175
 51
129.3888936317176
  0
LINE
  5
16E
330
1F
100
AcDbEntity
  8
0
  6
Continuous
 62
     7
100
AcDbLine
 10
439.7361167703493
 20
177.3767068684612
 30
0.0
 11
440.5862641513511
 21
178.0747488662029
 31
0.0
  0
LINE
  5
16F
330
1F
100
AcDbEntity
  8
0
  6
Continuous
 62
     7
100
AcDbLine
 10
430.0085231153449
 20
179.611301168288
 30
0.0
 11
429.4593710600089
 21
179.8073568240226
 31
0.0
  0
LINE
  5
170
330
1F
100
AcDbEntity
  8
0
  6
Continuous
 62
     7
100
AcDbLine
 10
440.8998249799163
 20
159.5706571941737
 30
0.0
 11
440.7729083107434
 21
159.7252293750053
 31
0.0
  0
LINE
  5
171
330
1F
100
AcDbEntity
  8
0
  6
Continuous
 62
     7
100
AcDbLine
 10
444.0961843079107
 20
162.4539165037899
 30
0.0
 11
439.1499066721541
 21
158.3926094887877
 31
0.0
  0
LINE
  5
172
330
1F
100
AcDbEntity
  8
0
  6
Continuous
 62
     7
100
AcDbLine
 10
425.6333515263339
 20
174.8544613466441
 30
0.0
 11
425.4787795000737
 21
174.727544804387
 31
0.0
  0
LINE
  5
173
330
1F
100
AcDbEntity
  8
0
  6
Continuous
 62
     7
100
AcDbLine
 10
437.2461705953223
 20
160.711175198406
 30
0.0
 11
427.0928878278923
 21
173.0768878363663
 31
0.0
  0
ARC
  5
174
330
1F
100
AcDbEntity
  8
0
  6
Continuous
 62
     7
100
AcDbCircle
 10
423.4955248171944
 20
166.1120535088789
 30
0.0
 40
1.600000399999999
100
AcDbArc
 50
129.3888536317175
 51
309.3888716317175
  0
LINE
  5
175
330
1F
100
AcDbEntity
  8
0
  6
Continuous
 62
     7
100
AcDbLine
 10
423.3303283665454
 20
168.0466617619403
 30
0.0
 11
422.4801927329704
 21
167.3486294098171
 31
0.0
  0
LINE
  5
176
330
1F
100
AcDbEntity
  8
0
  6
Continuous
 62
     7
100
AcDbLine
 10
442.6001081490649
 20
160.9667316709548
 30
0.0
 11
442.4731914798919
 21
161.1213038517863
 31
0.0
  0
LINE
  5
177
330
1F
100
AcDbEntity
  8
0
  6
Continuous
 62
     7
100
AcDbLine
 10
426.4583076549281
 20
173.8497448762388
 30
0.0
 11
426.3037356286679
 21
173.7228283339816
 31
0.0
  0
LINE
  5
178
330
1F
100
AcDbEntity
  8
0
  6
Continuous
 62
     7
100
AcDbLine
 10
437.3731013877512
 20
160.5565977932422
 30
0.0
 11
437.2323595376187
 21
160.5704257224043
 31
0.0
  0
ARC
  5
179
330
1F
100
AcDbEntity
  8
0
  6
Continuous
 62
     7
100
AcDbCircle
 10
424.3456604507693
 20
166.8100858610021
 30
0.0
 40
1.600000399999999
100
AcDbArc
 50
309.3888716317175
 51
129.3888336317175
  0
LINE
  5
17A
330
1F
100
AcDbEntity
  8
0
  6
Continuous
 62
     7
100
AcDbLine
 10
425.3609830162908
 20
165.5735215529193
 30
0.0
 11
424.5108473827159
 21
164.8754892007962
 31
0.0
  0
LINE
  5
17B
330
1F
100
AcDbEntity
  8
0
  6
Continuous
 62
     7
100
AcDbLine
 10
439.1499066721541
 20
158.3926094887877
 30
0.0
 11
437.3730847261748
 21
160.5566061090025
 31
0.0
  0
LINE
  5
17C
330
1F
100
AcDbEntity
  8
0
  6
Continuous
 62
     7
100
AcDbLine
 10
431.0514883379759
 20
178.6562539725625
 30
0.0
 11
430.4169081650116
 21
179.429111012435
 31
0.0
  0
LINE
  5
17D
330
1F
100
AcDbEntity
  8
0
  6
Continuous
 62
     7
100
AcDbLine
 10
437.2323582684584
 20
160.5704272681183
 30
0.0
 11
437.2461859877383
 21
160.7111684283597
 31
0.0
  0
LINE
  5
17E
330
1F
100
AcDbEntity
  8
0
  6
Continuous
 62
     7
100
AcDbLine
 10
427.0928878278923
 20
173.0768878363663
 30
0.0
 11
420.2917464721141
 21
167.4925828029064
 31
0.0
  0
ARC
  5
17F
330
1F
100
AcDbEntity
  8
0
  6
Continuous
 62
     7
100
AcDbCircle
 10
439.4748837232062
 20
181.9496401606816
 30
0.0
 40
1.0
100
AcDbArc
 50
39.38885363171749
 51
129.3888336317175
  0
LINE
  5
180
330
1F
100
AcDbEntity
  8
0
  6
Continuous
 62
     7
100
AcDbLine
 10
427.0928878278923
 20
173.0768878363663
 30
0.0
 11
425.062233178147
 21
175.5500280453871
 31
0.0
  0
LINE
  5
181
330
1F
100
AcDbEntity
  8
0
  6
Continuous
 62
     7
100
AcDbLine
 10
444.0961843079107
 20
162.4539165037899
 30
0.0
 11
442.3193623619312
 21
164.6179131240048
 31
0.0
  0
LINE
  5
182
330
1F
100
AcDbEntity
  8
0
  6
Continuous
 62
     7
100
AcDbLine
 10
427.3652448223652
 20
182.3578181748463
 30
0.0
 11
427.0561120535581
 21
182.1039943552028
 31
0.0
  0
LINE
  5
183
330
1F
100
AcDbEntity
  8
0
  6
Continuous
 62
     7
100
AcDbLine
 10
426.3037356286679
 20
173.7228283339816
 30
0.0
 11
425.4787795000737
 21
174.727544804387
 31
0.0
  0
LINE
  5
184
330
1F
100
AcDbEntity
  8
0
  6
Continuous
 62
     7
100
AcDbLine
 10
442.1924482310788
 20
164.7724822134083
 30
0.0
 11
432.0391654636489
 21
177.1381948513686
 31
0.0
  0
LINE
  5
185
330
1F
100
AcDbEntity
  8
0
  6
Continuous
 62
     7
100
AcDbLine
 10
431.0272829965309
 20
168.2851765077277
 30
0.0
 11
424.2261416407527
 21
162.700871474268
 31
0.0
  0
ARC
  5
186
330
1F
100
AcDbEntity
  8
0
  6
Continuous
 62
     7
100
AcDbCircle
 10
442.140118545916
 20
178.7036429117882
 30
0.0
 40
1.0
100
AcDbArc
 50
309.3888716317175
 51
39.38885363171749
  0
LINE
  5
187
330
1F
100
AcDbEntity
  8
0
  6
Continuous
 62
     7
100
AcDbLine
 10
432.0391654636489
 20
177.1381948513686
 30
0.0
 11
430.0085108139035
 21
179.6113350603895
 31
0.0
  0
ARC
  5
188
330
1F
100
AcDbEntity
  8
0
  6
Continuous
 62
     7
100
AcDbCircle
 10
420.9263266450785
 20
166.7197257630339
 30
0.0
 40
1.0
100
AcDbArc
 50
129.3888236317175
 51
219.3888736317176
  0
LINE
  5
189
330
1F
100
AcDbEntity
  8
0
  6
Continuous
 62
     7
100
AcDbLine
 10
430.0085108139035
 20
179.6113350603895
 30
0.0
 11
425.062233178147
 21
175.5500280453871
 31
0.0
  0
CIRCLE
  5
18A
330
1F
100
AcDbEntity
  8
新しいレイヤ 1
100
AcDbCircle
 10
439.2846787792066
 20
179.0573726766063
 30
0.0
 40
1.5
  0
LINE
  5
18B
330
1F
100
AcDbEntity
  8
0
  6
Continuous
 62
     7
100
AcDbLine
 10
427.4194466860437
 20
177.4854971921804
 30
0.0
 11
423.485061670688
 21
182.2771961551061
 31
0.0
  0
LINE
  5
18C
330
1F
100
AcDbEntity
  8
0
  6
Continuous
 62
     7
100
AcDbLine
 10
442.333197224085
 20
164.7586575613414
 30
0.0
 11
442.1924555448186
 21
164.7724843368983
 31
0.0
  0
LINE
  5
18D
330
1F
100
AcDbEntity
  8
0
  6
Continuous
 62
     7
100
AcDbLine
 10
422.8187044511015
 20
162.8391483602135
 30
0.0
 11
420.1534696283916
 21
166.0851456091069
 31
0.0
  0
ARC
  5
18E
330
1F
100
AcDbEntity
  8
0
  6
Continuous
 62
     7
100
AcDbCircle
 10
423.5915614677884
 20
163.4737285141405
 30
0.0
 40
1.0
100
AcDbArc
 50
219.3888936317175
 51
309.3888716317175
  0
LINE
  5
18F
330
1F
100
AcDbEntity
  8
0
  6
Continuous
 62
     7
100
AcDbLine
 10
429.4593612968884
 20
179.8073876246958
 30
0.0
 11
427.3652448223652
 21
182.3578181748463
 31
0.0
  0
CIRCLE
  5
190
330
1F
100
AcDbEntity
  8
新しいレイヤ 1
100
AcDbCircle
 10
423.8275379817563
 20
166.3657692173189
 30
0.0
 40
1.5
  0
LINE
  5
191
330
1F
100
AcDbEntity
  8
0
  6
Continuous
 62
     7
100
AcDbLine
 10
427.6513061165767
 20
177.6758731478101
 30
0.0
 11
423.716921101221
 21
182.467572110736
 31
0.0
  0
LINE
  5
192
330
1F
100
AcDbEntity
  8
0
  6
Continuous
 62
     7
100
AcDbLine
 10
442.9129755857885
 20
179.3382230847525
 30
0.0
 11
440.2477407630788
 21
182.5842203336459
 31
0.0
  0
LINE
  5
193
330
1F
100
AcDbEntity
  8
0
  6
Continuous
 62
     7
100
AcDbLine
 10
438.8403035502418
 20
182.7224972005541
 30
0.0
 11
432.0391654636489
 21
177.1381948513686
 31
0.0
  0
LINE
  5
194
330
1F
100
AcDbEntity
  8
0
  6
CENTER
 62
     2
100
AcDbLine
 10
435.8831884210331
 20
159.4626552081281
 30
0.0
 11
443.2428925486248
 21
165.505586924224
 31
0.0
  0
LINE
  5
195
330
1F
100
AcDbEntity
  8
0
  6
Continuous
 62
     7
100
AcDbLine
 10
505.2567484570536
 20
176.2544917902925
 30
0.0
 11
507.4767294966381
 21
178.9603528702235
 31
0.0
  0
LINE
  5
196
330
1F
100
AcDbEntity
  8
0
  6
Continuous
 62
     7
100
AcDbLine
 10
507.6044135307071
 20
182.3479907032579
 30
0.0
 11
507.3724802616891
 21
182.5382766952061
 31
0.0
  0
LINE
  5
197
330
1F
100
AcDbEntity
  8
0
  6
CENTER
 62
     2
100
AcDbLine
 10
489.4529237005708
 20
175.437839670167
 30
0.0
 11
494.8339890219649
 21
181.9966412824775
 31
0.0
  0
LINE
  5
198
330
1F
100
AcDbEntity
  8
0
  6
Continuous
 62
     7
100
AcDbLine
 10
506.8709161248641
 20
162.7713899090307
 30
0.0
 11
500.0676121322679
 21
168.3530533514418
 31
0.0
  0
LINE
  5
199
330
1F
100
AcDbEntity
  8
0
  6
Continuous
 62
     7
100
AcDbLine
 10
505.2964728222907
 20
174.4110245204344
 30
0.0
 11
505.1418545084613
 21
174.5378786769982
 31
0.0
  0
ARC
  5
19A
330
1F
100
AcDbEntity
  8
0
  6
Continuous
 62
     7
100
AcDbCircle
 10
506.7498031090506
 20
166.8805576638797
 30
0.0
 40
1.600000399999999
100
AcDbArc
 50
50.63342414034823
 51
230.6333921403482
  0
LINE
  5
19B
330
1F
100
AcDbEntity
  8
0
  6
Continuous
 62
     7
100
AcDbLine
 10
507.764655389971
 20
168.11752736761
 30
0.0
 11
508.6150735108541
 21
167.4198152352016
 31
0.0
  0
LINE
  5
19C
330
1F
100
AcDbEntity
  8
0
  6
Continuous
 62
     7
100
AcDbLine
 10
507.4767267225505
 20
178.9603305698998
 30
0.0
 11
507.8989340901684
 21
179.0019759632834
 31
0.0
  0
LINE
  5
19D
330
1F
100
AcDbEntity
  8
0
  6
CENTER
 62
     2
100
AcDbLine
 10
504.2873086094045
 20
163.5637917118991
 30
0.0
 11
509.5714159417545
 21
170.0044144549921
 31
0.0
  0
LINE
  5
19E
330
1F
100
AcDbEntity
  8
0
  6
Continuous
 62
     7
100
AcDbLine
 10
490.1984604837647
 20
159.6346974319503
 30
0.0
 11
488.497635838546
 21
161.0301121825625
 31
0.0
  0
LINE
  5
19F
330
1F
100
AcDbEntity
  8
0
  6
Continuous
 62
     7
100
AcDbLine
 10
493.7248090830375
 20
160.6220152918593
 30
0.0
 11
493.8655415221297
 21
160.6358998382017
 31
0.0
  0
LINE
  5
1A0
330
1F
100
AcDbEntity
  8
0
  6
Continuous
 62
     7
100
AcDbLine
 10
505.9307531193148
 20
175.1841276861289
 30
0.0
 11
505.7761348054854
 21
175.3109818426928
 31
0.0
  0
ARC
  5
1A1
330
1F
100
AcDbEntity
  8
0
  6
Continuous
 62
     7
100
AcDbCircle
 10
507.6002212299334
 20
166.1828455314713
 30
0.0
 40
1.600000399999999
100
AcDbArc
 50
230.6333921403482
 51
50.63341414034835
  0
LINE
  5
1A2
330
1F
100
AcDbEntity
  8
0
  6
Continuous
 62
     7
100
AcDbLine
 10
505.7349603423345
 20
165.6435995566969
 30
0.0
 11
506.5853784632176
 21
164.9458874242886
 31
0.0
  0
LINE
  5
1A3
330
1F
100
AcDbEntity
  8
0
  6
Continuous
 62
     7
100
AcDbLine
 10
506.0298122758451
 20
175.6201997962076
 30
0.0
 11
506.1150216924605
 21
176.1970404634156
 31
0.0
  0
LINE
  5
1A4
330
1F
100
AcDbEntity
  8
0
  6
Continuous
 62
     7
100
AcDbLine
 10
488.497635838546
 20
161.0301121825625
 30
0.0
 11
488.6244925322312
 21
161.1847335888046
 31
0.0
  0
LINE
  5
1A5
330
1F
100
AcDbEntity
  8
0
  6
Continuous
 62
     7
100
AcDbLine
 10
491.9488268674798
 20
158.4573359229642
 30
0.0
 11
487.0009740288249
 21
162.5167237348281
 31
0.0
  0
LINE
  5
1A6
330
1F
100
AcDbEntity
  8
0
  6
Continuous
 62
     7
100
AcDbLine
 10
500.5111418183185
 20
178.9838180717094
 30
0.0
 11
500.356520566697
 21
179.1106746385385
 31
0.0
  0
LINE
  5
1A7
330
1F
100
AcDbEntity
  8
0
  6
Continuous
 62
     7
100
AcDbLine
 10
488.9038104799355
 20
164.8360278201896
 30
0.0
 11
499.052295232322
 21
177.2056784713024
 31
0.0
  0
ARC
  5
1A8
330
1F
100
AcDbEntity
  8
0
  6
Continuous
 62
     7
100
AcDbCircle
 10
491.5196850472765
 20
179.3758677810701
 30
0.0
 40
1.600000399999999
100
AcDbArc
 50
50.63337414034822
 51
230.6333921403482
  0
LINE
  5
1A9
330
1F
100
AcDbEntity
  8
0
  6
Continuous
 62
     7
100
AcDbLine
 10
493.3849436979118
 20
179.9151349934527
 30
0.0
 11
492.5345373281969
 21
180.6128374848004
 31
0.0
  0
LINE
  5
1AA
330
1F
100
AcDbEntity
  8
0
  6
Continuous
 62
     7
100
AcDbLine
 10
490.1984604837647
 20
159.6346974319503
 30
0.0
 11
490.3253171774498
 21
159.7893188381923
 31
0.0
  0
LINE
  5
1AB
330
1F
100
AcDbEntity
  8
0
  6
Continuous
 62
     7
100
AcDbLine
 10
499.6865755293463
 20
177.978781636997
 30
0.0
 11
499.5319542777248
 21
178.1056382038261
 31
0.0
  0
LINE
  5
1AC
330
1F
100
AcDbEntity
  8
0
  6
Continuous
 62
     7
100
AcDbLine
 10
488.7769514161905
 20
164.681391543076
 30
0.0
 11
488.7630697320082
 21
164.8221281013963
 31
0.0
  0
ARC
  5
1AD
330
1F
100
AcDbEntity
  8
0
  6
Continuous
 62
     7
100
AcDbCircle
 10
492.3700914169914
 20
178.6781652897224
 30
0.0
 40
1.600000399999999
100
AcDbArc
 50
230.6333921403482
 51
50.63335414034821
  0
LINE
  5
1AE
330
1F
100
AcDbEntity
  8
0
  6
Continuous
 62
     7
100
AcDbLine
 10
491.3552486502753
 20
177.4412071825395
 30
0.0
 11
490.5048422805605
 21
178.1389096738873
 31
0.0
  0
LINE
  5
1AF
330
1F
100
AcDbEntity
  8
0
  6
Continuous
 62
     7
100
AcDbLine
 10
487.0009740288249
 20
162.5167237348281
 30
0.0
 11
488.7769563233715
 21
164.6814095063601
 31
0.0
  0
LINE
  5
1B0
330
1F
100
AcDbEntity
  8
0
  6
Continuous
 62
     7
100
AcDbLine
 10
505.2964728222907
 20
174.4110245204344
 30
0.0
 11
505.9307531193148
 21
175.1841276861289
 31
0.0
  0
LINE
  5
1B1
330
1F
100
AcDbEntity
  8
0
  6
Continuous
 62
     7
100
AcDbLine
 10
488.7630710005689
 20
164.8221296476026
 30
0.0
 11
488.9038068413151
 21
164.8360114031119
 31
0.0
  0
LINE
  5
1B2
330
1F
100
AcDbEntity
  8
0
  6
Continuous
 62
     7
100
AcDbLine
 10
499.052295232322
 20
177.2056784713024
 30
0.0
 11
492.2489879694995
 21
182.7873445967192
 31
0.0
  0
ARC
  5
1B3
330
1F
100
AcDbEntity
  8
0
  6
Continuous
 62
     7
100
AcDbCircle
 10
510.1691717665489
 20
166.7915240513329
 30
0.0
 40
1.0
100
AcDbArc
 50
320.6333741403482
 51
50.63335414034821
  0
LINE
  5
1B4
330
1F
100
AcDbEntity
  8
0
  6
Continuous
 62
     7
100
AcDbLine
 10
499.052295232322
 20
177.2056784713024
 30
0.0
 11
501.0819902799583
 21
179.6796062822155
 31
0.0
  0
LINE
  5
1B5
330
1F
100
AcDbEntity
  8
0
  6
Continuous
 62
     7
100
AcDbLine
 10
491.9488268674798
 20
158.4573359229642
 30
0.0
 11
493.7248091620265
 21
160.6220216944963
 31
0.0
  0
LINE
  5
1B6
330
1F
100
AcDbEntity
  8
0
  6
Continuous
 62
     7
100
AcDbLine
 10
508.2081768811281
 20
178.7482988112486
 30
0.0
 11
507.8989456651913
 21
179.0020026844144
 31
0.0
  0
LINE
  5
1B7
330
1F
100
AcDbEntity
  8
0
  6
Continuous
 62
     7
100
AcDbLine
 10
499.5319542777248
 20
178.1056382038261
 30
0.0
 11
500.356520566697
 21
179.1106746385385
 31
0.0
  0
LINE
  5
1B8
330
1F
100
AcDbEntity
  8
0
  6
Continuous
 62
     7
100
AcDbLine
 10
493.8516633185904
 20
160.7766400083257
 30
0.0
 11
504.0001480709769
 21
173.1462906594385
 31
0.0
  0
LINE
  5
1B9
330
1F
100
AcDbEntity
  8
0
  6
Continuous
 62
     7
100
AcDbLine
 10
495.1197592936131
 20
172.4124411633056
 30
0.0
 11
488.3164520307906
 21
177.9941072887223
 31
0.0
  0
ARC
  5
1BA
330
1F
100
AcDbEntity
  8
0
  6
Continuous
 62
     7
100
AcDbCircle
 10
507.5051964218883
 20
163.5444930747253
 30
0.0
 40
1.0
100
AcDbArc
 50
230.6333921403482
 51
320.6333741403482
  0
LINE
  5
1BB
330
1F
100
AcDbEntity
  8
0
  6
Continuous
 62
     7
100
AcDbLine
 10
504.0001480709769
 20
173.1462906594385
 30
0.0
 11
506.0298431186132
 21
175.6202184703516
 31
0.0
  0
ARC
  5
1BC
330
1F
100
AcDbEntity
  8
0
  6
Continuous
 62
     7
100
AcDbCircle
 10
491.6147076724753
 20
182.0142414310246
 30
0.0
 40
1.0
100
AcDbArc
 50
50.6333441403483
 51
140.6333941403483
  0
LINE
  5
1BD
330
1F
100
AcDbEntity
  8
0
  6
Continuous
 62
     7
100
AcDbLine
 10
506.0298431186132
 20
175.6202184703516
 30
0.0
 11
501.0819902799583
 21
179.6796062822155
 31
0.0
  0
CIRCLE
  5
1BE
330
1F
100
AcDbEntity
  8
新しいレイヤ 1
100
AcDbCircle
 10
507.2953351388402
 20
166.4140957039584
 30
0.0
 40
1.5
  0
LINE
  5
1BF
330
1F
100
AcDbEntity
  8
0
  6
Continuous
 62
     7
100
AcDbLine
 10
503.439954471465
 20
177.7450517568599
 30
0.0
 11
507.3724802616891
 21
182.5382766952061
 31
0.0
  0
LINE
  5
1C0
330
1F
100
AcDbEntity
  8
0
  6
Continuous
 62
     7
100
AcDbLine
 10
493.865549609796
 20
160.6358970832689
 30
0.0
 11
493.8516668274715
 21
160.7766332490541
 31
0.0
  0
LINE
  5
1C1
330
1F
100
AcDbEntity
  8
0
  6
Continuous
 62
     7
100
AcDbLine
 10
488.1776291853133
 20
179.4014907324127
 30
0.0
 11
490.8416045299739
 21
182.6485217090203
 31
0.0
  0
ARC
  5
1C2
330
1F
100
AcDbEntity
  8
0
  6
Continuous
 62
     7
100
AcDbCircle
 10
488.9507323278147
 20
178.7672104544169
 30
0.0
 40
1.0
100
AcDbArc
 50
140.6334141403482
 51
230.6333921403482
  0
LINE
  5
1C3
330
1F
100
AcDbEntity
  8
0
  6
Continuous
 62
     7
100
AcDbLine
 10
506.1150499981074
 20
176.197056045147
 30
0.0
 11
508.2081768811281
 21
178.7482988112486
 31
0.0
  0
CIRCLE
  5
1C4
330
1F
100
AcDbEntity
  8
新しいレイヤ 1
100
AcDbCircle
 10
491.8332718249492
 20
179.0997016444416
 30
0.0
 40
1.5
  0
LINE
  5
1C5
330
1F
100
AcDbEntity
  8
0
  6
Continuous
 62
     7
100
AcDbLine
 10
503.6718877404826
 20
177.5547657649118
 30
0.0
 11
507.6044135307071
 21
182.3479907032579
 31
0.0
  0
LINE
  5
1C6
330
1F
100
AcDbEntity
  8
0
  6
Continuous
 62
     7
100
AcDbLine
 10
508.2782995875828
 20
162.9102127777011
 30
0.0
 11
510.9422749322435
 21
166.1572437543088
 31
0.0
  0
LINE
  5
1C7
330
1F
100
AcDbEntity
  8
0
  6
Continuous
 62
     7
100
AcDbLine
 10
510.803452063573
 20
167.5646272170274
 30
0.0
 11
504.0001480709769
 21
173.1462906594385
 31
0.0
  0
LINE
  5
1C8
330
1F
100
AcDbEntity
  8
0
  6
CENTER
 62
     2
100
AcDbLine
 10
487.4134803768634
 20
165.9293890402035
 30
0.0
 11
494.7755282926785
 21
159.8893129598604
 31
0.0
  0
ARC
  5
1C9
330
1F
100
AcDbEntity
  8
新しいレイヤ 1
  6
ACAD_ISO02W100
370
    13
100
AcDbCircle
 10
429.011438422432
 20
175.8597655366768
 30
0.0
 40
3.25
100
AcDbArc
 50
127.6030860437469
 51
132.894456029591
  0
ARC
  5
1CA
330
1F
100
AcDbEntity
  8
新しいレイヤ 1
  6
ACAD_ISO02W100
370
    13
100
AcDbCircle
 10
429.011438422432
 20
175.8597655366768
 30
0.0
 40
3.25
100
AcDbArc
 50
83.6114314631633
 51
87.9415143300057
  0
ARC
  5
1CB
330
1F
100
AcDbEntity
  8
新しいレイヤ 1
  6
ACAD_ISO02W100
370
    13
100
AcDbCircle
 10
429.011438422432
 20
175.8597655366768
 30
0.0
 40
3.25
100
AcDbArc
 50
25.22977971612877
 51
28.30865272194222
  0
ARC
  5
1CC
330
1F
100
AcDbEntity
  8
新しいレイヤ 1
  6
ACAD_ISO02W100
370
    13
100
AcDbCircle
 10
429.011438422432
 20
175.8597655366768
 30
0.0
 40
3.25
100
AcDbArc
 50
213.1467466687308
 51
220.99422919312
  0
ARC
  5
1CD
330
1F
100
AcDbEntity
  8
新しいレイヤ 1
  6
ACAD_ISO02W100
370
    13
100
AcDbCircle
 10
501.9940071881462
 20
175.9002661517353
 30
0.0
 40
3.25
100
AcDbArc
 50
123.2902405502215
 51
138.105396484696
  0
ARC
  5
1CE
330
1F
100
AcDbEntity
  8
新しいレイヤ 1
  6
ACAD_ISO02W100
370
    13
100
AcDbCircle
 10
501.9940071881462
 20
175.9002661517353
 30
0.0
 40
3.25
100
AcDbArc
 50
151.7135750501235
 51
157.9765077304757
  0
ARC
  5
1CF
330
1F
100
AcDbEntity
  8
0
  6
Continuous
100
AcDbCircle
 10
482.3349433744759
 20
142.7978310453864
 30
0.0
 40
38.5
100
AcDbArc
 50
54.35648643621891
 51
54.45643412994121
  0
ARC
  5
1D0
330
1F
100
AcDbEntity
  8
0
  6
Continuous
100
AcDbCircle
 10
482.3349433744759
 20
142.7978310453864
 30
0.0
 40
38.5
100
AcDbArc
 50
63.9992421556413
 51
64.13262202351837
  0
ARC
  5
1D1
330
1F
100
AcDbEntity
  8
0
  6
Continuous
100
AcDbCircle
 10
483.5273737013827
 20
142.8444950826511
 30
0.0
 40
45.0
100
AcDbArc
 50
58.86418595950012
 51
59.25032831866942
  0
ARC
  5
1D2
330
1F
100
AcDbEntity
  8
0
  6
Continuous
100
AcDbCircle
 10
447.4910657195189
 20
142.8110966245535
 30
0.0
 40
45.0
100
AcDbArc
 50
120.7088680998601
 51
121.0950735810067
  0
ARC
  5
1D3
330
1F
100
AcDbEntity
  8
0
  6
Continuous
100
AcDbCircle
 10
448.6833427735378
 20
142.7649596118653
 30
0.0
 40
38.5
100
AcDbArc
 50
125.5657936421244
 51
125.8908754253587
  0
ARC
  5
1D4
330
1F
100
AcDbEntity
  8
0
  6
Continuous
100
AcDbCircle
 10
448.6833427735378
 20
142.7649596118653
 30
0.0
 40
38.5
100
AcDbArc
 50
115.8896057485473
 51
115.9479883399097
  0
CIRCLE
  5
1D5
330
1F
100
AcDbEntity
  8
3
100
AcDbCircle
 10
465.4266268639379
 20
131.8920027
 30
0.0
 40
25.0
  0
LWPOLYLINE
  5
1D6
330
1F
100
AcDbEntity
  8
新しいレイヤ 1
100
AcDbPolyline
 90
        5
 70
     0
 43
0.0
 10
440.9197528874652
 20
159.8458010358525
 10
442.6900972668304
 20
157.689693462873
 10
438.2461692875635
 20
154.0408574683279
 10
437.7072628603249
 20
150.3636193929946
 10
443.4651624021645
 20
143.3510567801388
  0
LWPOLYLINE
  5
1D7
330
1F
100
AcDbEntity
  8
新しいレイヤ 1
100
AcDbPolyline
 90
        5
 70
     0
 43
0.0
 10
459.0782231317401
 20
155.8527649002189
 10
453.1644036577753
 20
163.055222852282
 10
449.4525963657144
 20
163.242269976311
 10
445.0086683864481
 20
159.5934339817662
 10
443.2383240070828
 20
161.7495415547456
  0
LWPOLYLINE
  5
1D8
330
1F
100
AcDbEntity
  8
新しいレイヤ 1
100
AcDbPolyline
 90
        6
 70
     0
 43
0.0
 10
491.5256233295049
 20
168.0316683333355
 10
489.6399727827972
 20
169.5787205792993
 10
483.2971698125555
 20
161.8476889223537
 10
481.5576876897427
 20
163.2748195906581
 10
477.8459532415224
 20
163.0863324932382
 10
472.0344785660143
 20
156.0029192293104
  0
LWPOLYLINE
  5
1D9
330
1F
100
AcDbEntity
  8
新しいレイヤ 1
100
AcDbPolyline
 90
        6
 70
     0
 43
0.0
 10
487.4965418799055
 20
143.3173132888272
 10
493.3080165554134
 20
150.400726552755
 10
492.7676835923135
 20
154.077755283808
 10
491.0282014695007
 20
155.5048859521121
 10
497.3710044397425
 20
163.2359176090578
 10
496.4734761681596
 20
163.9722805214716
  0
LINE
  5
1DA
330
1F
100
AcDbEntity
  8
0
  6
CENTER
 62
     2
100
AcDbLine
 10
427.5353760148818
 20
177.5806848527052
 30
0.0
 11
422.9756674475447
 21
183.1339671898629
 31
0.0
  0
LINE
  5
1DB
330
1F
100
AcDbEntity
  8
0
  6
CENTER
 62
     2
100
AcDbLine
 10
503.5559207194223
 20
177.649909078026
 30
0.0
 11
508.113474559978
 21
183.2049599261887
 31
0.0
  0
LINE
  5
1DC
330
1F
100
AcDbEntity
  8
0
  6
CENTER
 62
     2
100
AcDbLine
 10
488.0907412158655
 20
158.7999159624764
 30
0.0
 11
491.3143090840151
 21
162.7290156608116
 31
0.0
  0
LINE
  5
1DD
330
1F
100
AcDbEntity
  8
CENTER
100
AcDbLine
 10
320.3444658724379
 20
131.8920027
 30
0.0
 11
217.3444658724379
 21
131.8920027
 31
0.0
  0
LINE
  5
1DE
330
1F
100
AcDbEntity
  8
0
100
AcDbLine
 10
270.3444658724379
 20
143.8920027
 30
0.0
 11
270.3444658724379
 21
119.8920027
 31
0.0
  0
LINE
  5
1DF
330
1F
100
AcDbEntity
  8
0
100
AcDbLine
 10
160.8987320141379
 20
159.6419867
 30
0.0
 11
160.8987320141379
 21
168.1420027
 31
0.0
  0
LINE
  5
1E0
330
1F
100
AcDbEntity
  8
0
100
AcDbLine
 10
159.8987320141379
 20
167.1420027
 30
0.0
 11
160.8987320141379
 21
168.1420027
 31
0.0
  0
LINE
  5
1E1
330
1F
100
AcDbEntity
  8
0
100
AcDbLine
 10
159.8987320141379
 20
160.6420027
 30
0.0
 11
160.8987320141379
 21
159.6419867
 31
0.0
  0
LINE
  5
1E2
330
1F
100
AcDbEntity
  8
0
100
AcDbLine
 10
160.8987320141379
 20
159.6419867
 30
0.0
 11
164.6988110141378
 21
159.6419867
 31
0.0
  0
LINE
  5
1E3
330
1F
100
AcDbEntity
  8
CENTER
100
AcDbLine
 10
170.2686748724379
 20
163.8919947000001
 30
0.0
 11
162.2193738724379
 21
163.8919947000001
 31
0.0
  0
LINE
  5
1E4
330
1F
100
AcDbEntity
  8
0
100
AcDbLine
 10
159.8987320141379
 20
160.6420027
 30
0.0
 11
159.8987320141379
 21
167.1420027
 31
0.0
  0
LINE
  5
1E5
330
1F
100
AcDbEntity
  8
0
100
AcDbLine
 10
160.8987320141379
 20
168.1420027
 30
0.0
 11
164.6987500141379
 21
168.1420027
 31
0.0
  0
LWPOLYLINE
  5
1E6
330
1F
100
AcDbEntity
  8
0
100
AcDbPolyline
 90
        5
 70
     1
 43
0.0
 10
279.8444658724379
 20
106.8920027
 10
287.3444658724379
 20
106.8920027
 10
287.3444658724379
 20
156.8920027
 10
279.8444658724379
 20
156.8920027
 10
279.8444658724379
 20
106.8920027
  0
LWPOLYLINE
  5
1E7
330
1F
100
AcDbEntity
  8
0
100
AcDbPolyline
 90
        5
 70
     1
 43
0.0
 10
261.1243256229874
 20
161.8726751765348
 10
264.3243256229875
 20
161.8726751765348
 10
264.3243256229875
 20
215.8726751765348
 10
261.1243256229874
 20
215.8726751765348
 10
261.1243256229874
 20
161.8726751765348
  0
LWPOLYLINE
  5
1E8
330
1F
100
AcDbEntity
  8
0
100
AcDbPolyline
 90
        5
 70
     1
 43
0.0
 10
270.3444658724379
 20
106.8920027
 10
279.8444658724379
 20
106.8920027
 10
279.8444658724379
 20
156.8920027
 10
270.3444658724379
 20
156.8920027
 10
270.3444658724379
 20
106.8920027
  0
LWPOLYLINE
  5
1E9
330
1F
100
AcDbEntity
  8
1
 62
     7
100
AcDbPolyline
 90
        3
 70
     0
 43
0.0
 10
274.124414791738
 20
157.2509821105958
 10
278.324414791738
 20
157.2509821105958
 10
278.324414791738
 20
166.2509821105957
  0
LWPOLYLINE
  5
1EA
330
1F
100
AcDbEntity
  8
1
 62
     7
100
AcDbPolyline
 90
        2
 70
     0
 43
0.0
 10
274.124414791738
 20
166.2509821105958
 10
274.124414791738
 20
157.2509821105958
  0
LWPOLYLINE
  5
1EB
330
1F
100
AcDbEntity
  8
1
 62
     7
100
AcDbPolyline
 90
        2
 70
     0
 43
0.0
 10
273.824414791738
 20
166.2509821106001
 10
274.124414791738
 20
166.2509821106001
  0
LWPOLYLINE
  5
1EC
330
1F
100
AcDbEntity
  8
1
 62
     7
100
AcDbPolyline
 90
        2
 70
     0
 43
0.0
 10
278.324414791738
 20
166.2509821106
 10
283.324414791738
 20
166.2509821106
  0
LWPOLYLINE
  5
1ED
330
1F
100
AcDbEntity
  8
1
 62
     7
100
AcDbPolyline
 90
        4
 70
     0
 43
0.0
 10
287.5244147917379
 20
166.2509821106001
 10
287.5244147917379
 20
179.4509821106
 10
273.824414791738
 20
179.4509821106
 10
273.824414791738
 20
166.2509821106001
  0
LWPOLYLINE
  5
1EE
330
1F
100
AcDbEntity
  8
1
 62
     7
100
AcDbPolyline
 90
        3
 70
     0
 43
0.0
 10
283.324414791738
 20
157.2509821106001
 10
287.5244147917379
 20
157.2509821106001
 10
287.5244147917379
 20
166.2509821106
  0
LWPOLYLINE
  5
1EF
330
1F
100
AcDbEntity
  8
1
 62
     7
100
AcDbPolyline
 90
        2
 70
     0
 43
0.0
 10
283.324414791738
 20
166.2509821106001
 10
283.324414791738
 20
157.2509821106001
  0
LWPOLYLINE
  5
1F0
330
1F
100
AcDbEntity
  8
0
100
AcDbPolyline
 90
        3
 70
     0
 43
0.0
 10
264.6244147917266
 20
157.2509821105958
 10
268.8244147917267
 20
157.2509821105958
 10
268.8244147917267
 20
166.2509821105957
  0
LWPOLYLINE
  5
1F1
330
1F
100
AcDbEntity
  8
0
100
AcDbPolyline
 90
        2
 70
     0
 43
0.0
 10
264.6244147917266
 20
166.2509821105958
 10
264.6244147917266
 20
157.2509821105958
  0
LWPOLYLINE
  5
1F2
330
1F
100
AcDbEntity
  8
0
100
AcDbPolyline
 90
        2
 70
     0
 43
0.0
 10
264.3244147917267
 20
166.2509821106001
 10
264.6244147917266
 20
166.2509821106001
  0
LWPOLYLINE
  5
1F3
330
1F
100
AcDbEntity
  8
0
 62
     7
100
AcDbPolyline
 90
        2
 70
     0
 43
0.0
 10
268.8244147917267
 20
166.2509821106
 10
273.8244147917267
 20
166.2509821106
  0
LWPOLYLINE
  5
1F4
330
1F
100
AcDbEntity
  8
0
 62
     7
100
AcDbPolyline
 90
        2
 70
     0
 43
0.0
 10
273.8244147917267
 20
166.2509821106001
 10
273.8244147917267
 20
157.2509821106001
  0
LWPOLYLINE
  5
1F5
330
1F
100
AcDbEntity
  8
0
100
AcDbPolyline
 90
        3
 70
     0
 43
0.0
 10
164.6244147917266
 20
157.8729821106011
 10
167.8244147917265
 20
157.8729821106011
 10
167.8244147917265
 20
182.8729821106011
  0
LWPOLYLINE
  5
1F6
330
1F
100
AcDbEntity
  8
0
100
AcDbPolyline
 90
        2
 70
     0
 43
0.0
 10
164.6244147917266
 20
182.8729821106011
 10
164.6244147917266
 20
157.8729821106011
  0
LWPOLYLINE
  5
1F7
330
1F
100
AcDbEntity
  8
0
100
AcDbPolyline
 90
        3
 70
     0
 43
0.0
 10
167.8244147917265
 20
182.8729821106011
 10
261.1244147917266
 20
182.8729821106011
 10
261.1244147917266
 20
186.0729821106011
  0
LWPOLYLINE
  5
1F8
330
1F
100
AcDbEntity
  8
0
100
AcDbPolyline
 90
        3
 70
     0
 43
0.0
 10
257.9244147917265
 20
186.0729821106011
 10
164.6244147917266
 20
186.0729821106011
 10
164.6244147917266
 20
182.8729821106011
  0
LWPOLYLINE
  5
1F9
330
1F
100
AcDbEntity
  8
0
100
AcDbPolyline
 90
        5
 70
     0
 43
0.0
 10
257.9244147917265
 20
182.8729821106011
 10
261.1244147917266
 20
182.8729821106011
 10
261.1244147917266
 20
212.8729821106011
 10
257.9244147917265
 20
212.8729821106011
 10
257.9244147917265
 20
186.0729821106011
  0
LWPOLYLINE
  5
1FA
330
1F
100
AcDbEntity
  8
0
100
AcDbPolyline
 90
        3
 70
     0
 43
0.0
 10
273.824414791738
 20
179.4509821106
 10
264.3244147917267
 20
179.4509821106
 10
264.3244147917267
 20
166.2509821106001
  0
LWPOLYLINE
  5
1FB
330
1F
100
AcDbEntity
  8
0
 62
     7
100
AcDbPolyline
 90
        2
 70
     0
 43
0.0
 10
273.8244147917267
 20
157.2509821106001
 10
274.124414791738
 20
157.2509821106001
  0
LINE
  5
1FC
330
1F
100
AcDbEntity
  8
CENTER
100
AcDbLine
 10
265.1733256229872
 20
197.8726751765348
 30
0.0
 11
257.1243256229872
 21
197.8726751765348
 31
0.0
  0
LWPOLYLINE
  5
1FD
330
1F
100
AcDbEntity
  8
0
100
AcDbPolyline
 90
        3
 70
     0
 43
0.0
 10
279.8444658724379
 20
156.8920027
 10
282.144465872438
 20
156.8920027
 10
282.144465872438
 20
166.2509821106
  0
LWPOLYLINE
  5
1FE
330
1F
100
AcDbEntity
  8
0
100
AcDbPolyline
 90
        2
 70
     0
 43
0.0
 10
279.8444658724379
 20
166.2509821106
 10
279.8444658724379
 20
156.8920027
  0
LWPOLYLINE
  5
1FF
330
1F
100
AcDbEntity
  8
0
100
AcDbPolyline
 90
        3
 70
     0
 43
0.0
 10
270.3444658724379
 20
156.8920027
 10
272.6444658724379
 20
156.8920027
 10
272.6444658724379
 20
166.2509821106
  0
LWPOLYLINE
  5
200
330
1F
100
AcDbEntity
  8
0
100
AcDbPolyline
 90
        2
 70
     0
 43
0.0
 10
270.3444658724379
 20
166.2509821106
 10
270.3444658724379
 20
156.8920027
  0
LWPOLYLINE
  5
201
330
1F
100
AcDbEntity
  8
3
100
AcDbPolyline
 90
        5
 70
     1
 43
0.0
 10
264.3244147917267
 20
170.1509821106001
 10
273.8244147917267
 20
170.1509821106001
 10
273.8244147917267
 20
176.1509821106001
 10
264.3244147917267
 20
176.1509821106001
 10
264.3244147917267
 20
170.1509821106001
  0
INSERT
  5
202
330
1F
100
AcDbEntity
  8
0
100
AcDbBlockReference
 66
     1
  2
1_MHMF_Connector_9_Pin_A6_0_in_MSMF022L1S2_0
 10
116.3445568724379
 20
112.8920027
 30
0.0
  0
ATTRIB
  5
203
330
202
100
AcDbEntity
  8
新しいレイヤ 1
100
AcDbText
 10
116.3445568724379
 20
112.8920027
 30
0.0
 40
0.2
  1
MHMF Connector 9 Pin_A6
100
AcDbAttribute
  2
NB
 70
     1
  0
ATTRIB
  5
204
330
202
100
AcDbEntity
  8
新しいレイヤ 1
100
AcDbText
 10
116.3445568724379
 20
112.8920027
 30
0.0
 40
0.2
  1
Brake Connector 9 Pin
100
AcDbAttribute
  2
NN
 70
     1
  0
ATTRIB
  5
205
330
202
100
AcDbEntity
  8
新しいレイヤ 1
100
AcDbText
 10
116.3445568724379
 20
112.8920027
 30
0.0
 40
0.2
  1

100
AcDbAttribute
  2
NT
 70
     1
  0
ATTRIB
  5
206
330
202
100
AcDbEntity
  8
新しいレイヤ 1
100
AcDbText
 10
116.3445568724379
 20
112.8920027
 30
0.0
 40
0.2
  1
$IDNR._A6
100
AcDbAttribute
  2
NBSYN
 70
     1
  0
ATTRIB
  5
207
330
202
100
AcDbEntity
  8
新しいレイヤ 1
100
AcDbText
 10
116.3445568724379
 20
112.8920027
 30
0.0
 40
0.2
  1
MHMF Connector 9 Pin_A6
100
AcDbAttribute
  2
LINA
 70
     1
  0
ATTRIB
  5
208
330
202
100
AcDbEntity
  8
新しいレイヤ 1
100
AcDbText
 10
116.3445568724379
 20
112.8920027
 30
0.0
 40
0.2
  1
Panasonic Industry Co., Ltd. , Motors for FA & Industrial Application
100
AcDbAttribute
  2
CATALOG
 70
     1
  0
ATTRIB
  5
209
330
202
100
AcDbEntity
  8
新しいレイヤ 1
100
AcDbText
 10
116.3445568724379
 20
112.8920027
 30
0.0
 40
0.2
  1
MHMF Connector 9 Pin
100
AcDbAttribute
  2
IDNR
 70
     1
  0
ATTRIB
  5
20A
330
202
100
AcDbEntity
  8
新しいレイヤ 1
100
AcDbText
 10
116.3445568724379
 20
112.8920027
 30
0.0
 40
0.2
  1
matsushita
100
AcDbAttribute
  2
COMPANY
 70
     1
  0
ATTRIB
  5
20B
330
202
100
AcDbEntity
  8
新しいレイヤ 1
100
AcDbText
 10
116.3445568724379
 20
112.8920027
 30
0.0
 40
0.2
  1
{$CADENAS_DATA/23d-libs/matsushita/ac_servo_motor/servo_motor_wtout_gear/parts/brake_connector.prj},201 {VTYP=3D},{NB=MHMF Connector 9 Pin_A6},{LINA=MHMF Connector 9 Pin_A6},{NN=Brake Connector 9 Pin},{DATE=07.04.2022 00:15:14},{GEOMDATE=24.09.2015 08:34:
100
AcDbAttribute
  2
PSOL_0
 70
     1
  0
ATTRIB
  5
20C
330
202
100
AcDbEntity
  8
新しいレイヤ 1
100
AcDbText
 10
116.3445568724379
 20
112.8920027
 30
0.0
 40
0.2
  1
39},{VERSION=},{LINEID=10},{WBVAR=},{WBNUMERIC=}  {NB=MHMF Connector 9 Pin_A6},{LINA=MHMF Connector 9 Pin_A6},{KT=DUMMY},{IDNR=MHMF Connector 9 Pin}
100
AcDbAttribute
  2
PSOL_1
 70
     1
  0
SEQEND
  5
20D
330
202
100
AcDbEntity
  8
0
  0
INSERT
  5
20E
330
1F
100
AcDbEntity
  8
0
100
AcDbBlockReference
 66
     1
  2
4_Motor_Connector_2_0_in_MSMF022L1S2_0
 10
116.3445568724379
 20
112.8920027
 30
0.0
  0
ATTRIB
  5
20F
330
20E
100
AcDbEntity
  8
新しいレイヤ 1
100
AcDbText
 10
116.3445568724379
 20
112.8920027
 30
0.0
 40
0.2
  1
Motor Connector_2
100
AcDbAttribute
  2
NB
 70
     1
  0
ATTRIB
  5
210
330
20E
100
AcDbEntity
  8
新しいレイヤ 1
100
AcDbText
 10
116.3445568724379
 20
112.8920027
 30
0.0
 40
0.2
  1

100
AcDbAttribute
  2
NN
 70
     1
  0
ATTRIB
  5
211
330
20E
100
AcDbEntity
  8
新しいレイヤ 1
100
AcDbText
 10
116.3445568724379
 20
112.8920027
 30
0.0
 40
0.2
  1

100
AcDbAttribute
  2
NT
 70
     1
  0
ATTRIB
  5
212
330
20E
100
AcDbEntity
  8
新しいレイヤ 1
100
AcDbText
 10
116.3445568724379
 20
112.8920027
 30
0.0
 40
0.2
  1
$IDNR._2
100
AcDbAttribute
  2
NBSYN
 70
     1
  0
ATTRIB
  5
213
330
20E
100
AcDbEntity
  8
新しいレイヤ 1
100
AcDbText
 10
116.3445568724379
 20
112.8920027
 30
0.0
 40
0.2
  1
Motor Connector_2
100
AcDbAttribute
  2
LINA
 70
     1
  0
ATTRIB
  5
214
330
20E
100
AcDbEntity
  8
新しいレイヤ 1
100
AcDbText
 10
116.3445568724379
 20
112.8920027
 30
0.0
 40
0.2
  1
Panasonic Industry Co., Ltd. , Motors for FA & Industrial Application
100
AcDbAttribute
  2
CATALOG
 70
     1
  0
ATTRIB
  5
215
330
20E
100
AcDbEntity
  8
新しいレイヤ 1
100
AcDbText
 10
116.3445568724379
 20
112.8920027
 30
0.0
 40
0.2
  1
Motor Connector
100
AcDbAttribute
  2
IDNR
 70
     1
  0
ATTRIB
  5
216
330
20E
100
AcDbEntity
  8
新しいレイヤ 1
100
AcDbText
 10
116.3445568724379
 20
112.8920027
 30
0.0
 40
0.2
  1
matsushita
100
AcDbAttribute
  2
COMPANY
 70
     1
  0
ATTRIB
  5
217
330
20E
100
AcDbEntity
  8
新しいレイヤ 1
100
AcDbText
 10
116.3445568724379
 20
112.8920027
 30
0.0
 40
0.2
  1
{$CADENAS_DATA/23d-libs/matsushita/ac_servo_motor/servo_motor_wtout_gear/parts/motor_connector.prj},168 {VTYP=3D},{NB=Motor Connector_2},{LINA=Motor Connector_2},{NN=},{DATE=07.04.2022 00:15:14},{GEOMDATE=22.09.2015 07:50:00},{VERSION=},{LINEID=10},{WBVAR
100
AcDbAttribute
  2
PSOL_0
 70
     1
  0
ATTRIB
  5
218
330
20E
100
AcDbEntity
  8
新しいレイヤ 1
100
AcDbText
 10
116.3445568724379
 20
112.8920027
 30
0.0
 40
0.2
  1
=},{WBNUMERIC=}  {NB=Motor Connector_2},{LINA=Motor Connector_2},{KT=DUMMY},{IDNR=Motor Connector}
100
AcDbAttribute
  2
PSOL_1
 70
     1
  0
SEQEND
  5
219
330
20E
100
AcDbEntity
  8
0
  0
POINT
  5
21A
330
1F
100
AcDbEntity
  8
2d ConnectionPoints
100
AcDbPoint
 10
63.23451029727127
 20
197.4900661563184
 30
0.0
  0
POINT
  5
21B
330
1F
100
AcDbEntity
  8
2d ConnectionPoints
100
AcDbPoint
 10
59.84455687243786
 20
142.8920027
 30
0.0
  0
POINT
  5
21C
330
1F
100
AcDbEntity
  8
2d ConnectionPoints
100
AcDbPoint
 10
104.0433568724379
 20
204.8743027
 30
0.0
  0
POINT
  5
21D
330
1F
100
AcDbEntity
  8
2d ConnectionPoints
100
AcDbPoint
 10
104.0433568724379
 20
204.8743027
 30
0.0
  0
POINT
  5
21E
330
1F
100
AcDbEntity
  8
2d ConnectionPoints
100
AcDbPoint
 10
93.84455687243786
 20
142.8920027
 30
0.0
  0
POINT
  5
21F
330
1F
100
AcDbEntity
  8
2d ConnectionPoints
100
AcDbPoint
 10
93.84455687243786
 20
142.8920027
 30
0.0
  0
POINT
  5
220
330
1F
100
AcDbEntity
  8
2d ConnectionPoints
100
AcDbPoint
 10
59.84455687243786
 20
142.8920027
 30
0.0
  0
POINT
  5
221
330
1F
100
AcDbEntity
  8
2d ConnectionPoints
100
AcDbPoint
 10
116.3445568724379
 20
112.8920027
 30
0.0
  0
ARC
  5
222
330
1F
100
AcDbEntity
  8
AM_0
100
AcDbCircle
 10
44.44475687243823
 20
86.39200269999989
 30
0.0
 40
7.000000000000354
100
AcDbArc
 50
162.4732217527707
 51
197.5267782472293
  0
ARC
  5
223
330
1F
100
AcDbEntity
  8
AM_0
100
AcDbCircle
 10
38.5325837743178
 20
84.52486337529348
 30
0.0
 40
0.799999999999977
100
AcDbArc
 50
197.52677824723
 51
265.0000000000014
  0
ARC
  5
224
330
1F
100
AcDbEntity
  8
AM_0
100
AcDbCircle
 10
38.5325837743178
 20
88.25914202470648
 30
0.0
 40
0.7999999999999861
100
AcDbArc
 50
94.99999999999865
 51
162.47322175277
  0
LINE
  5
225
330
1F
100
AcDbEntity
  8
AM_4
100
AcDbLine
 10
37.76972272939909
 20
88.5000632278944
 30
0.0
 11
37.76972272939909
 21
84.28394217210555
 31
0.0
  0
LINE
  5
226
330
1F
100
AcDbEntity
  8
AM_0
100
AcDbLine
 10
38.46285918011966
 20
83.72790761682009
 30
0.0
 11
39.44475687243786
 21
83.64200269999998
 31
0.0
  0
LINE
  5
227
330
1F
100
AcDbEntity
  8
AM_0
100
AcDbLine
 10
38.63850608789573
 20
89.07146489639365
 30
0.0
 11
38.46285918011966
 21
89.05609778317987
 31
0.0
  0
LINE
  5
228
330
1F
100
AcDbEntity
  8
AM_4
100
AcDbLine
 10
38.46285918011966
 20
89.05609778317987
 30
0.0
 11
38.46285918011966
 21
83.72790761682009
 31
0.0
  0
LINE
  5
229
330
1F
100
AcDbEntity
  8
AM_0
100
AcDbLine
 10
39.44475687243786
 20
83.39200269999998
 30
0.0
 11
39.82475687243786
 21
83.39200269999998
 31
0.0
  0
LINE
  5
22A
330
1F
100
AcDbEntity
  8
AM_0
100
AcDbLine
 10
39.44475687243786
 20
86.23083901971006
 30
0.0
 11
39.44475687243786
 21
83.39200269999998
 31
0.0
  0
LINE
  5
22B
330
1F
100
AcDbEntity
  8
AM_0
100
AcDbLine
 10
36.84455687243786
 20
142.8920027
 30
0.0
 11
36.84455687243786
 21
97.47948991253702
 31
0.0
  0
LINE
  5
22C
330
1F
100
AcDbEntity
  8
AM_0
100
AcDbLine
 10
59.94455687243786
 20
83.49200269999997
 30
0.0
 11
59.84455687243786
 21
83.49200269999997
 31
0.0
  0
LINE
  5
22D
330
1F
100
AcDbEntity
  8
AM_0
100
AcDbLine
 10
59.84455687243786
 20
83.64200269999998
 30
0.0
 11
59.84455687243786
 21
82.89200269999998
 31
0.0
  0
LINE
  5
22E
330
1F
100
AcDbEntity
  8
AM_0
100
AcDbLine
 10
39.82475687243786
 20
82.89200269999998
 30
0.0
 11
59.84455687243786
 21
82.89200269999998
 31
0.0
  0
LINE
  5
22F
330
1F
100
AcDbEntity
  8
AM_0
100
AcDbLine
 10
59.94455687243786
 20
83.64200269999998
 30
0.0
 11
59.94455687243786
 21
82.89200269999998
 31
0.0
  0
LINE
  5
230
330
1F
100
AcDbEntity
  8
AM_0
100
AcDbLine
 10
59.94455687243786
 20
82.89200269999998
 30
0.0
 11
64.84455687243786
 21
82.89200269999998
 31
0.0
  0
LINE
  5
231
330
1F
100
AcDbEntity
  8
AM_4
100
AcDbLine
 10
55.84455687243786
 20
86.39200269999998
 30
0.0
 11
57.34455687243786
 21
86.39200269999998
 31
0.0
  0
ARC
  5
232
330
1F
100
AcDbEntity
  8
AM_0
100
AcDbCircle
 10
44.44475687243823
 20
139.3920026999999
 30
0.0
 40
7.000000000000353
100
AcDbArc
 50
162.4732217527707
 51
197.5267782472293
  0
ARC
  5
233
330
1F
100
AcDbEntity
  8
AM_0
100
AcDbCircle
 10
38.5325837743178
 20
137.5248633752935
 30
0.0
 40
0.799999999999977
100
AcDbArc
 50
197.52677824723
 51
265.0000000000014
  0
ARC
  5
234
330
1F
100
AcDbEntity
  8
AM_0
100
AcDbCircle
 10
38.5325837743178
 20
141.2591420247065
 30
0.0
 40
0.7999999999999861
100
AcDbArc
 50
94.99999999999865
 51
162.47322175277
  0
LINE
  5
235
330
1F
100
AcDbEntity
  8
AM_4
100
AcDbLine
 10
37.76972272939909
 20
141.5000632278944
 30
0.0
 11
37.76972272939909
 21
137.2839421721056
 31
0.0
  0
LINE
  5
236
330
1F
100
AcDbEntity
  8
AM_0
100
AcDbLine
 10
57.59455687243786
 20
83.64200269999998
 30
0.0
 11
60.34455687243786
 21
83.64200269999998
 31
0.0
  0
LINE
  5
237
330
1F
100
AcDbEntity
  8
AM_0
100
AcDbLine
 10
60.34455687243786
 20
89.14200269999998
 30
0.0
 11
57.59455687243786
 21
89.14200269999998
 31
0.0
  0
LINE
  5
238
330
1F
100
AcDbEntity
  8
AM_0
100
AcDbLine
 10
57.34455687243786
 20
83.89200269999998
 30
0.0
 11
57.59455687243786
 21
83.64200269999998
 31
0.0
  0
LINE
  5
239
330
1F
100
AcDbEntity
  8
AM_0
100
AcDbLine
 10
57.59455687243786
 20
89.14200269999998
 30
0.0
 11
57.34455687243786
 21
88.89200269999998
 31
0.0
  0
LINE
  5
23A
330
1F
100
AcDbEntity
  8
AM_0
100
AcDbLine
 10
57.59455687243786
 20
89.14200269999998
 30
0.0
 11
57.59455687243786
 21
83.64200269999998
 31
0.0
  0
LINE
  5
23B
330
1F
100
AcDbEntity
  8
AM_0
100
AcDbLine
 10
57.34455687243786
 20
88.89200269999998
 30
0.0
 11
57.34455687243786
 21
83.89200269999998
 31
0.0
  0
LINE
  5
23C
330
1F
100
AcDbEntity
  8
AM_0
100
AcDbLine
 10
38.46285918011966
 20
136.7279076168201
 30
0.0
 11
39.44475687243786
 21
136.6420027
 31
0.0
  0
LINE
  5
23D
330
1F
100
AcDbEntity
  8
AM_0
100
AcDbLine
 10
39.44475687243786
 20
142.1420027
 30
0.0
 11
38.46285918011966
 21
142.0560977831799
 31
0.0
  0
LINE
  5
23E
330
1F
100
AcDbEntity
  8
AM_4
100
AcDbLine
 10
38.46285918011966
 20
142.0560977831799
 30
0.0
 11
38.46285918011966
 21
136.7279076168201
 31
0.0
  0
LINE
  5
23F
330
1F
100
AcDbEntity
  8
AM_0
100
AcDbLine
 10
60.34455687243786
 20
83.39200269999998
 30
0.0
 11
60.84455687243786
 21
83.39200269999998
 31
0.0
  0
LINE
  5
240
330
1F
100
AcDbEntity
  8
AM_0
100
AcDbLine
 10
60.84455687243786
 20
89.39200269999998
 30
0.0
 11
60.34455687243786
 21
89.39200269999998
 31
0.0
  0
LINE
  5
241
330
1F
100
AcDbEntity
  8
AM_0
100
AcDbLine
 10
60.34455687243786
 20
89.39200269999998
 30
0.0
 11
60.34455687243786
 21
83.39200269999998
 31
0.0
  0
LINE
  5
242
330
1F
100
AcDbEntity
  8
AM_0
100
AcDbLine
 10
39.44475687243786
 20
136.3920027
 30
0.0
 11
39.82475687243786
 21
136.3920027
 31
0.0
  0
LINE
  5
243
330
1F
100
AcDbEntity
  8
AM_0
100
AcDbLine
 10
39.82475687243786
 20
142.3920027
 30
0.0
 11
39.44475687243786
 21
142.3920027
 31
0.0
  0
LINE
  5
244
330
1F
100
AcDbEntity
  8
AM_0
100
AcDbLine
 10
39.44475687243786
 20
142.3920027
 30
0.0
 11
39.44475687243786
 21
136.3920027
 31
0.0
  0
LWPOLYLINE
  5
245
330
1F
100
AcDbEntity
  8
AM_0
100
AcDbPolyline
 90
        5
 70
     0
 43
0.0
 10
37.41453181219833
 20
128.6864969286916
 10
37.15655362570342
 20
127.3662814544954
 10
36.9807332423747
 20
126.0324779887598
 10
36.84470977013268
 20
123.3100310618864
 10
36.84455687243786
 20
123.2091268353252
  0
ARC
  5
246
330
1F
100
AcDbEntity
  8
AM_0
100
AcDbCircle
 10
51.84455687244053
 20
97.4794899125373
 30
0.0
 40
15.00000000000266
100
AcDbArc
 50
180.0000000000012
 51
195.8454569755327
  0
LINE
  5
247
330
1F
100
AcDbEntity
  8
AM_0
100
AcDbLine
 10
59.94455687243786
 20
142.2920027
 30
0.0
 11
59.84455687243786
 21
142.2920027
 31
0.0
  0
LINE
  5
248
330
1F
100
AcDbEntity
  8
AM_0
100
AcDbLine
 10
64.94455687243786
 20
83.49200269999997
 30
0.0
 11
64.84455687243786
 21
83.49200269999997
 31
0.0
  0
LINE
  5
249
330
1F
100
AcDbEntity
  8
AM_4
100
AcDbLine
 10
59.94455687243786
 20
140.3320027
 30
0.0
 11
59.84455687243786
 21
140.3320027
 31
0.0
  0
LINE
  5
24A
330
1F
100
AcDbEntity
  8
AM_0
100
AcDbLine
 10
108.5445568724379
 20
142.2920027
 30
0.0
 11
108.6445568724379
 21
142.2920027
 31
0.0
  0
LINE
  5
24B
330
1F
100
AcDbEntity
  8
AM_4
100
AcDbLine
 10
108.5445568724379
 20
140.3320027
 30
0.0
 11
108.6445568724379
 21
140.3320027
 31
0.0
  0
LINE
  5
24C
330
1F
100
AcDbEntity
  8
AM_4
100
AcDbLine
 10
64.94455687243786
 20
85.45200269999998
 30
0.0
 11
64.84455687243786
 21
85.45200269999998
 31
0.0
  0
LINE
  5
24D
330
1F
100
AcDbEntity
  8
AM_0
100
AcDbLine
 10
108.5445568724379
 20
83.49200269999997
 30
0.0
 11
108.6445568724379
 21
83.49200269999997
 31
0.0
  0
LINE
  5
24E
330
1F
100
AcDbEntity
  8
AM_4
100
AcDbLine
 10
64.94455687243786
 20
140.3320027
 30
0.0
 11
64.84455687243786
 21
140.3320027
 31
0.0
  0
LINE
  5
24F
330
1F
100
AcDbEntity
  8
AM_0
100
AcDbLine
 10
64.94455687243786
 20
142.2920027
 30
0.0
 11
64.84455687243786
 21
142.2920027
 31
0.0
  0
LINE
  5
250
330
1F
100
AcDbEntity
  8
AM_4
100
AcDbLine
 10
108.5445568724379
 20
85.45200269999998
 30
0.0
 11
108.6445568724379
 21
85.45200269999998
 31
0.0
  0
LINE
  5
251
330
1F
100
AcDbEntity
  8
AM_0
100
AcDbLine
 10
64.84455687243786
 20
142.8920027
 30
0.0
 11
59.94455687243786
 21
142.8920027
 31
0.0
  0
LINE
  5
252
330
1F
100
AcDbEntity
  8
AM_0
100
AcDbLine
 10
116.3445568724379
 20
82.89200269999998
 30
0.0
 11
108.6445568724379
 21
82.89200269999998
 31
0.0
  0
LINE
  5
253
330
1F
100
AcDbEntity
  8
AM_4
100
AcDbLine
 10
109.8445568724379
 20
84.89200269999998
 30
0.0
 11
108.6445568724379
 21
84.89200269999998
 31
0.0
  0
LINE
  5
254
330
1F
100
AcDbEntity
  8
AM_0
100
AcDbLine
 10
108.5445568724379
 20
142.8920027
 30
0.0
 11
64.94455687243786
 21
142.8920027
 31
0.0
  0
LINE
  5
255
330
1F
100
AcDbEntity
  8
AM_4
100
AcDbLine
 10
108.5445568724379
 20
140.8920027
 30
0.0
 11
64.94455687243786
 21
140.8920027
 31
0.0
  0
LINE
  5
256
330
1F
100
AcDbEntity
  8
AM_0
100
AcDbLine
 10
116.3445568724379
 20
142.8920027
 30
0.0
 11
108.6445568724379
 21
142.8920027
 31
0.0
  0
LINE
  5
257
330
1F
100
AcDbEntity
  8
AM_4
100
AcDbLine
 10
64.84455687243786
 20
140.8920027
 30
0.0
 11
59.94455687243786
 21
140.8920027
 31
0.0
  0
LINE
  5
258
330
1F
100
AcDbEntity
  8
AM_0
100
AcDbLine
 10
60.84455687243786
 20
89.64200269999998
 30
0.0
 11
60.84455687243786
 21
82.89200269999998
 31
0.0
  0
LINE
  5
259
330
1F
100
AcDbEntity
  8
AM_4
100
AcDbLine
 10
64.84455687243786
 20
84.89200269999998
 30
0.0
 11
60.84455687243786
 21
84.89200269999998
 31
0.0
  0
LINE
  5
25A
330
1F
100
AcDbEntity
  8
AM_4
100
AcDbLine
 10
108.5445568724379
 20
84.89200269999998
 30
0.0
 11
64.94455687243786
 21
84.89200269999998
 31
0.0
  0
LINE
  5
25B
330
1F
100
AcDbEntity
  8
AM_0
100
AcDbLine
 10
108.5445568724379
 20
82.89200269999998
 30
0.0
 11
64.94455687243786
 21
82.89200269999998
 31
0.0
  0
LINE
  5
25C
330
1F
100
AcDbEntity
  8
AM_4
100
AcDbLine
 10
109.8445568724379
 20
140.8920027
 30
0.0
 11
108.6445568724379
 21
140.8920027
 31
0.0
  0
LINE
  5
25D
330
1F
100
AcDbEntity
  8
AM_0
100
AcDbLine
 10
55.84455687243786
 20
89.64200269999998
 30
0.0
 11
55.84455687243786
 21
82.89200269999998
 31
0.0
  0
LINE
  5
25E
330
1F
100
AcDbEntity
  8
AM_4
100
AcDbLine
 10
55.84455687243786
 20
84.89200269999998
 30
0.0
 11
39.82475687243786
 21
84.89200269999998
 31
0.0
  0
LINE
  5
25F
330
1F
100
AcDbEntity
  8
AM_0
100
AcDbLine
 10
59.84455687243786
 20
142.8920027
 30
0.0
 11
36.84455687243786
 21
142.8920027
 31
0.0
  0
LINE
  5
260
330
1F
100
AcDbEntity
  8
AM_4
100
AcDbLine
 10
59.84455687243786
 20
140.8920027
 30
0.0
 11
39.82475687243786
 21
140.8920027
 31
0.0
  0
LINE
  5
261
330
1F
100
AcDbEntity
  8
AM_0
100
AcDbLine
 10
59.94455687243786
 20
132.5615254568521
 30
0.0
 11
59.84455687243786
 21
132.5615254568521
 31
0.0
  0
LINE
  5
262
330
1F
100
AcDbEntity
  8
AM_4
100
AcDbLine
 10
59.94455687243786
 20
136.4120027
 30
0.0
 11
59.84455687243786
 21
136.4120027
 31
0.0
  0
LINE
  5
263
330
1F
100
AcDbEntity
  8
AM_0
100
AcDbLine
 10
59.94455687243786
 20
142.8920027
 30
0.0
 11
59.94455687243786
 21
132.1420027
 31
0.0
  0
LINE
  5
264
330
1F
100
AcDbEntity
  8
AM_0
100
AcDbLine
 10
59.84455687243786
 20
142.8920027
 30
0.0
 11
59.84455687243786
 21
132.1420027
 31
0.0
  0
LINE
  5
265
330
1F
100
AcDbEntity
  8
AM_0
100
AcDbLine
 10
59.94455687243786
 20
90.10700269999998
 30
0.0
 11
59.84455687243786
 21
90.10700269999998
 31
0.0
  0
LINE
  5
266
330
1F
100
AcDbEntity
  8
AM_4
100
AcDbLine
 10
108.5445568724379
 20
89.37200269999997
 30
0.0
 11
108.6445568724379
 21
89.37200269999997
 31
0.0
  0
LINE
  5
267
330
1F
100
AcDbEntity
  8
AM_4
100
AcDbLine
 10
64.94455687243786
 20
136.4120027
 30
0.0
 11
64.84455687243786
 21
136.4120027
 31
0.0
  0
LINE
  5
268
330
1F
100
AcDbEntity
  8
AM_4
100
AcDbLine
 10
64.94455687243786
 20
89.37200269999997
 30
0.0
 11
64.84455687243786
 21
89.37200269999997
 31
0.0
  0
LINE
  5
269
330
1F
100
AcDbEntity
  8
AM_4
100
AcDbLine
 10
108.5445568724379
 20
136.4120027
 30
0.0
 11
108.6445568724379
 21
136.4120027
 31
0.0
  0
LINE
  5
26A
330
1F
100
AcDbEntity
  8
AM_0
100
AcDbLine
 10
60.84455687243786
 20
126.1420027
 30
0.0
 11
60.84455687243786
 21
132.9629442886246
 31
0.0
  0
LINE
  5
26B
330
1F
100
AcDbEntity
  8
AM_0
100
AcDbLine
 10
59.94455687243786
 20
132.9629442886246
 30
0.0
 11
60.84455687243786
 21
132.9629442886246
 31
0.0
  0
LINE
  5
26C
330
1F
100
AcDbEntity
  8
AM_4
100
AcDbLine
 10
64.84455687243786
 20
136.8920027
 30
0.0
 11
59.94455687243786
 21
136.8920027
 31
0.0
  0
LINE
  5
26D
330
1F
100
AcDbEntity
  8
AM_0
100
AcDbLine
 10
55.84455687243786
 20
89.64200269999998
 30
0.0
 11
59.84455687243786
 21
89.64200269999998
 31
0.0
  0
LINE
  5
26E
330
1F
100
AcDbEntity
  8
AM_4
100
AcDbLine
 10
55.84455687243786
 20
88.89200269999998
 30
0.0
 11
39.82475687243786
 21
88.89200269999998
 31
0.0
  0
LINE
  5
26F
330
1F
100
AcDbEntity
  8
AM_4
100
AcDbLine
 10
109.8445568724379
 20
136.8920027
 30
0.0
 11
108.6445568724379
 21
136.8920027
 31
0.0
  0
LINE
  5
270
330
1F
100
AcDbEntity
  8
AM_4
100
AcDbLine
 10
108.5445568724379
 20
88.89200269999998
 30
0.0
 11
64.94455687243786
 21
88.89200269999998
 31
0.0
  0
LINE
  5
271
330
1F
100
AcDbEntity
  8
AM_4
100
AcDbLine
 10
108.5445568724379
 20
136.8920027
 30
0.0
 11
64.94455687243786
 21
136.8920027
 31
0.0
  0
LINE
  5
272
330
1F
100
AcDbEntity
  8
AM_0
100
AcDbLine
 10
55.84455687243786
 20
126.1420027
 30
0.0
 11
55.84455687243786
 21
132.9629442886246
 31
0.0
  0
LINE
  5
273
330
1F
100
AcDbEntity
  8
AM_0
100
AcDbLine
 10
55.84455687243786
 20
132.9629442886246
 30
0.0
 11
59.84455687243786
 21
132.9629442886246
 31
0.0
  0
LINE
  5
274
330
1F
100
AcDbEntity
  8
AM_4
100
AcDbLine
 10
59.84455687243786
 20
136.8920027
 30
0.0
 11
39.82475687243786
 21
136.8920027
 31
0.0
  0
LINE
  5
275
330
1F
100
AcDbEntity
  8
AM_4
100
AcDbLine
 10
109.8445568724379
 20
88.89200269999998
 30
0.0
 11
108.6445568724379
 21
88.89200269999998
 31
0.0
  0
LINE
  5
276
330
1F
100
AcDbEntity
  8
AM_0
100
AcDbLine
 10
59.94455687243786
 20
89.64200269999998
 30
0.0
 11
60.84455687243786
 21
89.64200269999998
 31
0.0
  0
LINE
  5
277
330
1F
100
AcDbEntity
  8
AM_4
100
AcDbLine
 10
64.84455687243786
 20
88.89200269999998
 30
0.0
 11
60.84455687243786
 21
88.89200269999998
 31
0.0
  0
ARC
  5
278
330
1F
100
AcDbEntity
  8
AM_0
100
AcDbCircle
 10
116.5445568724379
 20
138.0920027
 30
0.0
 40
0.2000000000000055
100
AcDbArc
 50
180.000000000001
 51
269.9999999999984
  0
LINE
  5
279
330
1F
100
AcDbEntity
  8
AM_4
100
AcDbLine
 10
55.84455687243786
 20
129.3920027
 30
0.0
 11
57.34455687243786
 21
129.3920027
 31
0.0
  0
LINE
  5
27A
330
1F
100
AcDbEntity
  8
AM_0
100
AcDbLine
 10
39.36301588614208
 20
136.6499817324375
 30
0.0
 11
37.41453181219833
 21
128.6864969286916
 31
0.0
  0
LINE
  5
27B
330
1F
100
AcDbEntity
  8
AM_4
100
AcDbLine
 10
37.41453181219833
 20
128.6864969286916
 30
0.0
 11
37.41453181219833
 21
93.38383651401074
 31
0.0
  0
LINE
  5
27C
330
1F
100
AcDbEntity
  8
AM_0
100
AcDbLine
 10
37.41453181219833
 20
93.38383651401074
 30
0.0
 11
39.74876021380311
 21
85.15975819146522
 31
0.0
  0
LINE
  5
27D
330
1F
100
AcDbEntity
  8
AM_4
100
AcDbLine
 10
39.74876021380311
 20
93.39200269999998
 30
0.0
 11
39.74876021380311
 21
85.15975819146522
 31
0.0
  0
LINE
  5
27E
330
1F
100
AcDbEntity
  8
AM_4
100
AcDbLine
 10
39.74876021380311
 20
136.3920027
 30
0.0
 11
39.74876021380311
 21
99.39200269999998
 31
0.0
  0
ARC
  5
27F
330
1F
100
AcDbEntity
  8
AM_0
100
AcDbCircle
 10
37.82475687243783
 20
84.61367107166168
 30
0.0
 40
2.000000000000014
100
AcDbArc
 50
0.0000000000007124
 51
15.84545697553481
  0
ARC
  5
280
330
1F
100
AcDbEntity
  8
AM_0
100
AcDbCircle
 10
44.44475687243818
 20
96.39200269999989
 30
0.0
 40
7.000000000000299
100
AcDbArc
 50
162.4732207770293
 51
197.5267792229707
  0
ARC
  5
281
330
1F
100
AcDbEntity
  8
AM_0
100
AcDbCircle
 10
38.53258377431783
 20
94.5248633752935
 30
0.0
 40
0.8000000000000346
100
AcDbArc
 50
197.5267867849677
 51
264.9999999999986
  0
ARC
  5
282
330
1F
100
AcDbEntity
  8
AM_0
100
AcDbCircle
 10
38.53258377431783
 20
98.25914202470645
 30
0.0
 40
0.8000000000000392
100
AcDbArc
 50
95.00000000000142
 51
162.4732132150322
  0
LINE
  5
283
330
1F
100
AcDbEntity
  8
AM_4
100
AcDbLine
 10
37.76972276529915
 20
98.50006334156956
 30
0.0
 11
37.76972276529915
 21
94.2839420584304
 31
0.0
  0
LINE
  5
284
330
1F
100
AcDbEntity
  8
AM_0
100
AcDbLine
 10
57.59455687243786
 20
126.6420027
 30
0.0
 11
60.34455687243786
 21
126.6420027
 31
0.0
  0
LINE
  5
285
330
1F
100
AcDbEntity
  8
AM_0
100
AcDbLine
 10
60.34455687243786
 20
132.1420027
 30
0.0
 11
57.59455687243786
 21
132.1420027
 31
0.0
  0
LINE
  5
286
330
1F
100
AcDbEntity
  8
AM_0
100
AcDbLine
 10
38.46285918011966
 20
93.72790761682009
 30
0.0
 11
39.44475687243786
 21
93.64200269999998
 31
0.0
  0
LINE
  5
287
330
1F
100
AcDbEntity
  8
AM_0
100
AcDbLine
 10
39.44475687243786
 20
99.14200269999998
 30
0.0
 11
38.46285918011966
 21
99.05609778317987
 31
0.0
  0
LINE
  5
288
330
1F
100
AcDbEntity
  8
AM_4
100
AcDbLine
 10
38.46285918011966
 20
99.05609778317987
 30
0.0
 11
38.46285918011966
 21
93.72790761682009
 31
0.0
  0
LINE
  5
289
330
1F
100
AcDbEntity
  8
AM_0
100
AcDbLine
 10
116.1445568724379
 20
131.8920027
 30
0.0
 11
115.8945568724379
 21
132.1420027
 31
0.0
  0
LINE
  5
28A
330
1F
100
AcDbEntity
  8
AM_0
100
AcDbLine
 10
115.8945568724379
 20
126.6420027
 30
0.0
 11
116.1445568724379
 21
126.8920027
 31
0.0
  0
LINE
  5
28B
330
1F
100
AcDbEntity
  8
AM_0
100
AcDbLine
 10
116.1445568724379
 20
131.8920027
 30
0.0
 11
116.1445568724379
 21
126.8920027
 31
0.0
  0
LINE
  5
28C
330
1F
100
AcDbEntity
  8
AM_0
100
AcDbLine
 10
113.1445568724379
 20
126.6420027
 30
0.0
 11
115.8945568724379
 21
126.6420027
 31
0.0
  0
LINE
  5
28D
330
1F
100
AcDbEntity
  8
AM_0
100
AcDbLine
 10
115.8945568724379
 20
132.1420027
 30
0.0
 11
113.1445568724379
 21
132.1420027
 31
0.0
  0
LINE
  5
28E
330
1F
100
AcDbEntity
  8
AM_0
100
AcDbLine
 10
115.8945568724379
 20
132.1420027
 30
0.0
 11
115.8945568724379
 21
126.6420027
 31
0.0
  0
LINE
  5
28F
330
1F
100
AcDbEntity
  8
AM_0
100
AcDbLine
 10
57.34455687243786
 20
126.8920027
 30
0.0
 11
57.59455687243786
 21
126.6420027
 31
0.0
  0
LINE
  5
290
330
1F
100
AcDbEntity
  8
AM_0
100
AcDbLine
 10
57.59455687243786
 20
132.1420027
 30
0.0
 11
57.34455687243786
 21
131.8920027
 31
0.0
  0
LINE
  5
291
330
1F
100
AcDbEntity
  8
AM_0
100
AcDbLine
 10
57.59455687243786
 20
132.1420027
 30
0.0
 11
57.59455687243786
 21
126.6420027
 31
0.0
  0
LINE
  5
292
330
1F
100
AcDbEntity
  8
AM_0
100
AcDbLine
 10
57.34455687243786
 20
131.8920027
 30
0.0
 11
57.34455687243786
 21
126.8920027
 31
0.0
  0
LINE
  5
293
330
1F
100
AcDbEntity
  8
AM_0
100
AcDbLine
 10
59.94455687243786
 20
93.29200269999998
 30
0.0
 11
59.84455687243786
 21
93.29200269999998
 31
0.0
  0
LINE
  5
294
330
1F
100
AcDbEntity
  8
AM_0
100
AcDbLine
 10
59.94455687243786
 20
125.8770027
 30
0.0
 11
59.84455687243786
 21
125.8770027
 31
0.0
  0
LINE
  5
295
330
1F
100
AcDbEntity
  8
AM_4
100
AcDbLine
 10
59.94455687243786
 20
95.25200269999996
 30
0.0
 11
59.84455687243786
 21
95.25200269999996
 31
0.0
  0
LINE
  5
296
330
1F
100
AcDbEntity
  8
AM_0
100
AcDbLine
 10
64.94455687243786
 20
93.29200269999998
 30
0.0
 11
64.84455687243786
 21
93.29200269999998
 31
0.0
  0
LINE
  5
297
330
1F
100
AcDbEntity
  8
AM_4
100
AcDbLine
 10
64.94455687243786
 20
95.25200269999996
 30
0.0
 11
64.84455687243786
 21
95.25200269999996
 31
0.0
  0
LINE
  5
298
330
1F
100
AcDbEntity
  8
AM_4
100
AcDbLine
 10
108.5445568724379
 20
95.25200269999996
 30
0.0
 11
108.6445568724379
 21
95.25200269999996
 31
0.0
  0
LINE
  5
299
330
1F
100
AcDbEntity
  8
AM_0
100
AcDbLine
 10
108.5445568724379
 20
93.29200269999998
 30
0.0
 11
108.6445568724379
 21
93.29200269999998
 31
0.0
  0
LINE
  5
29A
330
1F
100
AcDbEntity
  8
AM_4
100
AcDbLine
 10
64.94455687243786
 20
130.5320027
 30
0.0
 11
64.84455687243786
 21
130.5320027
 31
0.0
  0
LINE
  5
29B
330
1F
100
AcDbEntity
  8
AM_0
100
AcDbLine
 10
64.94455687243786
 20
132.4920027
 30
0.0
 11
64.84455687243786
 21
132.4920027
 31
0.0
  0
LINE
  5
29C
330
1F
100
AcDbEntity
  8
AM_0
100
AcDbLine
 10
108.5445568724379
 20
132.4920027
 30
0.0
 11
108.6445568724379
 21
132.4920027
 31
0.0
  0
LINE
  5
29D
330
1F
100
AcDbEntity
  8
AM_4
100
AcDbLine
 10
108.5445568724379
 20
130.5320027
 30
0.0
 11
108.6445568724379
 21
130.5320027
 31
0.0
  0
LINE
  5
29E
330
1F
100
AcDbEntity
  8
AM_0
100
AcDbLine
 10
60.34455687243786
 20
126.3920027
 30
0.0
 11
60.84455687243786
 21
126.3920027
 31
0.0
  0
LINE
  5
29F
330
1F
100
AcDbEntity
  8
AM_0
100
AcDbLine
 10
60.84455687243786
 20
132.3920027
 30
0.0
 11
60.34455687243786
 21
132.3920027
 31
0.0
  0
LINE
  5
2A0
330
1F
100
AcDbEntity
  8
AM_0
100
AcDbLine
 10
60.34455687243786
 20
132.3920027
 30
0.0
 11
60.34455687243786
 21
126.3920027
 31
0.0
  0
LINE
  5
2A1
330
1F
100
AcDbEntity
  8
AM_0
100
AcDbLine
 10
112.6445568724379
 20
126.3920027
 30
0.0
 11
113.1445568724379
 21
126.3920027
 31
0.0
  0
LINE
  5
2A2
330
1F
100
AcDbEntity
  8
AM_0
100
AcDbLine
 10
113.1445568724379
 20
132.3920027
 30
0.0
 11
112.6445568724379
 21
132.3920027
 31
0.0
  0
LINE
  5
2A3
330
1F
100
AcDbEntity
  8
AM_0
100
AcDbLine
 10
113.1445568724379
 20
132.3920027
 30
0.0
 11
113.1445568724379
 21
126.3920027
 31
0.0
  0
LINE
  5
2A4
330
1F
100
AcDbEntity
  8
AM_0
100
AcDbLine
 10
39.44475687243786
 20
93.39200269999998
 30
0.0
 11
39.82475687243786
 21
93.39200269999998
 31
0.0
  0
LINE
  5
2A5
330
1F
100
AcDbEntity
  8
AM_0
100
AcDbLine
 10
39.82475687243786
 20
99.39200269999998
 30
0.0
 11
39.44475687243786
 21
99.39200269999998
 31
0.0
  0
LINE
  5
2A6
330
1F
100
AcDbEntity
  8
AM_0
100
AcDbLine
 10
39.44475687243786
 20
99.39200269999998
 30
0.0
 11
39.44475687243786
 21
93.39200269999998
 31
0.0
  0
LINE
  5
2A7
330
1F
100
AcDbEntity
  8
AM_0
100
AcDbLine
 10
112.6445568724379
 20
126.1420027
 30
0.0
 11
116.3445568724379
 21
126.1420027
 31
0.0
  0
LINE
  5
2A8
330
1F
100
AcDbEntity
  8
AM_0
100
AcDbLine
 10
59.84455687243786
 20
126.6420027
 30
0.0
 11
59.84455687243786
 21
89.14200269999998
 31
0.0
  0
LINE
  5
2A9
330
1F
100
AcDbEntity
  8
AM_0
100
AcDbLine
 10
59.84455687243786
 20
92.89200269999998
 30
0.0
 11
39.82475687243786
 21
92.89200269999998
 31
0.0
  0
LINE
  5
2AA
330
1F
100
AcDbEntity
  8
AM_0
100
AcDbLine
 10
55.84455687243786
 20
126.1420027
 30
0.0
 11
59.84455687243786
 21
126.1420027
 31
0.0
  0
LINE
  5
2AB
330
1F
100
AcDbEntity
  8
AM_4
100
AcDbLine
 10
59.84455687243786
 20
94.89200269999998
 30
0.0
 11
39.82475687243786
 21
94.89200269999998
 31
0.0
  0
LINE
  5
2AC
330
1F
100
AcDbEntity
  8
AM_0
100
AcDbLine
 10
112.6445568724379
 20
132.6420027
 30
0.0
 11
116.3445568724379
 21
132.6420027
 31
0.0
  0
LINE
  5
2AD
330
1F
100
AcDbEntity
  8
AM_0
100
AcDbLine
 10
59.94455687243786
 20
126.6420027
 30
0.0
 11
59.94455687243786
 21
89.14200269999998
 31
0.0
  0
LINE
  5
2AE
330
1F
100
AcDbEntity
  8
AM_0
100
AcDbLine
 10
64.84455687243786
 20
92.89200269999998
 30
0.0
 11
59.94455687243786
 21
92.89200269999998
 31
0.0
  0
LINE
  5
2AF
330
1F
100
AcDbEntity
  8
AM_0
100
AcDbLine
 10
108.5445568724379
 20
92.89200269999998
 30
0.0
 11
64.94455687243786
 21
92.89200269999998
 31
0.0
  0
LINE
  5
2B0
330
1F
100
AcDbEntity
  8
AM_0
100
AcDbLine
 10
109.8445568724379
 20
82.89200269999998
 30
0.0
 11
109.8445568724379
 21
94.89200269999998
 31
0.0
  0
LINE
  5
2B1
330
1F
100
AcDbEntity
  8
AM_0
100
AcDbLine
 10
109.8445568724379
 20
92.89200269999998
 30
0.0
 11
108.6445568724379
 21
92.89200269999998
 31
0.0
  0
LINE
  5
2B2
330
1F
100
AcDbEntity
  8
AM_4
100
AcDbLine
 10
108.5445568724379
 20
94.89200269999998
 30
0.0
 11
64.94455687243786
 21
94.89200269999998
 31
0.0
  0
LINE
  5
2B3
330
1F
100
AcDbEntity
  8
AM_0
100
AcDbLine
 10
64.84455687243786
 20
142.8920027
 30
0.0
 11
64.84455687243786
 21
82.89200269999998
 31
0.0
  0
LINE
  5
2B4
330
1F
100
AcDbEntity
  8
AM_0
100
AcDbLine
 10
64.84455687243786
 20
132.8920027
 30
0.0
 11
60.84455687243786
 21
132.8920027
 31
0.0
  0
LINE
  5
2B5
330
1F
100
AcDbEntity
  8
AM_0
100
AcDbLine
 10
59.94455687243786
 20
126.1420027
 30
0.0
 11
60.84455687243786
 21
126.1420027
 31
0.0
  0
LINE
  5
2B6
330
1F
100
AcDbEntity
  8
AM_4
100
AcDbLine
 10
64.84455687243786
 20
94.89200269999998
 30
0.0
 11
59.94455687243786
 21
94.89200269999998
 31
0.0
  0
LINE
  5
2B7
330
1F
100
AcDbEntity
  8
AM_4
100
AcDbLine
 10
64.84455687243786
 20
130.8920027
 30
0.0
 11
60.84455687243786
 21
130.8920027
 31
0.0
  0
LINE
  5
2B8
330
1F
100
AcDbEntity
  8
AM_0
100
AcDbLine
 10
116.3445568724379
 20
142.8920027
 30
0.0
 11
116.3445568724379
 21
82.89200269999998
 31
0.0
  0
LINE
  5
2B9
330
1F
100
AcDbEntity
  8
AM_0
100
AcDbLine
 10
109.8445568724379
 20
130.8920027
 30
0.0
 11
109.8445568724379
 21
142.8920027
 31
0.0
  0
LINE
  5
2BA
330
1F
100
AcDbEntity
  8
AM_0
100
AcDbLine
 10
108.5445568724379
 20
142.8920027
 30
0.0
 11
108.5445568724379
 21
82.89200269999998
 31
0.0
  0
LINE
  5
2BB
330
1F
100
AcDbEntity
  8
AM_0
100
AcDbLine
 10
108.5445568724379
 20
132.8920027
 30
0.0
 11
64.94455687243786
 21
132.8920027
 31
0.0
  0
LINE
  5
2BC
330
1F
100
AcDbEntity
  8
AM_0
100
AcDbLine
 10
64.94455687243786
 20
142.8920027
 30
0.0
 11
64.94455687243786
 21
82.89200269999998
 31
0.0
  0
LINE
  5
2BD
330
1F
100
AcDbEntity
  8
AM_4
100
AcDbLine
 10
108.5445568724379
 20
130.8920027
 30
0.0
 11
64.94455687243786
 21
130.8920027
 31
0.0
  0
LINE
  5
2BE
330
1F
100
AcDbEntity
  8
AM_0
100
AcDbLine
 10
108.6445568724379
 20
142.8920027
 30
0.0
 11
108.6445568724379
 21
82.89200269999998
 31
0.0
  0
LINE
  5
2BF
330
1F
100
AcDbEntity
  8
AM_0
100
AcDbLine
 10
109.8445568724379
 20
132.8920027
 30
0.0
 11
108.6445568724379
 21
132.8920027
 31
0.0
  0
LINE
  5
2C0
330
1F
100
AcDbEntity
  8
AM_0
100
AcDbLine
 10
55.84455687243786
 20
132.8920027
 30
0.0
 11
39.82475687243786
 21
132.8920027
 31
0.0
  0
LINE
  5
2C1
330
1F
100
AcDbEntity
  8
AM_0
100
AcDbLine
 10
39.82475687243786
 20
82.89200269999998
 30
0.0
 11
39.82475687243786
 21
142.8920027
 31
0.0
  0
LINE
  5
2C2
330
1F
100
AcDbEntity
  8
AM_4
100
AcDbLine
 10
55.84455687243786
 20
130.8920027
 30
0.0
 11
39.82475687243786
 21
130.8920027
 31
0.0
  0
LINE
  5
2C3
330
1F
100
AcDbEntity
  8
AM_4
100
AcDbLine
 10
109.8445568724379
 20
94.89200269999998
 30
0.0
 11
108.6445568724379
 21
94.89200269999998
 31
0.0
  0
LINE
  5
2C4
330
1F
100
AcDbEntity
  8
AM_4
100
AcDbLine
 10
109.8445568724379
 20
87.89200269999998
 30
0.0
 11
116.3445568724379
 21
87.89200269999998
 31
0.0
  0
LINE
  5
2C5
330
1F
100
AcDbEntity
  8
AM_4
100
AcDbLine
 10
112.6445568724379
 20
125.6420027
 30
0.0
 11
116.3445568724379
 21
125.6420027
 31
0.0
  0
LINE
  5
2C6
330
1F
100
AcDbEntity
  8
AM_0
100
AcDbLine
 10
112.6445568724379
 20
125.6420027
 30
0.0
 11
112.6445568724379
 21
133.1420027
 31
0.0
  0
LINE
  5
2C7
330
1F
100
AcDbEntity
  8
AM_4
100
AcDbLine
 10
112.6445568724379
 20
133.1420027
 30
0.0
 11
116.3445568724379
 21
133.1420027
 31
0.0
  0
LINE
  5
2C8
330
1F
100
AcDbEntity
  8
AM_4
100
AcDbLine
 10
109.8445568724379
 20
137.8920027
 30
0.0
 11
116.3445568724379
 21
137.8920027
 31
0.0
  0
LINE
  5
2C9
330
1F
100
AcDbEntity
  8
AM_4
100
AcDbLine
 10
109.8445568724379
 20
130.8920027
 30
0.0
 11
108.6445568724379
 21
130.8920027
 31
0.0
  0
LINE
  5
2CA
330
1F
100
AcDbEntity
  8
AM_0
100
AcDbLine
 10
104.2933568724379
 20
204.8743027
 30
0.0
 11
104.2933568724379
 21
196.8014027
 31
0.0
  0
LINE
  5
2CB
330
1F
100
AcDbEntity
  8
AM_0
100
AcDbLine
 10
105.2933568724379
 20
196.8014027
 30
0.0
 11
105.2933568724379
 21
204.8743027
 31
0.0
  0
LINE
  5
2CC
330
1F
100
AcDbEntity
  8
AM_0
100
AcDbLine
 10
102.7933568724379
 20
204.8743027
 30
0.0
 11
102.7933568724379
 21
196.8014027
 31
0.0
  0
LINE
  5
2CD
330
1F
100
AcDbEntity
  8
AM_0
100
AcDbLine
 10
103.7933568724379
 20
196.8014027
 30
0.0
 11
103.7933568724379
 21
204.8743027
 31
0.0
  0
LINE
  5
2CE
330
1F
100
AcDbEntity
  8
AM_0
100
AcDbLine
 10
101.5433568724379
 20
196.8014027
 30
0.0
 11
101.5433568724379
 21
194.3014027
 31
0.0
  0
LINE
  5
2CF
330
1F
100
AcDbEntity
  8
AM_0
100
AcDbLine
 10
106.5433568724379
 20
194.3014027
 30
0.0
 11
106.5433568724379
 21
196.8014027
 31
0.0
  0
LINE
  5
2D0
330
1F
100
AcDbEntity
  8
AM_0
100
AcDbLine
 10
106.5433568724379
 20
196.8014027
 30
0.0
 11
101.5433568724379
 21
196.8014027
 31
0.0
  0
LINE
  5
2D1
330
1F
100
AcDbEntity
  8
AM_0
100
AcDbLine
 10
100.6437568724378
 20
189.5514027
 30
0.0
 11
100.6437568724378
 21
172.7416027
 31
0.0
  0
LINE
  5
2D2
330
1F
100
AcDbEntity
  8
AM_0
100
AcDbLine
 10
107.4429568724378
 20
172.7416027
 30
0.0
 11
107.4429568724378
 21
189.5514027
 31
0.0
  0
LINE
  5
2D3
330
1F
100
AcDbEntity
  8
AM_0
100
AcDbLine
 10
100.1433568724379
 20
192.8014027
 30
0.0
 11
100.1433568724379
 21
189.5514027
 31
0.0
  0
LINE
  5
2D4
330
1F
100
AcDbEntity
  8
AM_0
100
AcDbLine
 10
107.9433568724378
 20
189.5514027
 30
0.0
 11
107.9433568724378
 21
192.8014027
 31
0.0
  0
LINE
  5
2D5
330
1F
100
AcDbEntity
  8
AM_0
100
AcDbLine
 10
107.9433568724378
 20
189.5514027
 30
0.0
 11
100.1433568724379
 21
189.5514027
 31
0.0
  0
LINE
  5
2D6
330
1F
100
AcDbEntity
  8
AM_0
100
AcDbLine
 10
101.5433568724379
 20
194.3014027
 30
0.0
 11
100.1433568724379
 21
192.8014027
 31
0.0
  0
LINE
  5
2D7
330
1F
100
AcDbEntity
  8
AM_0
100
AcDbLine
 10
107.9433568724378
 20
192.8014027
 30
0.0
 11
106.5433568724379
 21
194.3014027
 31
0.0
  0
LINE
  5
2D8
330
1F
100
AcDbEntity
  8
AM_0
100
AcDbLine
 10
107.9433568724378
 20
192.8014027
 30
0.0
 11
100.1433568724379
 21
192.8014027
 31
0.0
  0
LINE
  5
2D9
330
1F
100
AcDbEntity
  8
AM_0
100
AcDbLine
 10
106.5433568724379
 20
194.3014027
 30
0.0
 11
101.5433568724379
 21
194.3014027
 31
0.0
  0
LINE
  5
2DA
330
1F
100
AcDbEntity
  8
AM_0
100
AcDbLine
 10
94.64375687243785
 20
150.7416027
 30
0.0
 11
93.84455687243786
 21
150.7416027
 31
0.0
  0
LINE
  5
2DB
330
1F
100
AcDbEntity
  8
AM_0
100
AcDbLine
 10
93.84455687243786
 20
143.9424027
 30
0.0
 11
94.64375687243785
 21
143.9424027
 31
0.0
  0
ARC
  5
2DC
330
1F
100
AcDbEntity
  8
AM_0
100
AcDbCircle
 10
94.64375687243785
 20
156.7416027
 30
0.0
 40
12.7992
100
AcDbArc
 50
270.0
 51
0.0000000000000318
  0
ARC
  5
2DD
330
1F
100
AcDbEntity
  8
AM_0
100
AcDbCircle
 10
94.64375687243785
 20
156.7416027
 30
0.0
 40
6.000000000000021
100
AcDbArc
 50
270.0000000000001
 51
0.0
  0
LINE
  5
2DE
330
1F
100
AcDbEntity
  8
AM_4
100
AcDbLine
 10
94.64375687243785
 20
150.7416027
 30
0.0
 11
94.64375687243785
 21
143.9424027
 31
0.0
  0
LINE
  5
2DF
330
1F
100
AcDbEntity
  8
AM_0
100
AcDbLine
 10
100.6437568724378
 20
172.7416027
 30
0.0
 11
100.6437568724378
 21
156.7416027
 31
0.0
  0
LINE
  5
2E0
330
1F
100
AcDbEntity
  8
AM_0
100
AcDbLine
 10
107.4429568724378
 20
156.7416027
 30
0.0
 11
107.4429568724378
 21
172.7416027
 31
0.0
  0
LINE
  5
2E1
330
1F
100
AcDbEntity
  8
AM_0
100
AcDbLine
 10
84.34455687243786
 20
148.8920027
 30
0.0
 11
84.34455687243786
 21
155.5920027
 31
0.0
  0
LWPOLYLINE
  5
2E2
330
1F
100
AcDbEntity
  8
AM_0
100
AcDbPolyline
 90
       15
 70
     0
 43
0.0
 10
93.76370190245592
 20
154.9859219985792
 10
93.72587194906893
 20
155.0645317845047
 10
93.68133465579618
 20
155.1395453387761
 10
93.63042897833185
 20
155.2103917629513
 10
93.57354233961908
 20
155.2765318729639
 10
93.51110768132762
 20
155.3374623026402
 10
93.44360016890613
 20
155.3927193346195
 10
93.37153357528626
 20
155.4418824295236
 10
93.29545637076052
 20
155.4845774265145
 10
93.21594754879197
 20
155.5204793908853
 10
93.13361221952454
 20
155.5493150870089
 10
93.04907700452938
 20
155.5708650578263
 10
92.96298526783636
 20
155.5849652950474
 10
92.87599221954537
 20
155.5915084873531
 10
92.84455687243786
 20
155.5920027
  0
LINE
  5
2E3
330
1F
100
AcDbEntity
  8
AM_0
100
AcDbLine
 10
70.2202988282682
 20
155.5920027
 30
0.0
 11
92.84455687243786
 21
155.5920027
 31
0.0
  0
LINE
  5
2E4
330
1F
100
AcDbEntity
  8
AM_0
100
AcDbLine
 10
62.18605259511952
 20
148.8908111925147
 30
0.0
 11
69.56179455094986
 21
155.3445796839382
 31
0.0
  0
LINE
  5
2E5
330
1F
100
AcDbEntity
  8
AM_0
100
AcDbLine
 10
78.34455687243786
 20
155.5920027
 30
0.0
 11
78.34455687243786
 21
148.8920027
 31
0.0
  0
LWPOLYLINE
  5
2E6
330
1F
100
AcDbEntity
  8
AM_0
100
AcDbPolyline
 90
       10
 70
     0
 43
0.0
 10
70.2202988282682
 20
155.5920027
 10
70.13314308552054
 20
155.5881973980917
 10
70.04665065060126
 20
155.5768104530122
 10
69.96147978316566
 20
155.5579285262891
 10
69.87827868494253
 20
155.5316953207859
 10
69.7976805665275
 20
155.4983104870366
 10
69.7202988282682
 20
155.4580281037844
 10
69.64672239191714
 20
155.411154744289
 10
69.57751121858166
 20
155.358047143119
 10
69.56179455094986
 20
155.3445796839382
  0
ARC
  5
2E7
330
1F
100
AcDbEntity
  8
AM_0
100
AcDbCircle
 10
81.34455687243786
 20
145.2320027000001
 30
0.0
 40
5.999999999999935
100
AcDbArc
 50
74.55728417241987
 51
105.4427158275802
  0
ARC
  5
2E8
330
1F
100
AcDbEntity
  8
AM_0
100
AcDbCircle
 10
79.95992787377747
 20
150.2442679100691
 30
0.0
 40
0.7999999999999889
100
AcDbArc
 50
105.4427158275796
 51
174.9999999999999
  0
ARC
  5
2E9
330
1F
100
AcDbEntity
  8
AM_0
100
AcDbCircle
 10
82.72918587109825
 20
150.2442679100691
 30
0.0
 40
0.7999999999999915
100
AcDbArc
 50
5.000000000000154
 51
74.55728417242038
  0
LINE
  5
2EA
330
1F
100
AcDbEntity
  8
AM_4
100
AcDbLine
 10
82.942205717046
 20
151.0153856346951
 30
0.0
 11
79.74690802782973
 21
151.0153856346951
 31
0.0
  0
LINE
  5
2EB
330
1F
100
AcDbEntity
  8
AM_0
100
AcDbLine
 10
79.16297211530411
 20
150.3139925042672
 30
0.0
 11
79.09455687243786
 21
149.5320027
 31
0.0
  0
LINE
  5
2EC
330
1F
100
AcDbEntity
  8
AM_0
100
AcDbLine
 10
83.59455687243786
 20
149.5320027
 30
0.0
 11
83.52614162957161
 21
150.3139925042672
 31
0.0
  0
LINE
  5
2ED
330
1F
100
AcDbEntity
  8
AM_4
100
AcDbLine
 10
83.52614162957161
 20
150.3139925042672
 30
0.0
 11
79.16297211530411
 21
150.3139925042672
 31
0.0
  0
LINE
  5
2EE
330
1F
100
AcDbEntity
  8
AM_0
100
AcDbLine
 10
78.84455687243786
 20
149.5320027
 30
0.0
 11
78.84455687243786
 21
148.8920027
 31
0.0
  0
LINE
  5
2EF
330
1F
100
AcDbEntity
  8
AM_0
100
AcDbLine
 10
83.84455687243786
 20
148.8920027
 30
0.0
 11
83.84455687243786
 21
149.5320027
 31
0.0
  0
LINE
  5
2F0
330
1F
100
AcDbEntity
  8
AM_0
100
AcDbLine
 10
83.84455687243786
 20
149.5320027
 30
0.0
 11
78.84455687243786
 21
149.5320027
 31
0.0
  0
LWPOLYLINE
  5
2F1
330
1F
100
AcDbEntity
  8
AM_0
100
AcDbPolyline
 90
        3
 70
     0
 43
0.0
 10
62.0782125751598
 20
148.7806642966245
 10
62.1371202180639
 20
148.8450109626143
 10
62.18605259511952
 20
148.8908111925147
  0
LINE
  5
2F2
330
1F
100
AcDbEntity
  8
AM_4
100
AcDbLine
 10
84.34455687243786
 20
154.9859219985792
 30
0.0
 11
93.76370190245592
 21
154.9859219985792
 31
0.0
  0
LINE
  5
2F3
330
1F
100
AcDbEntity
  8
AM_0
100
AcDbLine
 10
84.34455687243786
 20
148.8920027
 30
0.0
 11
78.34455687243786
 21
148.8920027
 31
0.0
  0
LINE
  5
2F4
330
1F
100
AcDbEntity
  8
AM_4
100
AcDbLine
 10
69.15189969011024
 20
154.9859219985792
 30
0.0
 11
78.34455687243786
 21
154.9859219985792
 31
0.0
  0
LWPOLYLINE
  5
2F5
330
1F
100
AcDbEntity
  8
AM_0
100
AcDbPolyline
 90
        6
 70
     0
 43
0.0
 10
93.76370190245592
 20
154.9859219985792
 10
93.79453660716953
 20
154.9043142489365
 10
93.8181413924884
 20
154.8203296198276
 10
93.83433661174325
 20
154.7346072849913
 10
93.84299900953667
 20
154.6477996431561
 10
93.84455687243786
 20
154.5920027
  0
LWPOLYLINE
  5
2F6
330
1F
100
AcDbEntity
  8
AM_0
100
AcDbPolyline
 90
        3
 70
     0
 43
0.0
 10
62.0782125751598
 20
148.7806642966245
 10
61.93241080525726
 20
148.5480994939166
 10
61.87592774448561
 20
148.3867449980454
  0
LINE
  5
2F7
330
1F
100
AcDbEntity
  8
AM_4
100
AcDbLine
 10
62.0782125751598
 20
148.7806642966245
 30
0.0
 11
93.84455687243786
 21
148.7806642966245
 31
0.0
  0
ARC
  5
2F8
330
1F
100
AcDbEntity
  8
AM_0
100
AcDbCircle
 10
62.84455687243792
 20
148.1382342085765
 30
0.0
 40
1.000000000000057
100
AcDbArc
 50
165.6105941327422
 51
179.9999999999988
  0
LINE
  5
2F9
330
1F
100
AcDbEntity
  8
AM_0
100
AcDbLine
 10
93.84455687243786
 20
154.5920027
 30
0.0
 11
93.84455687243786
 21
142.8920027
 31
0.0
  0
LINE
  5
2FA
330
1F
100
AcDbEntity
  8
AM_4
100
AcDbLine
 10
61.87592774448561
 20
148.3867449980454
 30
0.0
 11
93.84455687243786
 21
148.3867449980454
 31
0.0
  0
LINE
  5
2FB
330
1F
100
AcDbEntity
  8
AM_0
100
AcDbLine
 10
61.84455687243786
 20
148.1382342085765
 30
0.0
 11
61.84455687243786
 21
142.8920027
 31
0.0
  0
LINE
  5
2FC
330
1F
100
AcDbEntity
  8
AM_0
100
AcDbLine
 10
61.84455687243786
 20
142.8920027
 30
0.0
 11
93.84455687243786
 21
142.8920027
 31
0.0
  0
LINE
  5
2FD
330
1F
100
AcDbEntity
  8
AM_0
100
AcDbLine
 10
55.16382357437959
 20
149.8726871990344
 30
0.0
 11
65.30042879432764
 21
171.6107072436862
 31
0.0
  0
LINE
  5
2FE
330
1F
100
AcDbEntity
  8
AM_0
100
AcDbLine
 10
60.6845102972712
 20
173.7794661563184
 30
0.0
 11
50.54165386049269
 21
152.0280403339119
 31
0.0
  0
ARC
  5
2FF
330
1F
100
AcDbEntity
  8
AM_0
100
AcDbCircle
 10
51.03555687243804
 20
147.0532027000007
 30
0.0
 40
5.999999999999294
100
AcDbArc
 50
65.00081530989662
 51
80.4437621300538
  0
ARC
  5
300
330
1F
100
AcDbEntity
  8
AM_0
100
AcDbCircle
 10
51.03540211303721
 20
147.0532748654941
 30
0.0
 40
5.999999999999583
100
AcDbArc
 50
49.55623786994632
 51
64.99918469010271
  0
LINE
  5
301
330
1F
100
AcDbEntity
  8
AM_4
100
AcDbLine
 10
52.03165047855717
 20
152.9699414577827
 30
0.0
 11
54.92761033172161
 21
151.6195332005427
 31
0.0
  0
ARC
  5
302
330
1F
100
AcDbEntity
  8
AM_0
100
AcDbCircle
 10
54.40864920641187
 20
151.0106987810021
 30
0.0
 40
0.8000000000000179
100
AcDbArc
 50
340.0000000000016
 51
49.55623509518141
  0
ARC
  5
303
330
1F
100
AcDbEntity
  8
AM_0
100
AcDbCircle
 10
51.89883803594665
 20
152.181042950313
 30
0.0
 40
0.8000000000000185
100
AcDbArc
 50
80.44376490481821
 51
149.9999999999987
  0
LINE
  5
304
330
1F
100
AcDbEntity
  8
AM_4
100
AcDbLine
 10
51.20601771291911
 20
152.5810429503131
 30
0.0
 11
55.1604033030406
 21
150.7370826663416
 31
0.0
  0
LINE
  5
305
330
1F
100
AcDbEntity
  8
AM_0
100
AcDbLine
 10
51.20601771291911
 20
152.5810429503131
 30
0.0
 11
50.81354279036145
 21
151.9012564437465
 31
0.0
  0
LINE
  5
306
330
1F
100
AcDbEntity
  8
AM_0
100
AcDbLine
 10
54.89193464451085
 20
149.9994710891997
 30
0.0
 11
55.16040330304062
 21
150.7370826663416
 31
0.0
  0
ARC
  5
307
330
1F
100
AcDbEntity
  8
AM_0
100
AcDbCircle
 10
39.34455687243775
 20
147.2220177871276
 30
0.0
 40
1.999999999999896
100
AcDbArc
 50
120.5003999999986
 51
180.0000000000016
  0
LINE
  5
308
330
1F
100
AcDbEntity
  8
AM_0
100
AcDbLine
 10
59.84455687243786
 20
143.8282027
 30
0.0
 11
59.63025694132665
 21
143.9281323990193
 31
0.0
  0
ARC
  5
309
330
1F
100
AcDbEntity
  8
AM_0
100
AcDbCircle
 10
58.20625373883371
 20
147.3506007949852
 30
0.0
 40
0.9999999999999717
100
AcDbArc
 50
9.438999999999508
 51
65.0000000000009
  0
LINE
  5
30A
330
1F
100
AcDbEntity
  8
AM_0
100
AcDbLine
 10
59.77116484356159
 20
144.0351629239951
 30
0.0
 11
59.19271449944242
 21
147.5145982577072
 31
0.0
  0
LINE
  5
30B
330
1F
100
AcDbEntity
  8
AM_0
100
AcDbLine
 10
58.6288720005744
 20
148.2569085820218
 30
0.0
 11
47.0766884904001
 21
153.643780221228
 31
0.0
  0
LINE
  5
30C
330
1F
100
AcDbEntity
  8
AM_0
100
AcDbLine
 10
59.84455687243786
 20
142.8920027
 30
0.0
 11
59.84455687243786
 21
143.8282027
 31
0.0
  0
LINE
  5
30D
330
1F
100
AcDbEntity
  8
AM_0
100
AcDbLine
 10
37.34455687243786
 20
142.8920027
 30
0.0
 11
39.82475687243786
 21
142.8920027
 31
0.0
  0
LINE
  5
30E
330
1F
100
AcDbEntity
  8
AM_0
100
AcDbLine
 10
42.53386420970645
 20
151.4218871243374
 30
0.0
 11
38.32946811592856
 21
148.9452690213961
 31
0.0
  0
LINE
  5
30F
330
1F
100
AcDbEntity
  8
AM_0
100
AcDbLine
 10
37.34455687243786
 20
147.2220177871275
 30
0.0
 11
37.34455687243786
 21
142.8920027
 31
0.0
  0
ARC
  5
310
330
1F
100
AcDbEntity
  8
AM_0
100
AcDbCircle
 10
59.67251876750072
 20
144.0187631777229
 30
0.0
 40
0.1000000000000037
100
AcDbArc
 50
244.9999999999967
 51
9.439000000000176
  0
LWPOLYLINE
  5
311
330
1F
100
AcDbEntity
  8
AM_0
100
AcDbPolyline
 90
        7
 70
     0
 43
0.0
 10
46.64226076127741
 20
153.7374027
 10
46.55515603485375
 20
153.7325684005502
 10
46.46880410517099
 20
153.7201608199412
 10
46.38386216255469
 20
153.700274387353
 10
46.3009766664776
 20
153.6730604505456
 10
46.22077842561237
 20
153.6387261240102
 10
46.14561481930201
 20
153.5985607552684
  0
LINE
  5
312
330
1F
100
AcDbEntity
  8
AM_0
100
AcDbLine
 10
46.14561481930201
 20
153.5985607552684
 30
0.0
 11
43.10839200270129
 21
151.8051415057854
 31
0.0
  0
LWPOLYLINE
  5
313
330
1F
100
AcDbEntity
  8
AM_0
100
AcDbPolyline
 90
       26
 70
     0
 43
0.0
 10
43.10839200270127
 20
151.8051415057854
 10
43.10108060611574
 20
151.8003823547966
 10
43.09421181894086
 20
151.7950040836142
 10
43.08783791679454
 20
151.7890476241294
 10
43.08200740892076
 20
151.7825583085955
 10
43.076764669005
 20
151.775585524622
 10
43.07214959746364
 20
151.7681823393053
 10
43.06819731777784
 20
151.7604050953558
 10
43.06493790918239
 20
151.752312982296
 10
43.06239617774486
 20
151.7439675859923
 10
43.06059146757616
 20
151.7354324199499
 10
43.05953751361039
 20
151.7267724419359
 10
43.05924233707367
 20
151.718053559612
 10
43.05970818443765
 20
151.7093421289374
 10
43.0609315103226
 20
151.7007044491596
 10
43.06290300447989
 20
151.6922062582373
 10
43.06560766264855
 20
151.6839122325346
 10
43.0690249007468
 20
151.6758854945954
 10
43.07312871152931
 20
151.6681871327419
 10
43.07788786251814
 20
151.6608757361564
 10
43.0832661337005
 20
151.6540069489815
 10
43.08922259318533
 20
151.6476330468352
 10
43.09571190871924
 20
151.6418025389614
 10
43.10268469269272
 20
151.6365597990456
 10
43.11008787800941
 20
151.6319447275043
 10
43.11697571746294
 20
151.628401894974
  0
LINE
  5
314
330
1F
100
AcDbEntity
  8
AM_0
100
AcDbLine
 10
43.11697571746294
 20
151.628401894974
 30
0.0
 11
43.46402684970178
 21
151.4665692942397
 31
0.0
  0
LWPOLYLINE
  5
315
330
1F
100
AcDbEntity
  8
AM_0
100
AcDbPolyline
 90
       13
 70
     0
 43
0.0
 10
43.46402684970178
 20
151.4665692942397
 10
43.38342873128676
 20
151.4999541279889
 10
43.30022763306363
 20
151.5261873334921
 10
43.21505676562802
 20
151.5450692602153
 10
43.12856433070874
 20
151.5564562052948
 10
43.04140858796109
 20
151.5602615072031
 10
42.95425284521343
 20
151.5564562052948
 10
42.86776041029415
 20
151.5450692602153
 10
42.78258954285855
 20
151.5261873334921
 10
42.69938844463542
 20
151.4999541279889
 10
42.61879032622039
 20
151.4665692942397
 10
42.54140858796109
 20
151.4262869109875
 10
42.53386420970645
 20
151.4218871243374
  0
LINE
  5
316
330
1F
100
AcDbEntity
  8
AM_0
100
AcDbLine
 10
53.24364300857934
 20
150.7680821019075
 30
0.0
 11
41.42394125504009
 21
150.7680821019075
 31
0.0
  0
LWPOLYLINE
  5
317
330
1F
100
AcDbEntity
  8
AM_0
100
AcDbPolyline
 90
        6
 70
     0
 43
0.0
 10
47.07668849040013
 20
153.643780221228
 10
46.9960903719851
 20
153.6771650549773
 10
46.91288927376195
 20
153.7033982604804
 10
46.82771840632637
 20
153.7222801872035
 10
46.74122597140709
 20
153.7336671322831
 10
46.66587969604143
 20
153.7374027
  0
LINE
  5
318
330
1F
100
AcDbEntity
  8
AM_0
100
AcDbLine
 10
46.66587969604112
 20
153.7374027
 30
0.0
 11
46.6422607612777
 21
153.7374027
 31
0.0
  0
LINE
  5
319
330
1F
100
AcDbEntity
  8
AM_0
100
AcDbLine
 10
63.48451029727127
 20
197.4900661563184
 30
0.0
 11
63.48451029727127
 21
190.7442661563184
 31
0.0
  0
LINE
  5
31A
330
1F
100
AcDbEntity
  8
AM_0
100
AcDbLine
 10
64.48451029727127
 20
190.7442661563184
 30
0.0
 11
64.48451029727127
 21
197.4900661563184
 31
0.0
  0
LINE
  5
31B
330
1F
100
AcDbEntity
  8
AM_0
100
AcDbLine
 10
61.98451029727127
 20
197.4900661563184
 30
0.0
 11
61.98451029727127
 21
190.7442661563184
 31
0.0
  0
LINE
  5
31C
330
1F
100
AcDbEntity
  8
AM_0
100
AcDbLine
 10
62.98451029727127
 20
190.7442661563184
 30
0.0
 11
62.98451029727127
 21
197.4900661563184
 31
0.0
  0
LINE
  5
31D
330
1F
100
AcDbEntity
  8
AM_0
100
AcDbLine
 10
60.98451029727127
 20
190.7442661563184
 30
0.0
 11
60.98451029727127
 21
188.2442661563184
 31
0.0
  0
LINE
  5
31E
330
1F
100
AcDbEntity
  8
AM_0
100
AcDbLine
 10
65.48451029727127
 20
188.2442661563184
 30
0.0
 11
65.48451029727127
 21
190.7442661563184
 31
0.0
  0
LINE
  5
31F
330
1F
100
AcDbEntity
  8
AM_0
100
AcDbLine
 10
65.48451029727127
 20
190.7442661563184
 30
0.0
 11
60.98451029727127
 21
190.7442661563184
 31
0.0
  0
ARC
  5
320
330
1F
100
AcDbEntity
  8
AM_0
100
AcDbCircle
 10
60.64951029727143
 20
173.7794661563183
 30
0.0
 40
5.134999999999827
100
AcDbArc
 50
335.0000000000087
 51
0.0000000000003171
  0
LINE
  5
321
330
1F
100
AcDbEntity
  8
AM_0
100
AcDbLine
 10
60.68451029727129
 20
183.4942661563184
 30
0.0
 11
60.68451029727129
 21
173.7794661563183
 31
0.0
  0
LINE
  5
322
330
1F
100
AcDbEntity
  8
AM_0
100
AcDbLine
 10
65.78451029727125
 20
173.7794661563183
 30
0.0
 11
65.78451029727125
 21
183.4942661563184
 31
0.0
  0
LINE
  5
323
330
1F
100
AcDbEntity
  8
AM_0
100
AcDbLine
 10
60.98451029727127
 20
188.2442661563184
 30
0.0
 11
60.23451029727127
 21
186.7442661563184
 31
0.0
  0
LINE
  5
324
330
1F
100
AcDbEntity
  8
AM_0
100
AcDbLine
 10
66.23451029727127
 20
186.7442661563184
 30
0.0
 11
65.48451029727127
 21
188.2442661563184
 31
0.0
  0
LINE
  5
325
330
1F
100
AcDbEntity
  8
AM_0
100
AcDbLine
 10
65.48451029727127
 20
188.2442661563184
 30
0.0
 11
60.98451029727127
 21
188.2442661563184
 31
0.0
  0
LINE
  5
326
330
1F
100
AcDbEntity
  8
AM_0
100
AcDbLine
 10
60.23451029727127
 20
186.7442661563184
 30
0.0
 11
60.23451029727127
 21
183.4942661563184
 31
0.0
  0
LINE
  5
327
330
1F
100
AcDbEntity
  8
AM_0
100
AcDbLine
 10
66.23451029727127
 20
183.4942661563184
 30
0.0
 11
66.23451029727127
 21
186.7442661563184
 31
0.0
  0
LINE
  5
328
330
1F
100
AcDbEntity
  8
AM_0
100
AcDbLine
 10
66.23451029727127
 20
183.4942661563184
 30
0.0
 11
60.23451029727127
 21
183.4942661563184
 31
0.0
  0
LINE
  5
329
330
1F
100
AcDbEntity
  8
AM_0
100
AcDbLine
 10
66.23451029727127
 20
186.7442661563184
 30
0.0
 11
60.23451029727127
 21
186.7442661563184
 31
0.0
  0
LINE
  5
32A
330
1F
100
AcDbEntity
  8
CENTER
100
AcDbLine
 10
106.3445568724379
 20
112.8920027
 30
0.0
 11
205.7831551869378
 21
112.8920027
 31
0.0
  0
ARC
  5
32B
330
1F
100
AcDbEntity
  8
0
100
AcDbCircle
 10
265.8444658724379
 20
154.3919947
 30
0.0
 40
2.5
100
AcDbArc
 50
0.0
 51
90.0
  0
ARC
  5
32C
330
1F
100
AcDbEntity
  8
0
100
AcDbCircle
 10
362.3444658724379
 20
105.8920027
 30
0.0
 40
130.0
100
AcDbArc
 50
147.711594
 51
180.0
  0
ARC
  5
32D
330
1F
100
AcDbEntity
  8
0
100
AcDbCircle
 10
-433.6559311275622
 20
112.8920027
 30
0.0
 40
700.0
100
AcDbArc
 50
356.6426089999999
 51
3.603821
  0
ARC
  5
32E
330
1F
100
AcDbEntity
  8
0
100
AcDbCircle
 10
162.8445449243379
 20
159.8742041213
 30
0.0
 40
5.0
100
AcDbArc
 50
272.0000000000001
 51
0.000462006
  0
LINE
  5
32F
330
1F
100
AcDbEntity
  8
0
100
AcDbLine
 10
167.8453793633378
 20
56.39109150680001
 30
0.0
 11
167.8444681774379
 21
169.3920027001
 31
0.0
  0
LINE
  5
330
330
1F
100
AcDbEntity
  8
0
100
AcDbLine
 10
193.3444658724379
 20
180.8918427
 30
0.0
 11
193.3444658724379
 21
54.09617870000001
 31
0.0
  0
LINE
  5
331
330
1F
100
AcDbEntity
  8
0
100
AcDbLine
 10
179.8444658724379
 20
170.3919947
 30
0.0
 11
179.8444658724379
 21
55.3919987
 31
0.0
  0
LINE
  5
332
330
1F
100
AcDbEntity
  8
0
100
AcDbLine
 10
187.3444658724379
 20
178.7865727
 30
0.0
 11
187.3444658724379
 21
53.9914517
 31
0.0
  0
LINE
  5
333
330
1F
100
AcDbEntity
  8
CENTER
100
AcDbLine
 10
320.3444658724379
 20
131.8920027
 30
0.0
 11
217.3444658724379
 21
131.8920027
 31
0.0
  0
LINE
  5
334
330
1F
100
AcDbEntity
  8
0
100
AcDbLine
 10
177.8444658724379
 20
41.89193970000001
 30
0.0
 11
267.8444658724379
 21
41.89193970000001
 31
0.0
  0
ARC
  5
335
330
1F
100
AcDbEntity
  8
0
100
AcDbCircle
 10
125.3445568724379
 20
75.2242060719
 30
0.0
 40
3.0
100
AcDbArc
 50
180.0
 51
267.9999999999999
  0
ARC
  5
336
330
1F
100
AcDbEntity
  8
0
100
AcDbCircle
 10
-34.65552912756215
 20
54.67635970000001
 30
0.0
 40
240.0
100
AcDbArc
 50
1.107464
 51
18.194929
  0
ARC
  5
337
330
1F
100
AcDbEntity
  8
0
100
AcDbCircle
 10
162.8445449243379
 20
65.9098012788
 30
0.0
 40
5.0
100
AcDbArc
 50
2.6618699534
 51
88.0
  0
LINE
  5
338
330
1F
100
AcDbEntity
  8
0
100
AcDbLine
 10
163.0190424078378
 20
70.9067554139
 30
0.0
 11
125.2398583823378
 21
72.2260335908
 31
0.0
  0
LINE
  5
339
330
1F
100
AcDbEntity
  8
0
100
AcDbLine
 10
194.4244368724379
 20
59.57510070000001
 30
0.0
 11
202.6744368724379
 21
59.57510070000001
 31
0.0
  0
LINE
  5
33A
330
1F
100
AcDbEntity
  8
0
100
AcDbLine
 10
181.6432788724379
 20
53.89193970000001
 30
0.0
 11
200.3878308724379
 21
54.21911870000001
 31
0.0
  0
LINE
  5
33B
330
1F
100
AcDbEntity
  8
CENTER
100
AcDbLine
 10
190.3444658724379
 20
59.0438155977
 30
0.0
 11
190.3444658724379
 21
36.8919397
 31
0.0
  0
ARC
  5
33C
330
1F
100
AcDbEntity
  8
0
100
AcDbCircle
 10
181.6432788724379
 20
50.89193970000001
 30
0.0
 40
3.0
100
AcDbArc
 50
90.0
 51
175.000504
  0
LINE
  5
33D
330
1F
100
AcDbEntity
  8
HIDS
  6
sekkei_H
100
AcDbLine
 10
184.8444658724379
 20
53.94781970000001
 30
0.0
 11
184.8444658724379
 21
41.89193970000001
 31
0.0
  0
LINE
  5
33E
330
1F
100
AcDbEntity
  8
0
100
AcDbLine
 10
178.6546918724379
 20
51.1533797
 30
0.0
 11
177.8444658724379
 21
41.89193970000001
 31
0.0
  0
LINE
  5
33F
330
1F
100
AcDbEntity
  8
0
100
AcDbLine
 10
179.8444658724379
 20
55.3919987
 30
0.0
 11
184.4491708724378
 21
55.2311997
 31
0.0
  0
LINE
  5
340
330
1F
100
AcDbEntity
  8
0
100
AcDbLine
 10
168.8444601139378
 20
55.39200270000001
 30
0.0
 11
167.8444681774379
 21
56.39200270000001
 31
0.0
  0
LINE
  5
341
330
1F
100
AcDbEntity
  8
0
100
AcDbLine
 10
179.8444658724379
 20
55.39200270000001
 30
0.0
 11
168.8444601139378
 21
55.39200270000001
 31
0.0
  0
LINE
  5
342
330
1F
100
AcDbEntity
  8
0
100
AcDbLine
 10
192.7194658724379
 20
59.57510070000001
 30
0.0
 11
188.2194658724379
 21
59.57510070000001
 31
0.0
  0
LINE
  5
343
330
1F
100
AcDbEntity
  8
0
100
AcDbLine
 10
195.3444658724379
 20
54.1797797
 30
0.0
 11
195.3444658724379
 21
59.57510070000001
 31
0.0
  0
ARC
  5
344
330
1F
100
AcDbEntity
  8
0
100
AcDbCircle
 10
184.3444658724379
 20
52.23302770000001
 30
0.0
 40
3.0
100
AcDbArc
 50
35.652653
 51
88.0
  0
ARC
  5
345
330
1F
100
AcDbEntity
  8
0
100
AcDbCircle
 10
200.3005658724379
 20
59.2183807
 30
0.0
 40
5.0
100
AcDbArc
 50
271.000092
 51
1.107673
  0
LINE
  5
346
330
1F
100
AcDbEntity
  8
HIDS
  6
sekkei_H
100
AcDbLine
 10
195.8444658724379
 20
54.13981870000001
 30
0.0
 11
195.8444658724379
 21
41.89193970000001
 31
0.0
  0
LINE
  5
347
330
1F
100
AcDbEntity
  8
0
100
AcDbLine
 10
116.3445568724379
 20
142.8920027
 30
0.0
 11
116.3445568724379
 21
82.8920027
 31
0.0
  0
LINE
  5
348
330
1F
100
AcDbEntity
  8
0
100
AcDbLine
 10
122.3445568724379
 20
75.2242060719
 30
0.0
 11
122.3445568724379
 21
148.2791964848
 31
0.0
  0
ARC
  5
349
330
1F
100
AcDbEntity
  8
0
100
AcDbCircle
 10
119.3445568724379
 20
79.7854117586
 30
0.0
 40
3.0
100
AcDbArc
 50
0.0
 51
88.0
  0
LINE
  5
34A
330
1F
100
AcDbEntity
  8
0
100
AcDbLine
 10
119.4492553625378
 20
82.7835842397
 30
0.0
 11
116.3445568724379
 21
82.8920027
 31
0.0
  0
LINE
  5
34B
330
1F
100
AcDbEntity
  8
0
100
AcDbLine
 10
163.0190424078378
 20
154.8772499862
 30
0.0
 11
125.2398583823378
 21
153.5579718092
 31
0.0
  0
ARC
  5
34C
330
1F
100
AcDbEntity
  8
0
100
AcDbCircle
 10
119.3445568724379
 20
145.9985936414
 30
0.0
 40
3.0
100
AcDbArc
 50
272.0000000000001
 51
0.0
  0
ARC
  5
34D
330
1F
100
AcDbEntity
  8
0
100
AcDbCircle
 10
125.3445568724379
 20
150.5597993282
 30
0.0
 40
3.0
100
AcDbArc
 50
91.99999999999997
 51
180.0
  0
LINE
  5
34E
330
1F
100
AcDbEntity
  8
0
100
AcDbLine
 10
122.3445568724379
 20
150.5597993282
 30
0.0
 11
122.3445568724379
 21
145.9985936414
 31
0.0
  0
LINE
  5
34F
330
1F
100
AcDbEntity
  8
0
100
AcDbLine
 10
119.4492553625378
 20
143.0004211603
 30
0.0
 11
116.3445568724379
 21
142.8920027
 31
0.0
  0
LINE
  5
350
330
1F
100
AcDbEntity
  8
0
100
AcDbLine
 10
194.4244368724379
 20
76.39511970000001
 30
0.0
 11
202.6744368724379
 21
76.39511970000001
 31
0.0
  0
LINE
  5
351
330
1F
100
AcDbEntity
  8
0
100
AcDbLine
 10
192.7194658724379
 20
76.39511970000001
 30
0.0
 11
188.2194658724379
 21
76.39511970000001
 31
0.0
  0
ARC
  5
352
330
1F
100
AcDbEntity
  8
0
100
AcDbCircle
 10
260.8442828724379
 20
73.89421870000001
 30
0.0
 40
3.0
100
AcDbArc
 50
129.088806
 51
180.0
  0
ARC
  5
353
330
1F
100
AcDbEntity
  8
0
100
AcDbCircle
 10
402.3444658724379
 20
105.8920027
 30
0.0
 40
170.0
100
AcDbArc
 50
180.0
 51
196.423492
  0
ARC
  5
354
330
1F
100
AcDbEntity
  8
0
100
AcDbCircle
 10
231.1196728724378
 20
213.7536437
 30
0.0
 40
142.392197
100
AcDbArc
 50
273.5635990000002
 51
280.30011
  0
LINE
  5
355
330
1F
100
AcDbEntity
  8
0
100
AcDbLine
 10
243.9894848724379
 20
54.24195970000001
 30
0.0
 11
264.0456678724378
 21
53.89193970000001
 31
0.0
  0
ARC
  5
356
330
1F
100
AcDbEntity
  8
0
100
AcDbCircle
 10
244.0766738724378
 20
59.24113870000001
 30
0.0
 40
5.0
100
AcDbArc
 50
196.423294
 51
269.0006100000001
  0
LINE
  5
357
330
1F
100
AcDbEntity
  8
HIDS
  6
sekkei_H
100
AcDbLine
 10
249.8444658724379
 20
54.13977870000001
 30
0.0
 11
249.8444658724379
 21
41.89193970000001
 31
0.0
  0
ARC
  5
358
330
1F
100
AcDbEntity
  8
0
100
AcDbCircle
 10
264.0416698724379
 20
56.89247970000001
 30
0.0
 40
3.0
100
AcDbArc
 50
197.075195
 51
269.0006100000001
  0
ARC
  5
359
330
1F
100
AcDbEntity
  8
0
100
AcDbCircle
 10
264.0456678724378
 20
50.89191870000001
 30
0.0
 40
3.0
100
AcDbArc
 50
5.000379999999999
 51
90.0
  0
LINE
  5
35A
330
1F
100
AcDbEntity
  8
HIDS
  6
sekkei_H
100
AcDbLine
 10
260.8444658724379
 20
53.9478007
 30
0.0
 11
260.8444658724379
 21
41.89193970000001
 31
0.0
  0
LINE
  5
35B
330
1F
100
AcDbEntity
  8
CENTER
100
AcDbLine
 10
255.3444658724379
 20
59.0437928579
 30
0.0
 11
255.3444658724379
 21
36.8919397
 31
0.0
  0
LINE
  5
35C
330
1F
100
AcDbEntity
  8
0
100
AcDbLine
 10
267.0342848724379
 20
51.1534197
 30
0.0
 11
267.8444658724379
 21
41.89193970000001
 31
0.0
  0
ARC
  5
35D
330
1F
100
AcDbEntity
  8
0
100
AcDbCircle
 10
248.1716748724378
 20
72.8920597
 30
0.0
 40
17.0
100
AcDbArc
 50
313.649994
 51
356.642792
  0
ARC
  5
35E
330
1F
100
AcDbEntity
  8
0
100
AcDbCircle
 10
337.6476578724378
 20
79.5016987
 30
0.0
 40
80.0
100
AcDbArc
 50
184.019104
 51
197.075302
  0
LINE
  5
35F
330
1F
100
AcDbEntity
  8
0
100
AcDbLine
 10
268.3444658724379
 20
154.3919947
 30
0.0
 11
268.3444658724379
 21
109.3919947
 31
0.0
  0
ARC
  5
360
330
1F
100
AcDbEntity
  8
0
100
AcDbCircle
 10
265.8444658724379
 20
109.3919947
 30
0.0
 40
2.5
100
AcDbArc
 50
280.934479
 51
0.0
  0
LINE
  5
361
330
1F
100
AcDbEntity
  8
0
100
AcDbLine
 10
270.3444658724379
 20
143.8920027
 30
0.0
 11
270.3444658724379
 21
119.8920027
 31
0.0
  0
LINE
  5
362
330
1F
100
AcDbEntity
  8
0
100
AcDbLine
 10
268.3444658724379
 20
119.8920027
 30
0.0
 11
270.3444658724379
 21
119.8920027
 31
0.0
  0
LINE
  5
363
330
1F
100
AcDbEntity
  8
0
100
AcDbLine
 10
268.3444658724379
 20
143.8920027
 30
0.0
 11
270.3444658724379
 21
143.8920027
 31
0.0
  0
LINE
  5
364
330
1F
100
AcDbEntity
  8
0
100
AcDbLine
 10
310.3444658724379
 20
142.8920027
 30
0.0
 11
310.3444658724379
 21
120.8920027
 31
0.0
  0
ARC
  5
365
330
1F
100
AcDbEntity
  8
0
100
AcDbCircle
 10
193.3444658724379
 20
-349.1888003
 30
0.0
 40
530.0
100
AcDbArc
 50
83.71740699999997
 51
89.00066399999999
  0
LINE
  5
366
330
1F
100
AcDbEntity
  8
0
100
AcDbLine
 10
193.3444658724379
 20
180.8918427
 30
0.0
 11
202.5872938724378
 21
180.7305567
 31
0.0
  0
LINE
  5
367
330
1F
100
AcDbEntity
  8
0
100
AcDbLine
 10
184.4491708724378
 20
170.5527927
 30
0.0
 11
179.8444658724379
 21
170.3919947
 31
0.0
  0
LINE
  5
368
330
1F
100
AcDbEntity
  8
0
100
AcDbLine
 10
168.8444601139378
 20
170.3920027
 30
0.0
 11
167.8444681774379
 21
169.3920027001
 31
0.0
  0
LINE
  5
369
330
1F
100
AcDbEntity
  8
0
100
AcDbLine
 10
179.8444658724379
 20
170.3920027
 30
0.0
 11
168.8444601139378
 21
170.3920027
 31
0.0
  0
ARC
  5
36A
330
1F
100
AcDbEntity
  8
0
100
AcDbCircle
 10
184.3444658724379
 20
173.5509767
 30
0.0
 40
3.0
100
AcDbArc
 50
272.0000000000001
 51
0.0
  0
ARC
  5
36B
330
1F
100
AcDbEntity
  8
0
100
AcDbCircle
 10
189.3444658724379
 20
178.7865727
 30
0.0
 40
2.0
100
AcDbArc
 50
91.497711
 51
180.0
  0
LINE
  5
36C
330
1F
100
AcDbEntity
  8
0
100
AcDbLine
 10
189.2922038724378
 20
180.7858857
 30
0.0
 11
193.3444658724379
 21
180.8918427
 31
0.0
  0
ARC
  5
36D
330
1F
100
AcDbEntity
  8
0
100
AcDbCircle
 10
232.1412798724378
 20
122.0674787
 30
0.0
 40
57.0
100
AcDbArc
 50
66.962921
 51
68.615097
  0
ARC
  5
36E
330
1F
100
AcDbEntity
  8
0
100
AcDbCircle
 10
251.1786638724378
 20
176.1372807
 30
0.0
 40
1.5
100
AcDbArc
 50
327.711788
 51
83.717537
  0
ARC
  5
36F
330
1F
100
AcDbEntity
  8
0
100
AcDbCircle
 10
253.1074658724378
 20
175.6087467
 30
0.0
 40
0.5
100
AcDbArc
 50
164.676605
 51
248.615402
  0
LINE
  5
370
330
1F
100
AcDbEntity
  8
0
100
AcDbLine
 10
264.9596698724379
 20
156.8919947
 30
0.0
 11
265.8444658724379
 21
156.8919947
 31
0.0
  0
CIRCLE
  5
371
330
1F
100
AcDbEntity
  8
0
100
AcDbCircle
 10
465.4266268639379
 20
131.8920027
 30
0.0
 40
25.0
  0
ARC
  5
372
330
1F
100
AcDbEntity
  8
0
100
AcDbCircle
 10
440.9266268639379
 20
118.3920027
 30
0.0
 40
84.0
100
AcDbArc
 50
354.369308
 51
27.313181
  0
LINE
  5
373
330
1F
100
AcDbEntity
  8
CENTER
100
AcDbLine
 10
465.4266268639379
 20
190.8917017
 30
0.0
 11
465.4266268639379
 21
35.6
 31
0.0
  0
ARC
  5
374
330
1F
100
AcDbEntity
  8
0
100
AcDbCircle
 10
489.9266268639379
 20
118.3920027
 30
0.0
 40
84.0
100
AcDbArc
 50
152.686905
 51
185.630707
  0
ARC
  5
375
330
1F
100
AcDbEntity
  8
0
100
AcDbCircle
 10
427.6276158639378
 20
50.8919987
 30
0.0
 40
3.0
100
AcDbArc
 50
5.000447999999999
 51
90.0
  0
LINE
  5
376
330
1F
100
AcDbEntity
  8
0
100
AcDbLine
 10
388.3570158639379
 20
41.8919987
 30
0.0
 11
431.4264438639379
 21
41.8919987
 31
0.0
  0
ARC
  5
377
330
1F
100
AcDbEntity
  8
0
100
AcDbCircle
 10
428.7296358639379
 20
64.1281397
 30
0.0
 40
2.0
100
AcDbArc
 50
56.68413900000001
 51
159.996307
  0
ARC
  5
378
330
1F
100
AcDbEntity
  8
0
100
AcDbCircle
 10
428.0348418639379
 20
59.29525870000001
 30
0.0
 40
3.0
100
AcDbArc
 50
61.08963000000001
 51
159.996201
  0
ARC
  5
379
330
1F
100
AcDbEntity
  8
0
100
AcDbCircle
 10
417.3156338639379
 20
73.70248070000001
 30
0.0
 40
5.0
100
AcDbArc
 50
339.99765
 51
21.214849
  0
ARC
  5
37A
330
1F
100
AcDbEntity
  8
0
100
AcDbCircle
 10
529.4266268639378
 20
131.8920027
 30
0.0
 40
125.0
100
AcDbArc
 50
190.016403
 51
208.906906
  0
LINE
  5
37B
330
1F
100
AcDbEntity
  8
0
100
AcDbLine
 10
400.5784208639379
 20
129.6157497
 30
0.0
 11
388.3570158639379
 21
41.8919987
 31
0.0
  0
LINE
  5
37C
330
1F
100
AcDbEntity
  8
0
100
AcDbLine
 10
392.6398228639378
 20
53.8919987
 30
0.0
 11
411.9256198639378
 21
53.8919987
 31
0.0
  0
ARC
  5
37D
330
1F
100
AcDbEntity
  8
0
100
AcDbCircle
 10
392.6398228639378
 20
50.8921187
 30
0.0
 40
3.0
100
AcDbArc
 50
90.0
 51
172.069107
  0
LINE
  5
37E
330
1F
100
AcDbEntity
  8
HIDS
  6
sekkei_H
100
AcDbLine
 10
394.9266268639379
 20
53.8919987
 30
0.0
 11
394.9266268639379
 21
41.8919987
 31
0.0
  0
ARC
  5
37F
330
1F
100
AcDbEntity
  8
0
100
AcDbCircle
 10
411.9256198639378
 20
58.8919987
 30
0.0
 40
5.0
100
AcDbArc
 50
270.0
 51
339.998688
  0
LINE
  5
380
330
1F
100
AcDbEntity
  8
HIDS
  6
sekkei_H
100
AcDbLine
 10
405.9266268639379
 20
53.8919987
 30
0.0
 11
405.9266268639379
 21
41.8919987
 31
0.0
  0
LINE
  5
381
330
1F
100
AcDbEntity
  8
CENTER
100
AcDbLine
 10
400.4266268639379
 20
36.8919987
 30
0.0
 11
400.4266268639379
 21
58.8919987
 31
0.0
  0
ARC
  5
382
330
1F
100
AcDbEntity
  8
0
100
AcDbCircle
 10
427.1608188639379
 20
56.8919987
 30
0.0
 40
3.0
100
AcDbArc
 50
159.998993
 51
270.0
  0
LINE
  5
383
330
1F
100
AcDbEntity
  8
0
100
AcDbLine
 10
427.1608188639379
 20
53.8919987
 30
0.0
 11
411.9256198639378
 21
53.8919987
 31
0.0
  0
LINE
  5
384
330
1F
100
AcDbEntity
  8
0
100
AcDbLine
 10
427.6276158639378
 20
53.8919987
 30
0.0
 11
427.1608188639379
 21
53.8919987
 31
0.0
  0
ARC
  5
385
330
1F
100
AcDbEntity
  8
0
100
AcDbCircle
 10
415.6236178639378
 20
69.0517207
 30
0.0
 40
5.0
100
AcDbArc
 50
339.99847
 51
28.90654899999999
  0
LINE
  5
386
330
1F
100
AcDbEntity
  8
0
100
AcDbLine
 10
416.6236178639378
 20
57.18180170000001
 30
0.0
 11
422.0144258639379
 21
71.99210070000001
 31
0.0
  0
LINE
  5
387
330
1F
100
AcDbEntity
  8
0
100
AcDbLine
 10
424.3406278639379
 20
57.9180607
 30
0.0
 11
426.8506378639378
 21
64.81234070000001
 31
0.0
  0
ARC
  5
388
330
1F
100
AcDbEntity
  8
0
100
AcDbCircle
 10
521.4266268639378
 20
112.8920027
 30
0.0
 40
122.0
100
AcDbArc
 50
159.600296
 51
172.120895
  0
ARC
  5
389
330
1F
100
AcDbEntity
  8
0
100
AcDbCircle
 10
513.5376498639378
 20
73.70248070000001
 30
0.0
 40
5.0
100
AcDbArc
 50
158.785202
 51
200.002304
  0
ARC
  5
38A
330
1F
100
AcDbEntity
  8
0
100
AcDbCircle
 10
401.4266268639379
 20
131.8920027
 30
0.0
 40
125.0
100
AcDbArc
 50
331.00276
 51
349.98358
  0
LINE
  5
38B
330
1F
100
AcDbEntity
  8
0
100
AcDbLine
 10
530.2748318639378
 20
129.6161847
 30
0.0
 11
542.4962068639379
 21
41.89193970000001
 31
0.0
  0
ARC
  5
38C
330
1F
100
AcDbEntity
  8
0
100
AcDbCircle
 10
465.4266268639379
 20
-154.1080053
 30
0.0
 40
200.0
100
AcDbArc
 50
80.184753
 51
99.81522399999999
  0
ARC
  5
38D
330
1F
100
AcDbEntity
  8
0
100
AcDbCircle
 10
465.4266268639379
 20
178.8919947
 30
0.0
 40
123.0
100
AcDbArc
 50
270.0
 51
284.232086
  0
ARC
  5
38E
330
1F
100
AcDbEntity
  8
0
100
AcDbCircle
 10
465.4266268639379
 20
178.8919947
 30
0.0
 40
123.0
100
AcDbArc
 50
255.768005
 51
270.0
  0
LINE
  5
38F
330
1F
100
AcDbEntity
  8
0
100
AcDbLine
 10
430.6166288639378
 20
51.15354070000001
 30
0.0
 11
431.4264438639379
 21
41.8919987
 31
0.0
  0
ARC
  5
390
330
1F
100
AcDbEntity
  8
0
100
AcDbCircle
 10
441.0878208639378
 20
82.9304017
 30
0.0
 40
24.0
100
AcDbArc
 50
241.089401
 51
255.767899
  0
ARC
  5
391
330
1F
100
AcDbEntity
  8
0
100
AcDbCircle
 10
517.5274568639379
 20
56.8921787
 30
0.0
 40
3.0
100
AcDbArc
 50
199.9996949999999
 51
270.0
  0
LINE
  5
392
330
1F
100
AcDbEntity
  8
0
100
AcDbLine
 10
503.6928008639379
 20
53.8919987
 30
0.0
 11
518.9276028639379
 21
53.8919987
 31
0.0
  0
LINE
  5
393
330
1F
100
AcDbEntity
  8
0
100
AcDbLine
 10
542.4962068639379
 20
41.89193970000001
 30
0.0
 11
499.4268098639379
 21
41.89193970000001
 31
0.0
  0
ARC
  5
394
330
1F
100
AcDbEntity
  8
0
100
AcDbCircle
 10
503.6928008639379
 20
56.8919987
 30
0.0
 40
3.0
100
AcDbArc
 50
270.0
 51
20.00141
  0
ARC
  5
395
330
1F
100
AcDbEntity
  8
0
100
AcDbCircle
 10
503.2256378639378
 20
50.8919987
 30
0.0
 40
3.0
100
AcDbArc
 50
90.0
 51
175.0
  0
LINE
  5
396
330
1F
100
AcDbEntity
  8
0
100
AcDbLine
 10
500.2366238639378
 20
51.15354070000001
 30
0.0
 11
499.4268098639379
 21
41.89193970000001
 31
0.0
  0
ARC
  5
397
330
1F
100
AcDbEntity
  8
0
100
AcDbCircle
 10
489.7658598639378
 20
82.9305197
 30
0.0
 40
24.0
100
AcDbArc
 50
284.232086
 51
298.909698
  0
ARC
  5
398
330
1F
100
AcDbEntity
  8
0
100
AcDbCircle
 10
515.2296048639378
 20
69.0514797
 30
0.0
 40
5.0
100
AcDbArc
 50
151.093506
 51
199.999603
  0
ARC
  5
399
330
1F
100
AcDbEntity
  8
0
100
AcDbCircle
 10
502.1236478639378
 20
64.1281397
 30
0.0
 40
2.0
100
AcDbArc
 50
20.003691
 51
123.315903
  0
ARC
  5
39A
330
1F
100
AcDbEntity
  8
0
100
AcDbCircle
 10
502.8186558639379
 20
59.29513970000001
 30
0.0
 40
3.0
100
AcDbArc
 50
20.00012
 51
118.910202
  0
LINE
  5
39B
330
1F
100
AcDbEntity
  8
0
100
AcDbLine
 10
503.2256378639378
 20
53.8919987
 30
0.0
 11
503.6928008639379
 21
53.8919987
 31
0.0
  0
LINE
  5
39C
330
1F
100
AcDbEntity
  8
0
100
AcDbLine
 10
514.7636018639378
 20
55.7121207
 30
0.0
 11
508.8386138639378
 21
71.9914217
 31
0.0
  0
LINE
  5
39D
330
1F
100
AcDbEntity
  8
0
100
AcDbLine
 10
506.5116488639379
 20
57.9180607
 30
0.0
 11
504.0026158639378
 21
64.8117417
 31
0.0
  0
ARC
  5
39E
330
1F
100
AcDbEntity
  8
0
100
AcDbCircle
 10
538.2134308639379
 20
50.8921797
 30
0.0
 40
3.0
100
AcDbArc
 50
7.931652000000001
 51
90.0
  0
LINE
  5
39F
330
1F
100
AcDbEntity
  8
CENTER
100
AcDbLine
 10
530.4266268639378
 20
58.8919987
 30
0.0
 11
530.4266268639378
 21
36.8919397
 31
0.0
  0
LINE
  5
3A0
330
1F
100
AcDbEntity
  8
HIDS
  6
sekkei_H
100
AcDbLine
 10
535.9266268639378
 20
53.8919987
 30
0.0
 11
535.9266268639378
 21
41.8919987
 31
0.0
  0
LINE
  5
3A1
330
1F
100
AcDbEntity
  8
HIDS
  6
sekkei_H
100
AcDbLine
 10
524.9266268639378
 20
53.8919987
 30
0.0
 11
524.9266268639378
 21
41.8919987
 31
0.0
  0
LINE
  5
3A2
330
1F
100
AcDbEntity
  8
0
100
AcDbLine
 10
538.2134308639379
 20
53.8919987
 30
0.0
 11
518.9276028639379
 21
53.8919987
 31
0.0
  0
LINE
  5
3A3
330
1F
100
AcDbEntity
  8
CENTER
100
AcDbLine
 10
430.4266268639379
 20
131.8920027
 30
0.0
 11
500.4266268639379
 21
131.8920027
 31
0.0
  0
LINE
  5
3A4
330
1F
100
AcDbEntity
  8
0
100
AcDbLine
 10
468.4266268639379
 20
145.3920027
 30
0.0
 11
468.4266268639379
 21
139.3920027
 31
0.0
  0
LINE
  5
3A5
330
1F
100
AcDbEntity
  8
0
100
AcDbLine
 10
462.4266268639379
 20
145.3920027
 30
0.0
 11
462.4266268639379
 21
139.3920027
 31
0.0
  0
ARC
  5
3A6
330
1F
100
AcDbEntity
  8
0
100
AcDbCircle
 10
465.4266268639379
 20
131.8920027
 30
0.0
 40
11.0
100
AcDbArc
 50
105.826599
 51
74.17340100000001
  0
LINE
  5
3A7
330
1F
100
AcDbEntity
  8
0
100
AcDbLine
 10
468.4266268639379
 20
145.3920027
 30
0.0
 11
462.4266268639379
 21
145.3920027
 31
0.0
  0
LINE
  5
3A8
330
1F
100
AcDbEntity
  8
0
100
AcDbLine
 10
468.4266268639379
 20
139.3920027
 30
0.0
 11
462.4266268639379
 21
139.3920027
 31
0.0
  0
ARC
  5
3A9
330
1F
100
AcDbEntity
  8
0
100
AcDbCircle
 10
409.4266268639379
 20
112.8920027
 30
0.0
 40
122.0
100
AcDbArc
 50
7.879120000000001
 51
20.399799
  0
LINE
  5
3AA
330
1F
100
AcDbEntity
  8
CENTER
100
AcDbLine
 10
388.2485195216379
 20
112.8920027
 30
0.0
 11
542.6047749690379
 21
112.8920027
 31
0.0
  0
LINE
  5
3AB
330
1F
100
AcDbEntity
  8
CENTER
100
AcDbLine
 10
170.2686748724378
 20
163.8919947
 30
0.0
 11
162.2193738724379
 21
163.8919947
 31
0.0
  0
LINE
  5
3AC
330
1F
100
AcDbEntity
  8
CENTER
100
AcDbLine
 10
180.1907328724378
 20
160.6217007
 30
0.0
 11
191.2674698724379
 21
160.6217007
 31
0.0
  0
LINE
  5
3AD
330
1F
100
AcDbEntity
  8
0
100
AcDbLine
 10
182.6444688724379
 20
156.3717007
 30
0.0
 11
187.3444658724379
 21
156.3717007
 31
0.0
  0
LINE
  5
3AE
330
1F
100
AcDbEntity
  8
0
100
AcDbLine
 10
187.3444658724379
 20
164.8717007
 30
0.0
 11
182.6444688724379
 21
164.8717007
 31
0.0
  0
LINE
  5
3AF
330
1F
100
AcDbEntity
  8
0
100
AcDbLine
 10
182.6444688724379
 20
156.3717007
 30
0.0
 11
182.6444688724379
 21
164.8717007
 31
0.0
  0
LINE
  5
3B0
330
1F
100
AcDbEntity
  8
0
100
AcDbLine
 10
182.3444658724379
 20
164.3520937
 30
0.0
 11
182.3444658724379
 21
156.8913237
 31
0.0
  0
LINE
  5
3B1
330
1F
100
AcDbEntity
  8
0
100
AcDbLine
 10
182.6444688724379
 20
156.3717007
 30
0.0
 11
182.3444658724379
 21
156.8913237
 31
0.0
  0
LINE
  5
3B2
330
1F
100
AcDbEntity
  8
0
100
AcDbLine
 10
182.3444658724379
 20
164.3520937
 30
0.0
 11
182.6444688724379
 21
164.8717007
 31
0.0
  0
LINE
  5
3B3
330
1F
100
AcDbEntity
  8
0
100
AcDbLine
 10
182.6444688724379
 20
59.27560870000001
 30
0.0
 11
182.6444688724379
 21
67.7756087
 31
0.0
  0
LINE
  5
3B4
330
1F
100
AcDbEntity
  8
0
100
AcDbLine
 10
182.3444658724379
 20
67.2559937
 30
0.0
 11
182.3444658724379
 21
59.79522370000001
 31
0.0
  0
LINE
  5
3B5
330
1F
100
AcDbEntity
  8
CENTER
100
AcDbLine
 10
180.1907328724378
 20
63.52560870000001
 30
0.0
 11
191.2674698724379
 21
63.52560870000001
 31
0.0
  0
LINE
  5
3B6
330
1F
100
AcDbEntity
  8
0
100
AcDbLine
 10
182.6444688724379
 20
59.27560870000001
 30
0.0
 11
187.3444658724379
 21
59.27560870000001
 31
0.0
  0
LINE
  5
3B7
330
1F
100
AcDbEntity
  8
0
100
AcDbLine
 10
182.6444688724379
 20
59.27560870000001
 30
0.0
 11
182.3444658724379
 21
59.79522370000001
 31
0.0
  0
LINE
  5
3B8
330
1F
100
AcDbEntity
  8
0
100
AcDbLine
 10
187.3444658724379
 20
67.7756087
 30
0.0
 11
182.6444688724379
 21
67.7756087
 31
0.0
  0
LINE
  5
3B9
330
1F
100
AcDbEntity
  8
0
100
AcDbLine
 10
182.3444658724379
 20
67.2559937
 30
0.0
 11
182.6444688724379
 21
67.7756087
 31
0.0
  0
LINE
  5
3BA
330
1F
100
AcDbEntity
  8
0
100
AcDbLine
 10
164.0444628724379
 20
83.1419947
 30
0.0
 11
164.0444628724379
 21
91.6420027
 31
0.0
  0
LINE
  5
3BB
330
1F
100
AcDbEntity
  8
0
100
AcDbLine
 10
163.0444628724379
 20
84.14200670000001
 30
0.0
 11
163.0444628724379
 21
90.6420027
 31
0.0
  0
LINE
  5
3BC
330
1F
100
AcDbEntity
  8
0
100
AcDbLine
 10
164.0444628724379
 20
83.1419947
 30
0.0
 11
167.8446788724378
 21
83.1419947
 31
0.0
  0
LINE
  5
3BD
330
1F
100
AcDbEntity
  8
0
100
AcDbLine
 10
163.0444628724379
 20
84.14200670000001
 30
0.0
 11
164.0444628724379
 21
83.1419947
 31
0.0
  0
LINE
  5
3BE
330
1F
100
AcDbEntity
  8
0
100
AcDbLine
 10
164.0444628724379
 20
91.6420027
 30
0.0
 11
167.8447558724379
 21
91.6420027
 31
0.0
  0
LINE
  5
3BF
330
1F
100
AcDbEntity
  8
CENTER
100
AcDbLine
 10
170.2686748724378
 20
87.3920027
 30
0.0
 11
162.2193738724379
 21
87.3920027
 31
0.0
  0
LINE
  5
3C0
330
1F
100
AcDbEntity
  8
0
100
AcDbLine
 10
163.0444628724379
 20
90.6420027
 30
0.0
 11
164.0444628724379
 21
91.6420027
 31
0.0
  0
CIRCLE
  5
3C1
330
1F
100
AcDbEntity
  8
HOJO
100
AcDbCircle
 10
465.4266268639379
 20
131.8920027
 30
0.0
 40
4.0
  0
CIRCLE
  5
3C2
330
1F
100
AcDbEntity
  8
0
100
AcDbCircle
 10
465.4266268639379
 20
131.8920027
 30
0.0
 40
3.45
  0
ARC
  5
3C3
330
1F
100
AcDbEntity
  8
0
100
AcDbCircle
 10
465.4266268639379
 20
70.8917017
 30
0.0
 40
110.0
100
AcDbArc
 50
80.23047588277569
 51
90.0
  0
ARC
  5
3C4
330
1F
100
AcDbEntity
  8
0
100
AcDbCircle
 10
493.7936308639378
 20
145.6938217
 30
0.0
 40
24.5
100
AcDbArc
 50
27.31327100000001
 51
49.60971080522432
  0
ARC
  5
3C5
330
1F
100
AcDbEntity
  8
0
100
AcDbCircle
 10
465.4266268639379
 20
70.8917017
 30
0.0
 40
110.0
100
AcDbArc
 50
90.0
 51
100.0409962300262
  0
ARC
  5
3C6
330
1F
100
AcDbEntity
  8
0
100
AcDbCircle
 10
437.0606298639379
 20
145.6938217
 30
0.0
 40
24.5
100
AcDbArc
 50
131.0098216951579
 51
152.686707
  0
ARC
  5
3C7
330
1F
100
AcDbEntity
  8
0
100
AcDbCircle
 10
435.1966158639379
 20
144.9603007
 30
0.0
 40
30.0
100
AcDbArc
 50
122.131552174877
 51
159.600006
  0
ARC
  5
3C8
330
1F
100
AcDbEntity
  8
0
100
AcDbCircle
 10
495.6566068639378
 20
144.9603007
 30
0.0
 40
30.0
100
AcDbArc
 50
20.39996899999998
 51
59.20400531915972
  0
ARC
  5
3C9
330
1F
100
AcDbEntity
  8
0
100
AcDbCircle
 10
465.4266268639379
 20
70.8918197
 30
0.0
 40
104.5
100
AcDbArc
 50
90.0
 51
105.9194427201536
  0
ARC
  5
3CA
330
1F
100
AcDbEntity
  8
0
100
AcDbCircle
 10
465.4266268639379
 20
70.8918197
 30
0.0
 40
104.5
100
AcDbArc
 50
73.9943807099002
 51
90.0
  0
ARC
  5
3CB
330
1F
100
AcDbEntity
  8
0
100
AcDbCircle
 10
247.7942638724379
 20
158.8776057
 30
0.0
 40
17.0
100
AcDbArc
 50
38.36051975974485
 51
66.96292899999997
  0
LINE
  5
3CC
330
1F
100
AcDbEntity
  8
0
  6
sekkei_H
100
AcDbLine
 10
287.3444658724379
 20
138.4920027000003
 30
0.0
 11
310.3444658724379
 21
138.4920027000003
 31
0.0
  0
LINE
  5
3CD
330
1F
100
AcDbEntity
  8
0
100
AcDbLine
 10
287.3444658724379
 20
142.8920027
 30
0.0
 11
310.3444658724379
 21
142.8920027
 31
0.0
  0
LINE
  5
3CE
330
1F
100
AcDbEntity
  8
0
100
AcDbLine
 10
287.3444658724379
 20
120.8920027
 30
0.0
 11
310.3444658724379
 21
120.8920027
 31
0.0
  0
ARC
  5
3CF
330
1F
100
AcDbEntity
  8
0
100
AcDbCircle
 10
-433.6559311275622
 20
112.8920027
 30
0.0
 40
700.0
100
AcDbArc
 50
3.603821000000001
 51
3.633266351816284
  0
ARC
  5
3D0
330
1F
100
AcDbEntity
  8
0
100
AcDbCircle
 10
247.7942638724379
 20
158.8776057
 30
0.0
 40
17.0
100
AcDbArc
 50
8.10600794003973
 51
13.50327539738609
  0
VIEWPORT
  5
3D1
102
{ACAD_XDICTIONARY
360
3E2
102
}
330
1B
100
AcDbEntity
 67
     1
  8
0
100
AcDbViewport
 10
0.0
 20
0.0
 30
0.0
 40
528.9234422301291
 41
202.58737422285
 68
     1
 69
     1
 12
289.652387484519
 22
132.48540135
 13
0.0
 23
0.0
 14
10.0
 24
10.0
 15
10.0
 25
10.0
 16
0.0
 26
0.0
 36
1.0
 17
0.0
 27
0.0
 37
0.0
 42
50.0
 43
0.0
 44
0.0
 45
202.58737422285
 50
0.0
 51
0.0
 72
   100
 90
   557152
  1

281
     0
 71
     1
 74
     0
110
0.0
120
0.0
130
0.0
111
1.0
121
0.0
131
0.0
112
0.0
122
1.0
132
0.0
 79
     0
146
0.0
  0
POLYLINE
  5
3D3
102
{ACAD_REACTORS
102
}
330
1B
100
AcDbEntity
 67
     1
  8
rcviewportframe
100
AcDb2dPolyline
 66
     1
 10
0.0
 20
0.0
 30
0.0
 70
     1
  0
VERTEX
  5
3D4
330
3D3
100
AcDbEntity
 67
     1
  8
rcviewportframe
100
AcDbVertex
100
AcDb2dVertex
 10
30.37619031288705
 20
33.17786496625001
 30
0.0
  0
VERTEX
  5
3D5
330
3D3
100
AcDbEntity
 67
     1
  8
rcviewportframe
100
AcDbVertex
100
AcDb2dVertex
 10
548.9285846561509
 20
33.17786496625001
 30
0.0
  0
VERTEX
  5
3D6
330
3D3
100
AcDbEntity
 67
     1
  8
rcviewportframe
100
AcDbVertex
100
AcDb2dVertex
 10
548.9285846561509
 20
231.79293773375
 30
0.0
  0
VERTEX
  5
3D7
330
3D3
100
AcDbEntity
 67
     1
  8
rcviewportframe
100
AcDbVertex
100
AcDb2dVertex
 10
30.37619031288705
 20
231.79293773375
 30
0.0
  0
SEQEND
  5
3D8
330
3D3
100
AcDbEntity
 67
     1
  8
rcviewportframe
  0
VIEWPORT
  5
3D9
102
{ACAD_XDICTIONARY
360
3E4
102
}
330
1B
100
AcDbEntity
 67
     1
  8
新しいレイヤ 1
100
AcDbViewport
 10
289.652387484519
 20
132.48540135
 30
0.0
 40
518.5523943432638
 41
198.6150727675
 68
     2
 69
     2
 12
289.652387484519
 22
132.48540135
 13
0.0
 23
0.0
 14
10.0
 24
10.0
 15
10.0
 25
10.0
 16
0.0
 26
0.0
 36
1.0
 17
0.0
 27
0.0
 37
0.0
 42
50.0
 43
0.0
 44
0.0
 45
198.6150727675
 50
0.0
 51
0.0
 72
   100
 90
   622688
340
3D3
  1

281
     0
 71
     1
 74
     0
110
0.0
120
0.0
130
0.0
111
1.0
121
0.0
131
0.0
112
0.0
122
1.0
132
0.0
 79
     0
146
0.0
  0
ENDSEC
  0
SECTION
  2
OBJECTS
  0
DICTIONARY
  5
C
330
0
100
AcDbDictionary
281
     1
  3
ACAD_GROUP
350
D
  3
ACAD_IMAGE_VARS
350
6F
  3
ACAD_LAYOUT
350
1A
  3
ACAD_MATERIAL
350
43
  3
ACAD_MLEADERSTYLE
350
6B
  3
ACAD_MLINESTYLE
350
17
  3
ACAD_PLOTSETTINGS
350
19
  3
ACAD_PLOTSTYLENAME
350
E
  3
ACAD_SCALELIST
350
47
  3
ACAD_TABLESTYLE
350
69
  3
ACAD_VISUALSTYLE
350
2A
  3
AcDbVariableDictionary
350
3DB
  0
DICTIONARY
  5
3E6
330
8
100
AcDbDictionary
280
     1
281
     1
  3
ACAD_XREC_ROUNDTRIP
360
3E7
  0
DICTIONARY
  5
3E2
330
3D1
100
AcDbDictionary
280
     1
281
     1
  3
ACAD_XREC_ROUNDTRIP
360
3E3
  0
DICTIONARY
  5
3E4
330
3D9
100
AcDbDictionary
280
     1
281
     1
  3
ACAD_XREC_ROUNDTRIP
360
3E5
  0
DICTIONARY
  5
D
102
{ACAD_REACTORS
330
C
102
}
330
C
100
AcDbDictionary
281
     1
  0
RASTERVARIABLES
  5
6F
102
{ACAD_REACTORS
330
C
102
}
330
C
100
AcDbRasterVariables
 90
        0
 70
     0
 71
     1
 72
     0
  0
DICTIONARY
  5
1A
102
{ACAD_REACTORS
330
C
102
}
330
C
100
AcDbDictionary
281
     1
  3
Model
350
22
  3
レイアウト1
350
1E
  0
DICTIONARY
  5
43
102
{ACAD_REACTORS
330
C
102
}
330
C
100
AcDbDictionary
281
     1
  3
ByBlock
350
45
  3
ByLayer
350
44
  3
Global
350
46
  0
DICTIONARY
  5
6B
102
{ACAD_REACTORS
330
C
102
}
330
C
100
AcDbDictionary
281
     1
  3
Standard
350
6C
  0
DICTIONARY
  5
17
102
{ACAD_REACTORS
330
C
102
}
330
C
100
AcDbDictionary
281
     1
  3
Standard
350
18
  0
DICTIONARY
  5
19
102
{ACAD_REACTORS
330
C
102
}
330
C
100
AcDbDictionary
281
     1
  0
ACDBDICTIONARYWDFLT
  5
E
102
{ACAD_REACTORS
330
C
102
}
330
C
100
AcDbDictionary
281
     1
  3
Normal
350
F
100
AcDbDictionaryWithDefault
340
F
  0
DICTIONARY
  5
47
102
{ACAD_REACTORS
330
C
102
}
330
C
100
AcDbDictionary
281
     1
  3
A0
350
48
  3
A1
350
49
  3
A2
350
4A
  3
A3
350
4B
  3
A4
350
4C
  3
A5
350
4D
  3
A6
350
4E
  3
A7
350
4F
  3
A8
350
50
  3
A9
350
51
  3
B0
350
52
  3
B1
350
53
  3
B2
350
54
  3
B3
350
55
  3
B4
350
56
  3
B5
350
57
  3
B6
350
58
  3
B7
350
59
  3
B8
350
5A
  3
B9
350
5B
  3
C0
350
5C
  3
C1
350
5D
  3
C2
350
5E
  3
C3
350
5F
  3
C4
350
60
  3
C5
350
61
  3
C6
350
62
  3
C7
350
63
  3
C8
350
64
  3
C9
350
65
  3
D0
350
66
  3
D1
350
67
  3
D2
350
68
  0
DICTIONARY
  5
69
102
{ACAD_REACTORS
330
C
102
}
330
C
100
AcDbDictionary
281
     1
  3
Standard
350
6A
  0
DICTIONARY
  5
2A
102
{ACAD_REACTORS
330
C
102
}
330
C
100
AcDbDictionary
281
     1
  3
2dWireframe
350
2F
  3
Basic
350
32
  3
Brighten
350
36
  3
ColorChange
350
3A
  3
Conceptual
350
34
  3
Dim
350
35
  3
EdgeColorOff
350
3D
  3
Facepattern
350
39
  3
Flat
350
2B
  3
FlatWithEdges
350
2C
  3
Gouraud
350
2D
  3
GouraudWithEdges
350
2E
  3
Hidden
350
31
  3
JitterOff
350
3B
  3
Linepattern
350
38
  3
OverhangOff
350
3C
  3
Realistic
350
33
  3
Shaded
350
42
  3
Shaded with edges
350
41
  3
Shades of Gray
350
3E
  3
Sketchy
350
3F
  3
Thicken
350
37
  3
Wireframe
350
30
  3
X-Ray
350
40
  0
DICTIONARY
  5
3DB
102
{ACAD_REACTORS
330
C
102
}
330
C
100
AcDbDictionary
281
     1
  3
CANNOSCALE
350
3E8
  3
CMLEADERSTYLE
350
3DD
  3
CTABLESTYLE
350
3DC
  3
DIMASSOC
350
3E0
  3
HIDETEXT
350
3E1
  3
MSLTSCALE
350
3E9
  0
XRECORD
  5
3E7
102
{ACAD_REACTORS
330
3E6
102
}
330
3E6
100
AcDbXrecord
280
     1
102
VTR_0.000_0.000_1.000_1.000_VISUALSTYLE
340
2F
102
VTR_0.000_0.000_1.000_1.000_GRIDDISPLAY
 70
     3
102
VTR_0.000_0.000_1.000_1.000_GRIDMAJOR
 70
     5
102
VTR_0.000_0.000_1.000_1.000_DEFAULTLIGHTING
280
     1
102
VTR_0.000_0.000_1.000_1.000_DEFAULTLIGHTINGTYPE
 70
     1
102
VTR_0.000_0.000_1.000_1.000_BRIGHTNESS
141
0.0
102
VTR_0.000_0.000_1.000_1.000_CONTRAST
142
0.0
  0
XRECORD
  5
3E3
102
{ACAD_REACTORS
330
3E2
102
}
330
3E2
100
AcDbXrecord
280
     1
102
VISUALSTYLE
340
2F
102
GRIDDISPLAY
 70
     2
102
GRIDMAJOR
 70
     5
102
DEFAULTLIGHTING
280
     1
102
DEFAULTLIGHTINGTYPE
 70
     1
102
BRIGHTNESS
141
0.0
102
CONTRAST
142
0.0
  0
XRECORD
  5
3E5
102
{ACAD_REACTORS
330
3E4
102
}
330
3E4
100
AcDbXrecord
280
     1
102
VISUALSTYLE
340
2F
102
GRIDDISPLAY
 70
     2
102
GRIDMAJOR
 70
     5
102
DEFAULTLIGHTING
280
     1
102
DEFAULTLIGHTINGTYPE
 70
     1
102
BRIGHTNESS
141
0.0
102
CONTRAST
142
0.0
  0
LAYOUT
  5
22
102
{ACAD_REACTORS
330
1A
102
}
330
1A
100
AcDbPlotSettings
  1

  2
none_device
  4
Letter_(8.50_x_11.00_Inches)
  6

 40
6.35
 41
6.35
 42
6.35000508
 43
6.35000508
 44
215.9
 45
279.4
 46
0.0
 47
0.0
 48
0.0
 49
0.0
140
0.0
141
0.0
142
1.0
143
1.0
 70
  1712
 72
     0
 73
     0
 74
     0
  7

 75
     0
147
1.0
148
0.0
149
0.0
100
AcDbLayout
  1
Model
 70
     1
 71
     0
 10
37.97023789110882
 20
41.47233120781252
 11
686.1607308201885
 21
289.7411721671875
 12
0.0
 22
0.0
 32
0.0
 14
37.97023789110882
 24
41.47233120781252
 34
0.0
 15
686.1607308201885
 25
289.7411721671875
 35
0.0
146
0.0
 13
0.0
 23
0.0
 33
0.0
 16
1.0
 26
0.0
 36
0.0
 17
0.0
 27
1.0
 37
0.0
 76
     0
330
1F
331
29
  0
LAYOUT
  5
1E
102
{ACAD_REACTORS
330
1A
102
}
330
1A
100
AcDbPlotSettings
  1

  2
none_device
  4
ISO_A2_(594.00_x_420.00_MM)
  6

 40
7.5
 41
20.0
 42
7.5
 43
20.0
 44
594.0
 45
420.0
 46
-7.5
 47
-20.0
 48
0.0
 49
0.0
140
0.0
141
0.0
142
1.0
143
1.0
 70
   688
 72
     1
 73
     0
 74
     5
  7

 75
    16
147
1.0
148
0.0
149
0.0
100
AcDbLayout
  1
レイアウト1
 70
     0
 71
     1
 10
-7.5
 20
-20.0
 11
594.0
 21
420.0
 12
0.0
 22
0.0
 32
0.0
 14
-9.375
 24
-25.0
 34
0.0
 15
742.5
 25
525.0
 35
0.0
146
0.0
 13
0.0
 23
0.0
 33
0.0
 16
1.0
 26
0.0
 36
0.0
 17
0.0
 27
1.0
 37
0.0
 76
     0
330
1B
331
3D1
  0
MATERIAL
  5
45
102
{ACAD_REACTORS
330
43
102
}
102
{ACAD_XDICTIONARY
360
41C
102
}
330
43
100
AcDbMaterial
  1
ByBlock
  0
MATERIAL
  5
44
102
{ACAD_REACTORS
330
43
102
}
102
{ACAD_XDICTIONARY
360
41A
102
}
330
43
100
AcDbMaterial
  1
ByLayer
  0
MATERIAL
  5
46
102
{ACAD_REACTORS
330
43
102
}
102
{ACAD_XDICTIONARY
360
41E
102
}
330
43
100
AcDbMaterial
  1
Global
  0
MLEADERSTYLE
  5
6C
102
{ACAD_REACTORS
330
6B
102
}
102
{ACAD_XDICTIONARY
360
421
102
}
330
6B
100
AcDbMLeaderStyle
170
     2
171
     1
172
     0
 90
        2
 40
0.0
 41
0.0
173
     1
 91
-1056964608
340
14
 92
       -2
290
     1
 42
0.09
291
     1
 43
0.36
  3
Standard
341
0
 44
0.18
300

342
11
174
     1
178
     6
175
     1
176
     0
 93
-1056964608
 45
0.18
292
     0
297
     0
 46
0.18
343
0
 94
-1056964608
 47
1.0
 49
1.0
140
1.0
293
     1
141
0.0
294
     1
177
     0
142
1.0
295
     0
296
     0
143
0.125
1001
ACAD_MLEADERVER
1070
     2
  0
MLINESTYLE
  5
18
102
{ACAD_REACTORS
330
17
102
}
330
17
100
AcDbMlineStyle
  2
Standard
 70
     0
  3

 62
   256
 51
90.0
 52
90.0
 71
     2
 49
0.5
 62
   256
  6
BYLAYER
 49
-0.5
 62
   256
  6
BYLAYER
  0
ACDBPLACEHOLDER
  5
F
102
{ACAD_REACTORS
330
E
102
}
330
E
  0
SCALE
  5
48
102
{ACAD_REACTORS
330
47
102
}
330
47
100
AcDbScale
 70
     0
300
1:1
140
1.0
141
1.0
290
     1
  0
SCALE
  5
49
102
{ACAD_REACTORS
330
47
102
}
330
47
100
AcDbScale
 70
     0
300
1:2
140
1.0
141
2.0
290
     0
  0
SCALE
  5
4A
102
{ACAD_REACTORS
330
47
102
}
330
47
100
AcDbScale
 70
     0
300
1:4
140
1.0
141
4.0
290
     0
  0
SCALE
  5
4B
102
{ACAD_REACTORS
330
47
102
}
330
47
100
AcDbScale
 70
     0
300
1:5
140
1.0
141
5.0
290
     0
  0
SCALE
  5
4C
102
{ACAD_REACTORS
330
47
102
}
330
47
100
AcDbScale
 70
     0
300
1:8
140
1.0
141
8.0
290
     0
  0
SCALE
  5
4D
102
{ACAD_REACTORS
330
47
102
}
330
47
100
AcDbScale
 70
     0
300
1:10
140
1.0
141
10.0
290
     0
  0
SCALE
  5
4E
102
{ACAD_REACTORS
330
47
102
}
330
47
100
AcDbScale
 70
     0
300
1:16
140
1.0
141
16.0
290
     0
  0
SCALE
  5
4F
102
{ACAD_REACTORS
330
47
102
}
330
47
100
AcDbScale
 70
     0
300
1:20
140
1.0
141
20.0
290
     0
  0
SCALE
  5
50
102
{ACAD_REACTORS
330
47
102
}
330
47
100
AcDbScale
 70
     0
300
1:30
140
1.0
141
30.0
290
     0
  0
SCALE
  5
51
102
{ACAD_REACTORS
330
47
102
}
330
47
100
AcDbScale
 70
     0
300
1:40
140
1.0
141
40.0
290
     0
  0
SCALE
  5
52
102
{ACAD_REACTORS
330
47
102
}
330
47
100
AcDbScale
 70
     0
300
1:50
140
1.0
141
50.0
290
     0
  0
SCALE
  5
53
102
{ACAD_REACTORS
330
47
102
}
330
47
100
AcDbScale
 70
     0
300
1:100
140
1.0
141
100.0
290
     0
  0
SCALE
  5
54
102
{ACAD_REACTORS
330
47
102
}
330
47
100
AcDbScale
 70
     0
300
2:1
140
2.0
141
1.0
290
     0
  0
SCALE
  5
55
102
{ACAD_REACTORS
330
47
102
}
330
47
100
AcDbScale
 70
     0
300
4:1
140
4.0
141
1.0
290
     0
  0
SCALE
  5
56
102
{ACAD_REACTORS
330
47
102
}
330
47
100
AcDbScale
 70
     0
300
8:1
140
8.0
141
1.0
290
     0
  0
SCALE
  5
57
102
{ACAD_REACTORS
330
47
102
}
330
47
100
AcDbScale
 70
     0
300
10:1
140
10.0
141
1.0
290
     0
  0
SCALE
  5
58
102
{ACAD_REACTORS
330
47
102
}
330
47
100
AcDbScale
 70
     0
300
100:1
140
100.0
141
1.0
290
     0
  0
SCALE
  5
59
102
{ACAD_REACTORS
330
47
102
}
330
47
100
AcDbScale
 70
     0
300
1/128" = 1'-0"
140
0.0078125
141
12.0
290
     0
  0
SCALE
  5
5A
102
{ACAD_REACTORS
330
47
102
}
330
47
100
AcDbScale
 70
     0
300
1/64" = 1'-0"
140
0.015625
141
12.0
290
     0
  0
SCALE
  5
5B
102
{ACAD_REACTORS
330
47
102
}
330
47
100
AcDbScale
 70
     0
300
1/32" = 1'-0"
140
0.03125
141
12.0
290
     0
  0
SCALE
  5
5C
102
{ACAD_REACTORS
330
47
102
}
330
47
100
AcDbScale
 70
     0
300
1/16" = 1'-0"
140
0.0625
141
12.0
290
     0
  0
SCALE
  5
5D
102
{ACAD_REACTORS
330
47
102
}
330
47
100
AcDbScale
 70
     0
300
3/32" = 1'-0"
140
0.09375
141
12.0
290
     0
  0
SCALE
  5
5E
102
{ACAD_REACTORS
330
47
102
}
330
47
100
AcDbScale
 70
     0
300
1/8" = 1'-0"
140
0.125
141
12.0
290
     0
  0
SCALE
  5
5F
102
{ACAD_REACTORS
330
47
102
}
330
47
100
AcDbScale
 70
     0
300
3/16" = 1'-0"
140
0.1875
141
12.0
290
     0
  0
SCALE
  5
60
102
{ACAD_REACTORS
330
47
102
}
330
47
100
AcDbScale
 70
     0
300
1/4" = 1'-0"
140
0.25
141
12.0
290
     0
  0
SCALE
  5
61
102
{ACAD_REACTORS
330
47
102
}
330
47
100
AcDbScale
 70
     0
300
3/8" = 1'-0"
140
0.375
141
12.0
290
     0
  0
SCALE
  5
62
102
{ACAD_REACTORS
330
47
102
}
330
47
100
AcDbScale
 70
     0
300
1/2" = 1'-0"
140
0.5
141
12.0
290
     0
  0
SCALE
  5
63
102
{ACAD_REACTORS
330
47
102
}
330
47
100
AcDbScale
 70
     0
300
3/4" = 1'-0"
140
0.75
141
12.0
290
     0
  0
SCALE
  5
64
102
{ACAD_REACTORS
330
47
102
}
330
47
100
AcDbScale
 70
     0
300
1" = 1'-0"
140
1.0
141
12.0
290
     0
  0
SCALE
  5
65
102
{ACAD_REACTORS
330
47
102
}
330
47
100
AcDbScale
 70
     0
300
1-1/2" = 1'-0"
140
1.5
141
12.0
290
     0
  0
SCALE
  5
66
102
{ACAD_REACTORS
330
47
102
}
330
47
100
AcDbScale
 70
     0
300
3" = 1'-0"
140
3.0
141
12.0
290
     0
  0
SCALE
  5
67
102
{ACAD_REACTORS
330
47
102
}
330
47
100
AcDbScale
 70
     0
300
6" = 1'-0"
140
6.0
141
12.0
290
     0
  0
SCALE
  5
68
102
{ACAD_REACTORS
330
47
102
}
330
47
100
AcDbScale
 70
     0
300
1'-0" = 1'-0"
140
12.0
141
12.0
290
     0
  0
TABLESTYLE
  5
6A
102
{ACAD_REACTORS
330
69
102
}
330
69
100
AcDbTableStyle
  3
Standard
 70
     0
 71
     0
 40
0.06
 41
0.06
280
     0
281
     0
  7
Standard
140
0.18
170
     2
 62
     0
 63
   257
283
     0
274
    -2
284
     1
 64
     0
275
    -2
285
     1
 65
     0
276
    -2
286
     1
 66
     0
277
    -2
287
     1
 67
     0
278
    -2
288
     1
 68
     0
279
    -2
289
     1
 69
     0
  7
Standard
140
0.25
170
     5
 62
     0
 63
   257
283
     0
274
    -2
284
     1
 64
     0
275
    -2
285
     1
 65
     0
276
    -2
286
     1
 66
     0
277
    -2
287
     1
 67
     0
278
    -2
288
     1
 68
     0
279
    -2
289
     1
 69
     0
  7
Standard
140
0.18
170
     5
 62
     0
 63
   257
283
     0
274
    -2
284
     1
 64
     0
275
    -2
285
     1
 65
     0
276
    -2
286
     1
 66
     0
277
    -2
287
     1
 67
     0
278
    -2
288
     1
 68
     0
279
    -2
289
     1
 69
     0
  0
VISUALSTYLE
  5
2F
102
{ACAD_REACTORS
330
2A
102
}
102
{ACAD_XDICTIONARY
360
3F2
102
}
330
2A
100
AcDbVisualStyle
  2
2dWireframe
 70
     4
 71
     0
 72
     2
 73
     0
 90
        0
 40
0.6
 41
30.0
 62
     5
 63
     7
 74
     1
 91
        4
 64
     7
 65
   257
 75
     1
175
     1
 42
1.0
 92
        0
 66
   257
 43
1.0
 76
     1
 77
     6
 78
     2
 67
     7
 79
     5
170
     0
171
     0
290
     0
174
     0
 93
        1
 44
0.0
173
     0
291
     0
 45
0.0
1001
ACAD
1000
AcDbSavedByObjectVersion
1070
     0
  0
VISUALSTYLE
  5
32
102
{ACAD_REACTORS
330
2A
102
}
102
{ACAD_XDICTIONARY
360
3F8
102
}
330
2A
100
AcDbVisualStyle
  2
Basic
 70
     7
 71
     1
 72
     0
 73
     1
 90
        0
 40
0.6
 41
30.0
 62
     5
 63
     7
 74
     0
 91
        4
 64
     7
 65
   257
 75
     1
175
     1
 42
1.0
 92
        8
 66
     7
 43
1.0
 76
     1
 77
     6
 78
     2
 67
     7
 79
     5
170
     0
171
     0
290
     0
174
     0
 93
        1
 44
0.0
173
     0
291
     1
 45
0.0
1001
ACAD
1000
AcDbSavedByObjectVersion
1070
     0
  0
VISUALSTYLE
  5
36
102
{ACAD_REACTORS
330
2A
102
}
102
{ACAD_XDICTIONARY
360
400
102
}
330
2A
100
AcDbVisualStyle
  2
Brighten
 70
    12
 71
     2
 72
     2
 73
     0
 90
        0
 40
0.6
 41
30.0
 62
     5
 63
     7
 74
     1
 91
        4
 64
     7
 65
   257
 75
     1
175
     1
 42
1.0
 92
        8
 66
     7
 43
1.0
 76
     1
 77
     6
 78
     2
 67
     7
 79
     5
170
     0
171
     0
290
     0
174
     0
 93
        1
 44
50.0
173
     0
291
     1
 45
0.0
1001
ACAD
1000
AcDbSavedByObjectVersion
1070
     0
  0
VISUALSTYLE
  5
3A
102
{ACAD_REACTORS
330
2A
102
}
102
{ACAD_XDICTIONARY
360
408
102
}
330
2A
100
AcDbVisualStyle
  2
ColorChange
 70
    16
 71
     2
 72
     2
 73
     3
 90
        0
 40
0.6
 41
30.0
 62
     5
 63
     8
 74
     1
 91
        4
 64
     7
 65
   257
 75
     1
175
     1
 42
1.0
 92
        8
 66
     8
 43
1.0
 76
     1
 77
     6
 78
     2
 67
     7
 79
     5
170
     0
171
     0
290
     0
174
     0
 93
        1
 44
0.0
173
     0
291
     1
 45
0.0
1001
ACAD
1000
AcDbSavedByObjectVersion
1070
     0
  0
VISUALSTYLE
  5
34
102
{ACAD_REACTORS
330
2A
102
}
102
{ACAD_XDICTIONARY
360
3FC
102
}
330
2A
100
AcDbVisualStyle
  2
Conceptual
 70
     9
 71
     3
 72
     2
 73
     0
 90
        0
 40
0.6
 41
30.0
 62
     5
 63
     7
 74
     2
 91
        2
 64
     7
 65
   257
 75
     1
175
     1
 42
179.0
 92
        8
 66
     7
 43
1.0
 76
     1
 77
     6
 78
     2
 67
     7
 79
     3
170
     0
171
     0
290
     0
174
     0
 93
        1
 44
0.0
173
     0
291
     0
 45
0.0
1001
ACAD
1000
AcDbSavedByObjectVersion
1070
     0
  0
VISUALSTYLE
  5
35
102
{ACAD_REACTORS
330
2A
102
}
102
{ACAD_XDICTIONARY
360
3FE
102
}
330
2A
100
AcDbVisualStyle
  2
Dim
 70
    11
 71
     2
 72
     2
 73
     0
 90
        0
 40
0.6
 41
30.0
 62
     5
 63
     7
 74
     1
 91
        4
 64
     7
 65
   257
 75
     1
175
     1
 42
1.0
 92
        8
 66
     7
 43
1.0
 76
     1
 77
     6
 78
     2
 67
     7
 79
     5
170
     0
171
     0
290
     0
174
     0
 93
        1
 44
-50.0
173
     0
291
     1
 45
0.0
1001
ACAD
1000
AcDbSavedByObjectVersion
1070
     0
  0
VISUALSTYLE
  5
3D
102
{ACAD_REACTORS
330
2A
102
}
102
{ACAD_XDICTIONARY
360
40E
102
}
330
2A
100
AcDbVisualStyle
  2
EdgeColorOff
 70
    22
 71
     2
 72
     2
 73
     0
 90
        0
 40
0.6
 41
30.0
 62
     5
 63
     7
 74
     1
 91
        4
 64
     7
 65
   257
 75
     1
175
     1
 42
1.0
 92
        8
 66
     7
 43
1.0
 76
     1
 77
     6
 78
     2
 67
     7
 79
     5
170
     0
171
     0
290
     0
174
     0
 93
        1
 44
0.0
173
     0
291
     1
 45
0.0
1001
ACAD
1000
AcDbSavedByObjectVersion
1070
     0
  0
VISUALSTYLE
  5
39
102
{ACAD_REACTORS
330
2A
102
}
102
{ACAD_XDICTIONARY
360
406
102
}
330
2A
100
AcDbVisualStyle
  2
Facepattern
 70
    15
 71
     2
 72
     2
 73
     0
 90
        0
 40
0.6
 41
30.0
 62
     5
 63
     7
 74
     1
 91
        4
 64
     7
 65
   257
 75
     1
175
     1
 42
1.0
 92
        8
 66
     7
 43
1.0
 76
     1
 77
     6
 78
     2
 67
     7
 79
     5
170
     0
171
     0
290
     0
174
     0
 93
        1
 44
0.0
173
     0
291
     1
 45
0.0
1001
ACAD
1000
AcDbSavedByObjectVersion
1070
     0
  0
VISUALSTYLE
  5
2B
102
{ACAD_REACTORS
330
2A
102
}
102
{ACAD_XDICTIONARY
360
3EA
102
}
330
2A
100
AcDbVisualStyle
  2
Flat
 70
     0
 71
     2
 72
     1
 73
     1
 90
        2
 40
0.6
 41
30.0
 62
     5
 63
     7
 74
     0
 91
        0
 64
     7
 65
   257
 75
     1
175
     1
 42
1.0
 92
        8
 66
     7
 43
1.0
 76
     1
 77
     6
 78
     2
 67
     7
 79
     5
170
     0
171
     0
290
     0
174
     0
 93
       13
 44
0.0
173
     0
291
     1
 45
0.0
1001
ACAD
1000
AcDbSavedByObjectVersion
1070
     0
  0
VISUALSTYLE
  5
2C
102
{ACAD_REACTORS
330
2A
102
}
102
{ACAD_XDICTIONARY
360
3EC
102
}
330
2A
100
AcDbVisualStyle
  2
FlatWithEdges
 70
     1
 71
     2
 72
     1
 73
     1
 90
        2
 40
0.6
 41
30.0
 62
     5
 63
     7
 74
     1
 91
        0
 64
     7
 65
   257
 75
     1
175
     1
 42
1.0
 92
        0
 66
   257
 43
1.0
 76
     1
 77
     6
 78
     2
 67
     7
 79
     5
170
     0
171
     0
290
     0
174
     0
 93
       13
 44
0.0
173
     0
291
     1
 45
0.0
1001
ACAD
1000
AcDbSavedByObjectVersion
1070
     0
  0
VISUALSTYLE
  5
2D
102
{ACAD_REACTORS
330
2A
102
}
102
{ACAD_XDICTIONARY
360
3EE
102
}
330
2A
100
AcDbVisualStyle
  2
Gouraud
 70
     2
 71
     2
 72
     2
 73
     1
 90
        2
 40
0.6
 41
30.0
 62
     5
 63
     7
 74
     0
 91
        0
 64
     7
 65
   257
 75
     1
175
     1
 42
1.0
 92
        0
 66
     7
 43
1.0
 76
     1
 77
     6
 78
     2
 67
     7
 79
     5
170
     0
171
     0
290
     0
174
     0
 93
       13
 44
0.0
173
     0
291
     1
 45
0.0
1001
ACAD
1000
AcDbSavedByObjectVersion
1070
     0
  0
VISUALSTYLE
  5
2E
102
{ACAD_REACTORS
330
2A
102
}
102
{ACAD_XDICTIONARY
360
3F0
102
}
330
2A
100
AcDbVisualStyle
  2
GouraudWithEdges
 70
     3
 71
     2
 72
     2
 73
     1
 90
        2
 40
0.6
 41
30.0
 62
     5
 63
     7
 74
     1
 91
        0
 64
     7
 65
   257
 75
     1
175
     1
 42
1.0
 92
        0
 66
   257
 43
1.0
 76
     1
 77
     6
 78
     2
 67
     7
 79
     5
170
     0
171
     0
290
     0
174
     0
 93
       13
 44
0.0
173
     0
291
     1
 45
0.0
1001
ACAD
1000
AcDbSavedByObjectVersion
1070
     0
  0
VISUALSTYLE
  5
31
102
{ACAD_REACTORS
330
2A
102
}
102
{ACAD_XDICTIONARY
360
3F6
102
}
330
2A
100
AcDbVisualStyle
  2
Hidden
 70
     6
 71
     1
 72
     2
 73
     2
 90
        0
 40
0.6
 41
30.0
 62
     5
 63
     7
 74
     2
 91
        2
 64
     7
 65
   257
 75
     2
175
     1
 42
40.0
 92
        0
 66
   257
 43
1.0
 76
     1
 77
     6
 78
     2
 67
     7
 79
     3
170
     0
171
     0
290
     0
174
     0
 93
        1
 44
0.0
173
     0
291
     0
 45
0.0
1001
ACAD
1000
AcDbSavedByObjectVersion
1070
     0
  0
VISUALSTYLE
  5
3B
102
{ACAD_REACTORS
330
2A
102
}
102
{ACAD_XDICTIONARY
360
40A
102
}
330
2A
100
AcDbVisualStyle
  2
JitterOff
 70
    20
 71
     2
 72
     2
 73
     0
 90
        0
 40
0.6
 41
30.0
 62
     5
 63
     7
 74
     1
 91
        4
 64
     7
 65
   257
 75
     1
175
     1
 42
1.0
 92
       10
 66
     7
 43
1.0
 76
     1
 77
     6
 78
     2
 67
     7
 79
     5
170
     0
171
     0
290
     0
174
     0
 93
        1
 44
0.0
173
     0
291
     1
 45
0.0
1001
ACAD
1000
AcDbSavedByObjectVersion
1070
     0
  0
VISUALSTYLE
  5
38
102
{ACAD_REACTORS
330
2A
102
}
102
{ACAD_XDICTIONARY
360
404
102
}
330
2A
100
AcDbVisualStyle
  2
Linepattern
 70
    14
 71
     2
 72
     2
 73
     0
 90
        0
 40
0.6
 41
30.0
 62
     5
 63
     7
 74
     1
 91
        4
 64
     7
 65
   257
 75
     7
175
     7
 42
1.0
 92
        8
 66
     7
 43
1.0
 76
     1
 77
     6
 78
     2
 67
     7
 79
     5
170
     0
171
     0
290
     0
174
     0
 93
        1
 44
0.0
173
     0
291
     1
 45
0.0
1001
ACAD
1000
AcDbSavedByObjectVersion
1070
     0
  0
VISUALSTYLE
  5
3C
102
{ACAD_REACTORS
330
2A
102
}
102
{ACAD_XDICTIONARY
360
40C
102
}
330
2A
100
AcDbVisualStyle
  2
OverhangOff
 70
    21
 71
     2
 72
     2
 73
     0
 90
        0
 40
0.6
 41
30.0
 62
     5
 63
     7
 74
     1
 91
        4
 64
     7
 65
   257
 75
     1
175
     1
 42
1.0
 92
        9
 66
     7
 43
1.0
 76
     1
 77
     6
 78
     2
 67
     7
 79
     5
170
     0
171
     0
290
     0
174
     0
 93
        1
 44
0.0
173
     0
291
     1
 45
0.0
1001
ACAD
1000
AcDbSavedByObjectVersion
1070
     0
  0
VISUALSTYLE
  5
33
102
{ACAD_REACTORS
330
2A
102
}
102
{ACAD_XDICTIONARY
360
3FA
102
}
330
2A
100
AcDbVisualStyle
  2
Realistic
 70
     8
 71
     2
 72
     3
 73
     0
 90
        2
 40
0.6
 41
30.0
 62
     5
 63
     7
 74
     0
 91
        0
 64
     7
 65
   257
 75
     1
175
     1
 42
1.0
 92
        8
 66
   257
 43
1.0
 76
     1
 77
     6
 78
     2
 67
     7
 79
     3
170
     0
171
     0
290
     0
174
     0
 93
       13
 44
0.0
173
     0
291
     0
 45
0.0
1001
ACAD
1000
AcDbSavedByObjectVersion
1070
     0
  0
VISUALSTYLE
  5
42
102
{ACAD_REACTORS
330
2A
102
}
102
{ACAD_XDICTIONARY
360
418
102
}
330
2A
100
AcDbVisualStyle
  2
Shaded
 70
    27
 71
     2
 72
     2
 73
     1
 90
        2
 40
0.6
 41
30.0
 62
     5
 63
     7
 74
     0
 91
        4
 64
     7
 65
   257
 75
     1
175
     1
 42
1.0
 92
        8
 66
   257
 43
1.0
 76
     1
 77
     6
 78
     2
 67
     8
 79
     3
170
     0
171
     0
290
     0
174
     0
 93
        5
 44
0.0
173
     0
291
     0
 45
0.0
1001
ACAD
1000
AcDbSavedByObjectVersion
1070
     0
  0
VISUALSTYLE
  5
41
102
{ACAD_REACTORS
330
2A
102
}
102
{ACAD_XDICTIONARY
360
416
102
}
330
2A
100
AcDbVisualStyle
  2
Shaded with edges
 70
    26
 71
     2
 72
     2
 73
     1
 90
        2
 40
0.6
 41
30.0
 62
     5
 63
     7
 74
     1
 91
       10
 64
     7
 65
   257
 75
     2
175
     1
 42
1.0
 92
        8
 66
   257
 43
1.0
 76
     1
 77
     6
 78
     2
 67
     7
 79
     3
170
     0
171
     0
290
     0
174
     0
 93
        5
 44
0.0
173
     0
291
     0
 45
0.0
1001
ACAD
1000
AcDbSavedByObjectVersion
1070
     0
  0
VISUALSTYLE
  5
3E
102
{ACAD_REACTORS
330
2A
102
}
102
{ACAD_XDICTIONARY
360
410
102
}
330
2A
100
AcDbVisualStyle
  2
Shades of Gray
 70
    23
 71
     2
 72
     2
 73
     3
 90
        0
 40
0.6
 41
30.0
 62
     5
 63
     7
 74
     2
 91
        2
 64
     7
 65
     7
 75
     1
175
     1
 42
40.0
 92
        8
 66
     7
 43
1.0
 76
     1
 77
     6
 78
     2
 67
     7
 79
     3
170
     0
171
     0
290
     0
174
     0
 93
        1
 44
0.0
173
     0
291
     0
 45
0.0
1001
ACAD
1000
AcDbSavedByObjectVersion
1070
     0
  0
VISUALSTYLE
  5
3F
102
{ACAD_REACTORS
330
2A
102
}
102
{ACAD_XDICTIONARY
360
412
102
}
330
2A
100
AcDbVisualStyle
  2
Sketchy
 70
    24
 71
     1
 72
     2
 73
     2
 90
        0
 40
0.6
 41
30.0
 62
     5
 63
     7
 74
     2
 91
        2
 64
     7
 65
     7
 75
     1
175
     1
 42
40.0
 92
       11
 66
     7
 43
1.0
 76
     1
 77
     6
 78
     2
 67
     7
 79
     6
170
     0
171
     0
290
     0
174
     0
 93
        1
 44
0.0
173
     0
291
     0
 45
0.0
1001
ACAD
1000
AcDbSavedByObjectVersion
1070
     0
  0
VISUALSTYLE
  5
37
102
{ACAD_REACTORS
330
2A
102
}
102
{ACAD_XDICTIONARY
360
402
102
}
330
2A
100
AcDbVisualStyle
  2
Thicken
 70
    13
 71
     2
 72
     2
 73
     0
 90
        0
 40
0.6
 41
30.0
 62
     5
 63
     7
 74
     1
 91
        4
 64
     7
 65
   257
 75
     1
175
     1
 42
1.0
 92
       12
 66
     7
 43
1.0
 76
     1
 77
     6
 78
     2
 67
     7
 79
     5
170
     0
171
     0
290
     0
174
     0
 93
        1
 44
0.0
173
     0
291
     1
 45
0.0
1001
ACAD
1000
AcDbSavedByObjectVersion
1070
     0
  0
VISUALSTYLE
  5
30
102
{ACAD_REACTORS
330
2A
102
}
102
{ACAD_XDICTIONARY
360
3F4
102
}
330
2A
100
AcDbVisualStyle
  2
Wireframe
 70
     5
 71
     0
 72
     2
 73
     0
 90
        0
 40
0.6
 41
30.0
 62
     5
 63
     7
 74
     1
 91
        4
 64
     7
 65
   257
 75
     1
175
     1
 42
1.0
 92
        0
 66
   257
 43
1.0
 76
     1
 77
     6
 78
     2
 67
     7
 79
     3
170
     0
171
     0
290
     0
174
     0
 93
        1
 44
0.0
173
     0
291
     0
 45
0.0
1001
ACAD
1000
AcDbSavedByObjectVersion
1070
     0
  0
VISUALSTYLE
  5
40
102
{ACAD_REACTORS
330
2A
102
}
102
{ACAD_XDICTIONARY
360
414
102
}
330
2A
100
AcDbVisualStyle
  2
X-Ray
 70
    25
 71
     2
 72
     2
 73
     1
 90
        1
 40
0.5
 41
30.0
 62
     5
 63
     7
 74
     1
 91
        0
 64
     7
 65
   257
 75
     1
175
     1
 42
1.0
 92
        8
 66
     7
 43
1.0
 76
     1
 77
     6
 78
     2
 67
     7
 79
     3
170
     0
171
     0
290
     0
174
     0
 93
       13
 44
0.0
173
     0
291
     0
 45
0.0
1001
ACAD
1000
AcDbSavedByObjectVersion
1070
     0
  0
DICTIONARYVAR
  5
3E8
102
{ACAD_REACTORS
330
3DB
102
}
330
3DB
100
DictionaryVariables
280
     0
  1
1:1
  0
DICTIONARYVAR
  5
3DD
102
{ACAD_REACTORS
330
3DB
102
}
330
3DB
100
DictionaryVariables
280
     0
  1
Standard
  0
DICTIONARYVAR
  5
3DC
102
{ACAD_REACTORS
330
3DB
102
}
330
3DB
100
DictionaryVariables
280
     0
  1
Standard
  0
DICTIONARYVAR
  5
3E0
102
{ACAD_REACTORS
330
3DB
102
}
330
3DB
100
DictionaryVariables
280
     0
  1
2
  0
DICTIONARYVAR
  5
3E1
102
{ACAD_REACTORS
330
3DB
102
}
330
3DB
100
DictionaryVariables
280
     0
  1
1
  0
DICTIONARYVAR
  5
3E9
102
{ACAD_REACTORS
330
3DB
102
}
330
3DB
100
DictionaryVariables
280
     0
  1
1
  0
DICTIONARY
  5
41C
330
45
100
AcDbDictionary
280
     1
281
     1
  3
ACAD_XREC_ROUNDTRIP
360
41D
  0
DICTIONARY
  5
41A
330
44
100
AcDbDictionary
280
     1
281
     1
  3
ACAD_XREC_ROUNDTRIP
360
41B
  0
DICTIONARY
  5
41E
330
46
100
AcDbDictionary
280
     1
281
     1
  3
ACAD_XREC_ROUNDTRIP
360
41F
  0
DICTIONARY
  5
421
330
6C
100
AcDbDictionary
280
     1
281
     1
  3
ACAD_XREC_ROUNDTRIP
360
422
  0
DICTIONARY
  5
3F2
330
2F
100
AcDbDictionary
280
     1
281
     1
  3
ACAD_XREC_ROUNDTRIP
360
3F3
  0
DICTIONARY
  5
3F8
330
32
100
AcDbDictionary
280
     1
281
     1
  3
ACAD_XREC_ROUNDTRIP
360
3F9
  0
DICTIONARY
  5
400
330
36
100
AcDbDictionary
280
     1
281
     1
  3
ACAD_XREC_ROUNDTRIP
360
401
  0
DICTIONARY
  5
408
330
3A
100
AcDbDictionary
280
     1
281
     1
  3
ACAD_XREC_ROUNDTRIP
360
409
  0
DICTIONARY
  5
3FC
330
34
100
AcDbDictionary
280
     1
281
     1
  3
ACAD_XREC_ROUNDTRIP
360
3FD
  0
DICTIONARY
  5
3FE
330
35
100
AcDbDictionary
280
     1
281
     1
  3
ACAD_XREC_ROUNDTRIP
360
3FF
  0
DICTIONARY
  5
40E
330
3D
100
AcDbDictionary
280
     1
281
     1
  3
ACAD_XREC_ROUNDTRIP
360
40F
  0
DICTIONARY
  5
406
330
39
100
AcDbDictionary
280
     1
281
     1
  3
ACAD_XREC_ROUNDTRIP
360
407
  0
DICTIONARY
  5
3EA
330
2B
100
AcDbDictionary
280
     1
281
     1
  3
ACAD_XREC_ROUNDTRIP
360
3EB
  0
DICTIONARY
  5
3EC
330
2C
100
AcDbDictionary
280
     1
281
     1
  3
ACAD_XREC_ROUNDTRIP
360
3ED
  0
DICTIONARY
  5
3EE
330
2D
100
AcDbDictionary
280
     1
281
     1
  3
ACAD_XREC_ROUNDTRIP
360
3EF
  0
DICTIONARY
  5
3F0
330
2E
100
AcDbDictionary
280
     1
281
     1
  3
ACAD_XREC_ROUNDTRIP
360
3F1
  0
DICTIONARY
  5
3F6
330
31
100
AcDbDictionary
280
     1
281
     1
  3
ACAD_XREC_ROUNDTRIP
360
3F7
  0
DICTIONARY
  5
40A
330
3B
100
AcDbDictionary
280
     1
281
     1
  3
ACAD_XREC_ROUNDTRIP
360
40B
  0
DICTIONARY
  5
404
330
38
100
AcDbDictionary
280
     1
281
     1
  3
ACAD_XREC_ROUNDTRIP
360
405
  0
DICTIONARY
  5
40C
330
3C
100
AcDbDictionary
280
     1
281
     1
  3
ACAD_XREC_ROUNDTRIP
360
40D
  0
DICTIONARY
  5
3FA
330
33
100
AcDbDictionary
280
     1
281
     1
  3
ACAD_XREC_ROUNDTRIP
360
3FB
  0
DICTIONARY
  5
418
330
42
100
AcDbDictionary
280
     1
281
     1
  3
ACAD_XREC_ROUNDTRIP
360
419
  0
DICTIONARY
  5
416
330
41
100
AcDbDictionary
280
     1
281
     1
  3
ACAD_XREC_ROUNDTRIP
360
417
  0
DICTIONARY
  5
410
330
3E
100
AcDbDictionary
280
     1
281
     1
  3
ACAD_XREC_ROUNDTRIP
360
411
  0
DICTIONARY
  5
412
330
3F
100
AcDbDictionary
280
     1
281
     1
  3
ACAD_XREC_ROUNDTRIP
360
413
  0
DICTIONARY
  5
402
330
37
100
AcDbDictionary
280
     1
281
     1
  3
ACAD_XREC_ROUNDTRIP
360
403
  0
DICTIONARY
  5
3F4
330
30
100
AcDbDictionary
280
     1
281
     1
  3
ACAD_XREC_ROUNDTRIP
360
3F5
  0
DICTIONARY
  5
414
330
40
100
AcDbDictionary
280
     1
281
     1
  3
ACAD_XREC_ROUNDTRIP
360
415
  0
XRECORD
  5
41D
102
{ACAD_REACTORS
330
41C
102
}
330
41C
100
AcDbXrecord
280
     1
102
MATERIAL
148
0.0
149
0.0
149
0.0
 93
        0
 94
      127
282
     0
 72
     1
 77
     1
171
     1
175
     1
179
     1
273
     0
  0
XRECORD
  5
41B
102
{ACAD_REACTORS
330
41A
102
}
330
41A
100
AcDbXrecord
280
     1
102
MATERIAL
148
0.0
149
0.0
149
0.0
 93
        0
 94
      127
282
     0
 72
     1
 77
     1
171
     1
175
     1
179
     1
273
     0
  0
XRECORD
  5
41F
102
{ACAD_REACTORS
330
41E
102
}
330
41E
100
AcDbXrecord
280
     1
102
MATERIAL
148
0.0
149
0.0
149
0.0
 93
        0
 94
      127
282
     0
 72
     1
 77
     1
171
     1
175
     1
179
     1
273
     0
  0
XRECORD
  5
422
102
{ACAD_REACTORS
330
421
102
}
330
421
100
AcDbXrecord
280
     1
102
ACAD_ROUNDTRIP_2010_MLEADER_STYLE
  0
XRECORD
  5
3F3
102
{ACAD_REACTORS
330
3F2
102
}
330
3F2
100
AcDbXrecord
280
     1
102
RTVSPropertyOp0
 70
     1
102
RTVSPropertyOp1
 70
     1
102
RTVSPropertyOp2
 70
     1
102
RTVSPropertyOp3
 70
     1
102
RTVSPropertyOp4
 70
     1
102
RTVSPropertyOp5
 70
     1
102
RTVSPropertyOp6
 70
     1
102
RTVSPropertyOp7
 70
     1
102
RTVSPropertyOp8
 70
     1
102
RTVSPropertyOp9
 70
     1
102
RTVSPropertyOp10
 70
     1
102
RTVSPropertyOp11
 70
     1
102
RTVSPropertyOp12
 70
     1
102
RTVSPropertyOp13
 70
     1
102
RTVSPropertyOp14
 70
     1
102
RTVSPropertyOp15
 70
     1
102
RTVSPropertyOp16
 70
     1
102
RTVSPropertyOp17
 70
     1
102
RTVSPropertyOp18
 70
     1
102
RTVSPropertyOp19
 70
     1
102
RTVSPropertyOp20
 70
     1
102
RTVSPropertyOp21
 70
     1
102
RTVSPropertyOp22
 70
     1
102
RTVSPropertyOp23
 70
     1
102
RTVSPropertyOp24
 70
     1
102
RTVSPropertyOp25
 70
     1
102
RTVSPropertyOp26
 70
     1
102
RTVSPropertyOp27
 70
     1
102
RTVSPropertyOp28
 70
     1
102
RTVSPropertyOp29
 70
     1
102
RTVSPropertyOp30
 70
     1
102
RTVSPropertyOp31
 70
     1
102
RTVSPropertyOp32
 70
     1
102
RTVSPropertyOp33
 70
     1
102
RTVSPropertyOp34
 70
     1
102
RTVSPropertyOp35
 70
     1
102
RTVSPropertyOp36
 70
     1
102
RTVSPropertyOp37
 70
     1
102
RTVSPropertyOp38
 70
     1
102
RTVSPropertyOp39
 70
     1
102
RTVSPropertyOp40
 70
     1
102
RTVSPropertyOp41
 70
     1
102
RTVSPropertyOp42
 70
     1
102
RTVSPropertyOp43
 70
     1
102
RTVSPropertyOp44
 70
     1
102
RTVSPropertyOp45
 70
     1
102
RTVSPropertyOp46
 70
     1
102
RTVSPropertyOp47
 70
     1
102
RTVSPropertyOp48
 70
     1
102
RTVSPropertyOp49
 70
     1
102
RTVSPropertyOp50
 70
     1
102
RTVSPropertyOp51
 70
     0
102
RTVSPropertyOp52
 70
     0
102
RTVSPropertyOp53
 70
     1
102
RTVSPropertyOp54
 70
     1
102
RTVSPropertyOp55
 70
     1
102
RTVSPropertyOp56
 70
     1
102
RTVSPropertyOp57
 70
     1
102
RTVSPost2010Prop28
280
     1
102
RTVSPost2010PropOp28
 70
     1
102
RTVSPost2010Prop29
280
     1
102
RTVSPost2010PropOp29
 70
     1
102
RTVSPost2010Prop30
280
     0
102
RTVSPost2010PropOp30
 70
     1
102
RTVSPost2010Prop31
280
     0
102
RTVSPost2010PropOp31
 70
     1
102
RTVSPost2010Prop32
280
     0
102
RTVSPost2010PropOp32
 70
     1
102
RTVSPost2010Prop33
280
     0
102
RTVSPost2010PropOp33
 70
     1
102
RTVSPost2010Prop34
280
     0
102
RTVSPost2010PropOp34
 70
     1
102
RTVSPost2010Prop35
280
     0
102
RTVSPost2010PropOp35
 70
     1
102
RTVSPost2010Prop36
280
     0
102
RTVSPost2010PropOp36
 70
     1
102
RTVSPost2010Prop37
 90
       50
102
RTVSPost2010PropOp37
 70
     1
102
RTVSPost2010Prop38
140
0.0
102
RTVSPost2010PropOp38
 70
     1
102
RTVSPost2010Prop39
140
1.0
102
RTVSPost2010PropOp39
 70
     1
102
RTVSPost2010Prop40
 90
        0
102
RTVSPost2010PropOp40
 70
     1
102
RTVSPost2010Prop41ColorIndex
 90
       18
102
RTVSPost2010Prop41ColorRGB
 90
        0
102
RTVSPost2010PropOp41
 70
     1
102
RTVSPost2010Prop42
 90
       50
102
RTVSPost2010PropOp42
 70
     1
102
RTVSPost2010Prop43
 90
        3
102
RTVSPost2010PropOp43
 70
     1
102
RTVSPost2010Prop44ColorIndex
 90
        5
102
RTVSPost2010Prop44ColorRGB
 90
      255
102
RTVSPost2010PropOp44
 70
     1
102
RTVSPost2010Prop45
280
     0
102
RTVSPost2010PropOp45
 70
     1
102
RTVSPost2010Prop46
 90
       50
102
RTVSPost2010PropOp46
 70
     1
102
RTVSPost2010Prop47
 90
       50
102
RTVSPost2010PropOp47
 70
     1
102
RTVSPost2010Prop48
 90
       50
102
RTVSPost2010PropOp48
 70
     1
102
RTVSPost2010Prop49
280
     0
102
RTVSPost2010PropOp49
 70
     1
102
RTVSPost2010Prop50
 90
       50
102
RTVSPost2010PropOp50
 70
     1
102
RTVSPost2010Prop51ColorIndex
 90
      256
102
RTVSPost2010Prop51ColorRGB
 90
-16777216
102
RTVSPost2010PropOp51
 70
     0
102
RTVSPost2010Prop52
140
1.0
102
RTVSPost2010PropOp52
 70
     0
102
RTVSPost2010Prop53
 90
        2
102
RTVSPost2010PropOp53
 70
     1
102
RTVSPost2010Prop54
  1
strokes_ogs.tif
102
RTVSPost2010PropOp54
 70
     1
102
RTVSPost2010Prop55
280
     0
102
RTVSPost2010PropOp55
 70
     1
102
RTVSPost2010Prop56
140
1.0
102
RTVSPost2010PropOp56
 70
     1
102
RTVSPost2010Prop57
140
1.0
102
RTVSPost2010PropOp57
 70
     1
  0
XRECORD
  5
3F9
102
{ACAD_REACTORS
330
3F8
102
}
330
3F8
100
AcDbXrecord
280
     1
102
RTVSPropertyOp0
 70
     1
102
RTVSPropertyOp1
 70
     1
102
RTVSPropertyOp2
 70
     1
102
RTVSPropertyOp3
 70
     1
102
RTVSPropertyOp4
 70
     1
102
RTVSPropertyOp5
 70
     1
102
RTVSPropertyOp6
 70
     1
102
RTVSPropertyOp7
 70
     1
102
RTVSPropertyOp8
 70
     1
102
RTVSPropertyOp9
 70
     1
102
RTVSPropertyOp10
 70
     1
102
RTVSPropertyOp11
 70
     1
102
RTVSPropertyOp12
 70
     1
102
RTVSPropertyOp13
 70
     1
102
RTVSPropertyOp14
 70
     1
102
RTVSPropertyOp15
 70
     1
102
RTVSPropertyOp16
 70
     1
102
RTVSPropertyOp17
 70
     1
102
RTVSPropertyOp18
 70
     1
102
RTVSPropertyOp19
 70
     1
102
RTVSPropertyOp20
 70
     1
102
RTVSPropertyOp21
 70
     1
102
RTVSPropertyOp22
 70
     1
102
RTVSPropertyOp23
 70
     1
102
RTVSPropertyOp24
 70
     1
102
RTVSPropertyOp25
 70
     1
102
RTVSPropertyOp26
 70
     1
102
RTVSPropertyOp27
 70
     1
102
RTVSPropertyOp28
 70
     1
102
RTVSPropertyOp29
 70
     1
102
RTVSPropertyOp30
 70
     1
102
RTVSPropertyOp31
 70
     1
102
RTVSPropertyOp32
 70
     1
102
RTVSPropertyOp33
 70
     1
102
RTVSPropertyOp34
 70
     1
102
RTVSPropertyOp35
 70
     1
102
RTVSPropertyOp36
 70
     1
102
RTVSPropertyOp37
 70
     1
102
RTVSPropertyOp38
 70
     1
102
RTVSPropertyOp39
 70
     1
102
RTVSPropertyOp40
 70
     1
102
RTVSPropertyOp41
 70
     1
102
RTVSPropertyOp42
 70
     1
102
RTVSPropertyOp43
 70
     1
102
RTVSPropertyOp44
 70
     1
102
RTVSPropertyOp45
 70
     1
102
RTVSPropertyOp46
 70
     1
102
RTVSPropertyOp47
 70
     1
102
RTVSPropertyOp48
 70
     1
102
RTVSPropertyOp49
 70
     1
102
RTVSPropertyOp50
 70
     1
102
RTVSPropertyOp51
 70
     0
102
RTVSPropertyOp52
 70
     0
102
RTVSPropertyOp53
 70
     1
102
RTVSPropertyOp54
 70
     1
102
RTVSPropertyOp55
 70
     1
102
RTVSPropertyOp56
 70
     1
102
RTVSPropertyOp57
 70
     1
102
RTVSPost2010Prop28
280
     0
102
RTVSPost2010PropOp28
 70
     1
102
RTVSPost2010Prop29
280
     1
102
RTVSPost2010PropOp29
 70
     1
102
RTVSPost2010Prop30
280
     1
102
RTVSPost2010PropOp30
 70
     1
102
RTVSPost2010Prop31
280
     0
102
RTVSPost2010PropOp31
 70
     1
102
RTVSPost2010Prop32
280
     0
102
RTVSPost2010PropOp32
 70
     1
102
RTVSPost2010Prop33
280
     0
102
RTVSPost2010PropOp33
 70
     1
102
RTVSPost2010Prop34
280
     0
102
RTVSPost2010PropOp34
 70
     1
102
RTVSPost2010Prop35
280
     0
102
RTVSPost2010PropOp35
 70
     1
102
RTVSPost2010Prop36
280
     0
102
RTVSPost2010PropOp36
 70
     1
102
RTVSPost2010Prop37
 90
       50
102
RTVSPost2010PropOp37
 70
     1
102
RTVSPost2010Prop38
140
0.0
102
RTVSPost2010PropOp38
 70
     1
102
RTVSPost2010Prop39
140
1.0
102
RTVSPost2010PropOp39
 70
     1
102
RTVSPost2010Prop40
 90
        0
102
RTVSPost2010PropOp40
 70
     1
102
RTVSPost2010Prop41ColorIndex
 90
       18
102
RTVSPost2010Prop41ColorRGB
 90
        0
102
RTVSPost2010PropOp41
 70
     1
102
RTVSPost2010Prop42
 90
       50
102
RTVSPost2010PropOp42
 70
     1
102
RTVSPost2010Prop43
 90
        3
102
RTVSPost2010PropOp43
 70
     1
102
RTVSPost2010Prop44ColorIndex
 90
        5
102
RTVSPost2010Prop44ColorRGB
 90
      255
102
RTVSPost2010PropOp44
 70
     1
102
RTVSPost2010Prop45
280
     0
102
RTVSPost2010PropOp45
 70
     1
102
RTVSPost2010Prop46
 90
       50
102
RTVSPost2010PropOp46
 70
     1
102
RTVSPost2010Prop47
 90
       50
102
RTVSPost2010PropOp47
 70
     1
102
RTVSPost2010Prop48
 90
       50
102
RTVSPost2010PropOp48
 70
     1
102
RTVSPost2010Prop49
280
     0
102
RTVSPost2010PropOp49
 70
     1
102
RTVSPost2010Prop50
 90
       50
102
RTVSPost2010PropOp50
 70
     1
102
RTVSPost2010Prop51ColorIndex
 90
      256
102
RTVSPost2010Prop51ColorRGB
 90
-16777216
102
RTVSPost2010PropOp51
 70
     0
102
RTVSPost2010Prop52
140
1.0
102
RTVSPost2010PropOp52
 70
     0
102
RTVSPost2010Prop53
 90
        2
102
RTVSPost2010PropOp53
 70
     1
102
RTVSPost2010Prop54
  1
strokes_ogs.tif
102
RTVSPost2010PropOp54
 70
     1
102
RTVSPost2010Prop55
280
     0
102
RTVSPost2010PropOp55
 70
     1
102
RTVSPost2010Prop56
140
1.0
102
RTVSPost2010PropOp56
 70
     1
102
RTVSPost2010Prop57
140
1.0
102
RTVSPost2010PropOp57
 70
     1
  0
XRECORD
  5
401
102
{ACAD_REACTORS
330
400
102
}
330
400
100
AcDbXrecord
280
     1
102
RTVSPropertyOp0
 70
     1
102
RTVSPropertyOp1
 70
     1
102
RTVSPropertyOp2
 70
     1
102
RTVSPropertyOp3
 70
     1
102
RTVSPropertyOp4
 70
     1
102
RTVSPropertyOp5
 70
     1
102
RTVSPropertyOp6
 70
     1
102
RTVSPropertyOp7
 70
     1
102
RTVSPropertyOp8
 70
     1
102
RTVSPropertyOp9
 70
     1
102
RTVSPropertyOp10
 70
     1
102
RTVSPropertyOp11
 70
     1
102
RTVSPropertyOp12
 70
     1
102
RTVSPropertyOp13
 70
     1
102
RTVSPropertyOp14
 70
     1
102
RTVSPropertyOp15
 70
     1
102
RTVSPropertyOp16
 70
     1
102
RTVSPropertyOp17
 70
     1
102
RTVSPropertyOp18
 70
     1
102
RTVSPropertyOp19
 70
     1
102
RTVSPropertyOp20
 70
     1
102
RTVSPropertyOp21
 70
     1
102
RTVSPropertyOp22
 70
     1
102
RTVSPropertyOp23
 70
     1
102
RTVSPropertyOp24
 70
     1
102
RTVSPropertyOp25
 70
     1
102
RTVSPropertyOp26
 70
     1
102
RTVSPropertyOp27
 70
     1
102
RTVSPropertyOp28
 70
     1
102
RTVSPropertyOp29
 70
     1
102
RTVSPropertyOp30
 70
     1
102
RTVSPropertyOp31
 70
     1
102
RTVSPropertyOp32
 70
     1
102
RTVSPropertyOp33
 70
     1
102
RTVSPropertyOp34
 70
     1
102
RTVSPropertyOp35
 70
     1
102
RTVSPropertyOp36
 70
     1
102
RTVSPropertyOp37
 70
     1
102
RTVSPropertyOp38
 70
     1
102
RTVSPropertyOp39
 70
     1
102
RTVSPropertyOp40
 70
     1
102
RTVSPropertyOp41
 70
     1
102
RTVSPropertyOp42
 70
     1
102
RTVSPropertyOp43
 70
     1
102
RTVSPropertyOp44
 70
     1
102
RTVSPropertyOp45
 70
     1
102
RTVSPropertyOp46
 70
     1
102
RTVSPropertyOp47
 70
     1
102
RTVSPropertyOp48
 70
     1
102
RTVSPropertyOp49
 70
     1
102
RTVSPropertyOp50
 70
     1
102
RTVSPropertyOp51
 70
     0
102
RTVSPropertyOp52
 70
     0
102
RTVSPropertyOp53
 70
     1
102
RTVSPropertyOp54
 70
     1
102
RTVSPropertyOp55
 70
     1
102
RTVSPropertyOp56
 70
     1
102
RTVSPropertyOp57
 70
     1
102
RTVSPost2010Prop28
280
     0
102
RTVSPost2010PropOp28
 70
     1
102
RTVSPost2010Prop29
280
     1
102
RTVSPost2010PropOp29
 70
     1
102
RTVSPost2010Prop30
280
     1
102
RTVSPost2010PropOp30
 70
     1
102
RTVSPost2010Prop31
280
     0
102
RTVSPost2010PropOp31
 70
     1
102
RTVSPost2010Prop32
280
     0
102
RTVSPost2010PropOp32
 70
     1
102
RTVSPost2010Prop33
280
     0
102
RTVSPost2010PropOp33
 70
     1
102
RTVSPost2010Prop34
280
     0
102
RTVSPost2010PropOp34
 70
     1
102
RTVSPost2010Prop35
280
     0
102
RTVSPost2010PropOp35
 70
     1
102
RTVSPost2010Prop36
280
     0
102
RTVSPost2010PropOp36
 70
     1
102
RTVSPost2010Prop37
 90
       50
102
RTVSPost2010PropOp37
 70
     1
102
RTVSPost2010Prop38
140
0.0
102
RTVSPost2010PropOp38
 70
     1
102
RTVSPost2010Prop39
140
1.0
102
RTVSPost2010PropOp39
 70
     1
102
RTVSPost2010Prop40
 90
        0
102
RTVSPost2010PropOp40
 70
     1
102
RTVSPost2010Prop41ColorIndex
 90
       18
102
RTVSPost2010Prop41ColorRGB
 90
        0
102
RTVSPost2010PropOp41
 70
     1
102
RTVSPost2010Prop42
 90
       50
102
RTVSPost2010PropOp42
 70
     1
102
RTVSPost2010Prop43
 90
        3
102
RTVSPost2010PropOp43
 70
     1
102
RTVSPost2010Prop44ColorIndex
 90
        5
102
RTVSPost2010Prop44ColorRGB
 90
      255
102
RTVSPost2010PropOp44
 70
     1
102
RTVSPost2010Prop45
280
     0
102
RTVSPost2010PropOp45
 70
     1
102
RTVSPost2010Prop46
 90
       50
102
RTVSPost2010PropOp46
 70
     1
102
RTVSPost2010Prop47
 90
       50
102
RTVSPost2010PropOp47
 70
     1
102
RTVSPost2010Prop48
 90
       50
102
RTVSPost2010PropOp48
 70
     1
102
RTVSPost2010Prop49
280
     0
102
RTVSPost2010PropOp49
 70
     1
102
RTVSPost2010Prop50
 90
       50
102
RTVSPost2010PropOp50
 70
     1
102
RTVSPost2010Prop51ColorIndex
 90
      256
102
RTVSPost2010Prop51ColorRGB
 90
-16777216
102
RTVSPost2010PropOp51
 70
     0
102
RTVSPost2010Prop52
140
1.0
102
RTVSPost2010PropOp52
 70
     0
102
RTVSPost2010Prop53
 90
        2
102
RTVSPost2010PropOp53
 70
     1
102
RTVSPost2010Prop54
  1
strokes_ogs.tif
102
RTVSPost2010PropOp54
 70
     1
102
RTVSPost2010Prop55
280
     0
102
RTVSPost2010PropOp55
 70
     1
102
RTVSPost2010Prop56
140
1.0
102
RTVSPost2010PropOp56
 70
     1
102
RTVSPost2010Prop57
140
1.0
102
RTVSPost2010PropOp57
 70
     1
  0
XRECORD
  5
409
102
{ACAD_REACTORS
330
408
102
}
330
408
100
AcDbXrecord
280
     1
102
RTVSPropertyOp0
 70
     1
102
RTVSPropertyOp1
 70
     1
102
RTVSPropertyOp2
 70
     1
102
RTVSPropertyOp3
 70
     1
102
RTVSPropertyOp4
 70
     1
102
RTVSPropertyOp5
 70
     1
102
RTVSPropertyOp6
 70
     1
102
RTVSPropertyOp7
 70
     1
102
RTVSPropertyOp8
 70
     1
102
RTVSPropertyOp9
 70
     1
102
RTVSPropertyOp10
 70
     1
102
RTVSPropertyOp11
 70
     1
102
RTVSPropertyOp12
 70
     1
102
RTVSPropertyOp13
 70
     1
102
RTVSPropertyOp14
 70
     1
102
RTVSPropertyOp15
 70
     1
102
RTVSPropertyOp16
 70
     1
102
RTVSPropertyOp17
 70
     1
102
RTVSPropertyOp18
 70
     1
102
RTVSPropertyOp19
 70
     1
102
RTVSPropertyOp20
 70
     1
102
RTVSPropertyOp21
 70
     1
102
RTVSPropertyOp22
 70
     1
102
RTVSPropertyOp23
 70
     1
102
RTVSPropertyOp24
 70
     1
102
RTVSPropertyOp25
 70
     1
102
RTVSPropertyOp26
 70
     1
102
RTVSPropertyOp27
 70
     1
102
RTVSPropertyOp28
 70
     1
102
RTVSPropertyOp29
 70
     1
102
RTVSPropertyOp30
 70
     1
102
RTVSPropertyOp31
 70
     1
102
RTVSPropertyOp32
 70
     1
102
RTVSPropertyOp33
 70
     1
102
RTVSPropertyOp34
 70
     1
102
RTVSPropertyOp35
 70
     1
102
RTVSPropertyOp36
 70
     1
102
RTVSPropertyOp37
 70
     1
102
RTVSPropertyOp38
 70
     1
102
RTVSPropertyOp39
 70
     1
102
RTVSPropertyOp40
 70
     1
102
RTVSPropertyOp41
 70
     1
102
RTVSPropertyOp42
 70
     1
102
RTVSPropertyOp43
 70
     1
102
RTVSPropertyOp44
 70
     1
102
RTVSPropertyOp45
 70
     1
102
RTVSPropertyOp46
 70
     1
102
RTVSPropertyOp47
 70
     1
102
RTVSPropertyOp48
 70
     1
102
RTVSPropertyOp49
 70
     1
102
RTVSPropertyOp50
 70
     1
102
RTVSPropertyOp51
 70
     0
102
RTVSPropertyOp52
 70
     0
102
RTVSPropertyOp53
 70
     1
102
RTVSPropertyOp54
 70
     1
102
RTVSPropertyOp55
 70
     1
102
RTVSPropertyOp56
 70
     1
102
RTVSPropertyOp57
 70
     1
102
RTVSPost2010Prop28
280
     0
102
RTVSPost2010PropOp28
 70
     1
102
RTVSPost2010Prop29
280
     1
102
RTVSPost2010PropOp29
 70
     1
102
RTVSPost2010Prop30
280
     1
102
RTVSPost2010PropOp30
 70
     1
102
RTVSPost2010Prop31
280
     0
102
RTVSPost2010PropOp31
 70
     1
102
RTVSPost2010Prop32
280
     0
102
RTVSPost2010PropOp32
 70
     1
102
RTVSPost2010Prop33
280
     0
102
RTVSPost2010PropOp33
 70
     1
102
RTVSPost2010Prop34
280
     0
102
RTVSPost2010PropOp34
 70
     1
102
RTVSPost2010Prop35
280
     0
102
RTVSPost2010PropOp35
 70
     1
102
RTVSPost2010Prop36
280
     0
102
RTVSPost2010PropOp36
 70
     1
102
RTVSPost2010Prop37
 90
       50
102
RTVSPost2010PropOp37
 70
     1
102
RTVSPost2010Prop38
140
0.0
102
RTVSPost2010PropOp38
 70
     1
102
RTVSPost2010Prop39
140
1.0
102
RTVSPost2010PropOp39
 70
     1
102
RTVSPost2010Prop40
 90
        0
102
RTVSPost2010PropOp40
 70
     1
102
RTVSPost2010Prop41ColorIndex
 90
       18
102
RTVSPost2010Prop41ColorRGB
 90
        0
102
RTVSPost2010PropOp41
 70
     1
102
RTVSPost2010Prop42
 90
       50
102
RTVSPost2010PropOp42
 70
     1
102
RTVSPost2010Prop43
 90
        3
102
RTVSPost2010PropOp43
 70
     1
102
RTVSPost2010Prop44ColorIndex
 90
        5
102
RTVSPost2010Prop44ColorRGB
 90
      255
102
RTVSPost2010PropOp44
 70
     1
102
RTVSPost2010Prop45
280
     0
102
RTVSPost2010PropOp45
 70
     1
102
RTVSPost2010Prop46
 90
       50
102
RTVSPost2010PropOp46
 70
     1
102
RTVSPost2010Prop47
 90
       50
102
RTVSPost2010PropOp47
 70
     1
102
RTVSPost2010Prop48
 90
       50
102
RTVSPost2010PropOp48
 70
     1
102
RTVSPost2010Prop49
280
     0
102
RTVSPost2010PropOp49
 70
     1
102
RTVSPost2010Prop50
 90
       50
102
RTVSPost2010PropOp50
 70
     1
102
RTVSPost2010Prop51ColorIndex
 90
      256
102
RTVSPost2010Prop51ColorRGB
 90
-16777216
102
RTVSPost2010PropOp51
 70
     0
102
RTVSPost2010Prop52
140
1.0
102
RTVSPost2010PropOp52
 70
     0
102
RTVSPost2010Prop53
 90
        2
102
RTVSPost2010PropOp53
 70
     1
102
RTVSPost2010Prop54
  1
strokes_ogs.tif
102
RTVSPost2010PropOp54
 70
     1
102
RTVSPost2010Prop55
280
     0
102
RTVSPost2010PropOp55
 70
     1
102
RTVSPost2010Prop56
140
1.0
102
RTVSPost2010PropOp56
 70
     1
102
RTVSPost2010Prop57
140
1.0
102
RTVSPost2010PropOp57
 70
     1
  0
XRECORD
  5
3FD
102
{ACAD_REACTORS
330
3FC
102
}
330
3FC
100
AcDbXrecord
280
     1
102
RTVSPropertyOp0
 70
     1
102
RTVSPropertyOp1
 70
     1
102
RTVSPropertyOp2
 70
     1
102
RTVSPropertyOp3
 70
     1
102
RTVSPropertyOp4
 70
     1
102
RTVSPropertyOp5
 70
     1
102
RTVSPropertyOp6
 70
     1
102
RTVSPropertyOp7
 70
     1
102
RTVSPropertyOp8
 70
     1
102
RTVSPropertyOp9
 70
     1
102
RTVSPropertyOp10
 70
     1
102
RTVSPropertyOp11
 70
     1
102
RTVSPropertyOp12
 70
     1
102
RTVSPropertyOp13
 70
     1
102
RTVSPropertyOp14
 70
     1
102
RTVSPropertyOp15
 70
     1
102
RTVSPropertyOp16
 70
     1
102
RTVSPropertyOp17
 70
     1
102
RTVSPropertyOp18
 70
     1
102
RTVSPropertyOp19
 70
     1
102
RTVSPropertyOp20
 70
     1
102
RTVSPropertyOp21
 70
     1
102
RTVSPropertyOp22
 70
     1
102
RTVSPropertyOp23
 70
     1
102
RTVSPropertyOp24
 70
     1
102
RTVSPropertyOp25
 70
     1
102
RTVSPropertyOp26
 70
     1
102
RTVSPropertyOp27
 70
     1
102
RTVSPropertyOp28
 70
     1
102
RTVSPropertyOp29
 70
     1
102
RTVSPropertyOp30
 70
     1
102
RTVSPropertyOp31
 70
     1
102
RTVSPropertyOp32
 70
     1
102
RTVSPropertyOp33
 70
     1
102
RTVSPropertyOp34
 70
     1
102
RTVSPropertyOp35
 70
     1
102
RTVSPropertyOp36
 70
     1
102
RTVSPropertyOp37
 70
     1
102
RTVSPropertyOp38
 70
     1
102
RTVSPropertyOp39
 70
     1
102
RTVSPropertyOp40
 70
     1
102
RTVSPropertyOp41
 70
     1
102
RTVSPropertyOp42
 70
     1
102
RTVSPropertyOp43
 70
     1
102
RTVSPropertyOp44
 70
     1
102
RTVSPropertyOp45
 70
     1
102
RTVSPropertyOp46
 70
     1
102
RTVSPropertyOp47
 70
     1
102
RTVSPropertyOp48
 70
     1
102
RTVSPropertyOp49
 70
     1
102
RTVSPropertyOp50
 70
     1
102
RTVSPropertyOp51
 70
     0
102
RTVSPropertyOp52
 70
     0
102
RTVSPropertyOp53
 70
     1
102
RTVSPropertyOp54
 70
     1
102
RTVSPropertyOp55
 70
     1
102
RTVSPropertyOp56
 70
     1
102
RTVSPropertyOp57
 70
     1
102
RTVSPost2010Prop28
280
     0
102
RTVSPost2010PropOp28
 70
     1
102
RTVSPost2010Prop29
280
     1
102
RTVSPost2010PropOp29
 70
     1
102
RTVSPost2010Prop30
280
     1
102
RTVSPost2010PropOp30
 70
     1
102
RTVSPost2010Prop31
280
     0
102
RTVSPost2010PropOp31
 70
     1
102
RTVSPost2010Prop32
280
     0
102
RTVSPost2010PropOp32
 70
     1
102
RTVSPost2010Prop33
280
     0
102
RTVSPost2010PropOp33
 70
     1
102
RTVSPost2010Prop34
280
     0
102
RTVSPost2010PropOp34
 70
     1
102
RTVSPost2010Prop35
280
     0
102
RTVSPost2010PropOp35
 70
     1
102
RTVSPost2010Prop36
280
     0
102
RTVSPost2010PropOp36
 70
     1
102
RTVSPost2010Prop37
 90
       50
102
RTVSPost2010PropOp37
 70
     1
102
RTVSPost2010Prop38
140
0.0
102
RTVSPost2010PropOp38
 70
     1
102
RTVSPost2010Prop39
140
1.0
102
RTVSPost2010PropOp39
 70
     1
102
RTVSPost2010Prop40
 90
        0
102
RTVSPost2010PropOp40
 70
     1
102
RTVSPost2010Prop41ColorIndex
 90
       18
102
RTVSPost2010Prop41ColorRGB
 90
        0
102
RTVSPost2010PropOp41
 70
     1
102
RTVSPost2010Prop42
 90
       50
102
RTVSPost2010PropOp42
 70
     1
102
RTVSPost2010Prop43
 90
        3
102
RTVSPost2010PropOp43
 70
     1
102
RTVSPost2010Prop44ColorIndex
 90
        5
102
RTVSPost2010Prop44ColorRGB
 90
      255
102
RTVSPost2010PropOp44
 70
     1
102
RTVSPost2010Prop45
280
     0
102
RTVSPost2010PropOp45
 70
     1
102
RTVSPost2010Prop46
 90
       50
102
RTVSPost2010PropOp46
 70
     1
102
RTVSPost2010Prop47
 90
       50
102
RTVSPost2010PropOp47
 70
     1
102
RTVSPost2010Prop48
 90
       50
102
RTVSPost2010PropOp48
 70
     1
102
RTVSPost2010Prop49
280
     0
102
RTVSPost2010PropOp49
 70
     1
102
RTVSPost2010Prop50
 90
       50
102
RTVSPost2010PropOp50
 70
     1
102
RTVSPost2010Prop51ColorIndex
 90
      256
102
RTVSPost2010Prop51ColorRGB
 90
-16777216
102
RTVSPost2010PropOp51
 70
     0
102
RTVSPost2010Prop52
140
1.0
102
RTVSPost2010PropOp52
 70
     0
102
RTVSPost2010Prop53
 90
        2
102
RTVSPost2010PropOp53
 70
     1
102
RTVSPost2010Prop54
  1
strokes_ogs.tif
102
RTVSPost2010PropOp54
 70
     1
102
RTVSPost2010Prop55
280
     0
102
RTVSPost2010PropOp55
 70
     1
102
RTVSPost2010Prop56
140
1.0
102
RTVSPost2010PropOp56
 70
     1
102
RTVSPost2010Prop57
140
1.0
102
RTVSPost2010PropOp57
 70
     1
  0
XRECORD
  5
3FF
102
{ACAD_REACTORS
330
3FE
102
}
330
3FE
100
AcDbXrecord
280
     1
102
RTVSPropertyOp0
 70
     1
102
RTVSPropertyOp1
 70
     1
102
RTVSPropertyOp2
 70
     1
102
RTVSPropertyOp3
 70
     1
102
RTVSPropertyOp4
 70
     1
102
RTVSPropertyOp5
 70
     1
102
RTVSPropertyOp6
 70
     1
102
RTVSPropertyOp7
 70
     1
102
RTVSPropertyOp8
 70
     1
102
RTVSPropertyOp9
 70
     1
102
RTVSPropertyOp10
 70
     1
102
RTVSPropertyOp11
 70
     1
102
RTVSPropertyOp12
 70
     1
102
RTVSPropertyOp13
 70
     1
102
RTVSPropertyOp14
 70
     1
102
RTVSPropertyOp15
 70
     1
102
RTVSPropertyOp16
 70
     1
102
RTVSPropertyOp17
 70
     1
102
RTVSPropertyOp18
 70
     1
102
RTVSPropertyOp19
 70
     1
102
RTVSPropertyOp20
 70
     1
102
RTVSPropertyOp21
 70
     1
102
RTVSPropertyOp22
 70
     1
102
RTVSPropertyOp23
 70
     1
102
RTVSPropertyOp24
 70
     1
102
RTVSPropertyOp25
 70
     1
102
RTVSPropertyOp26
 70
     1
102
RTVSPropertyOp27
 70
     1
102
RTVSPropertyOp28
 70
     1
102
RTVSPropertyOp29
 70
     1
102
RTVSPropertyOp30
 70
     1
102
RTVSPropertyOp31
 70
     1
102
RTVSPropertyOp32
 70
     1
102
RTVSPropertyOp33
 70
     1
102
RTVSPropertyOp34
 70
     1
102
RTVSPropertyOp35
 70
     1
102
RTVSPropertyOp36
 70
     1
102
RTVSPropertyOp37
 70
     1
102
RTVSPropertyOp38
 70
     1
102
RTVSPropertyOp39
 70
     1
102
RTVSPropertyOp40
 70
     1
102
RTVSPropertyOp41
 70
     1
102
RTVSPropertyOp42
 70
     1
102
RTVSPropertyOp43
 70
     1
102
RTVSPropertyOp44
 70
     1
102
RTVSPropertyOp45
 70
     1
102
RTVSPropertyOp46
 70
     1
102
RTVSPropertyOp47
 70
     1
102
RTVSPropertyOp48
 70
     1
102
RTVSPropertyOp49
 70
     1
102
RTVSPropertyOp50
 70
     1
102
RTVSPropertyOp51
 70
     0
102
RTVSPropertyOp52
 70
     0
102
RTVSPropertyOp53
 70
     1
102
RTVSPropertyOp54
 70
     1
102
RTVSPropertyOp55
 70
     1
102
RTVSPropertyOp56
 70
     1
102
RTVSPropertyOp57
 70
     1
102
RTVSPost2010Prop28
280
     0
102
RTVSPost2010PropOp28
 70
     1
102
RTVSPost2010Prop29
280
     1
102
RTVSPost2010PropOp29
 70
     1
102
RTVSPost2010Prop30
280
     1
102
RTVSPost2010PropOp30
 70
     1
102
RTVSPost2010Prop31
280
     0
102
RTVSPost2010PropOp31
 70
     1
102
RTVSPost2010Prop32
280
     0
102
RTVSPost2010PropOp32
 70
     1
102
RTVSPost2010Prop33
280
     0
102
RTVSPost2010PropOp33
 70
     1
102
RTVSPost2010Prop34
280
     0
102
RTVSPost2010PropOp34
 70
     1
102
RTVSPost2010Prop35
280
     0
102
RTVSPost2010PropOp35
 70
     1
102
RTVSPost2010Prop36
280
     0
102
RTVSPost2010PropOp36
 70
     1
102
RTVSPost2010Prop37
 90
       50
102
RTVSPost2010PropOp37
 70
     1
102
RTVSPost2010Prop38
140
0.0
102
RTVSPost2010PropOp38
 70
     1
102
RTVSPost2010Prop39
140
1.0
102
RTVSPost2010PropOp39
 70
     1
102
RTVSPost2010Prop40
 90
        0
102
RTVSPost2010PropOp40
 70
     1
102
RTVSPost2010Prop41ColorIndex
 90
       18
102
RTVSPost2010Prop41ColorRGB
 90
        0
102
RTVSPost2010PropOp41
 70
     1
102
RTVSPost2010Prop42
 90
       50
102
RTVSPost2010PropOp42
 70
     1
102
RTVSPost2010Prop43
 90
        3
102
RTVSPost2010PropOp43
 70
     1
102
RTVSPost2010Prop44ColorIndex
 90
        5
102
RTVSPost2010Prop44ColorRGB
 90
      255
102
RTVSPost2010PropOp44
 70
     1
102
RTVSPost2010Prop45
280
     0
102
RTVSPost2010PropOp45
 70
     1
102
RTVSPost2010Prop46
 90
       50
102
RTVSPost2010PropOp46
 70
     1
102
RTVSPost2010Prop47
 90
       50
102
RTVSPost2010PropOp47
 70
     1
102
RTVSPost2010Prop48
 90
       50
102
RTVSPost2010PropOp48
 70
     1
102
RTVSPost2010Prop49
280
     0
102
RTVSPost2010PropOp49
 70
     1
102
RTVSPost2010Prop50
 90
       50
102
RTVSPost2010PropOp50
 70
     1
102
RTVSPost2010Prop51ColorIndex
 90
      256
102
RTVSPost2010Prop51ColorRGB
 90
-16777216
102
RTVSPost2010PropOp51
 70
     0
102
RTVSPost2010Prop52
140
1.0
102
RTVSPost2010PropOp52
 70
     0
102
RTVSPost2010Prop53
 90
        2
102
RTVSPost2010PropOp53
 70
     1
102
RTVSPost2010Prop54
  1
strokes_ogs.tif
102
RTVSPost2010PropOp54
 70
     1
102
RTVSPost2010Prop55
280
     0
102
RTVSPost2010PropOp55
 70
     1
102
RTVSPost2010Prop56
140
1.0
102
RTVSPost2010PropOp56
 70
     1
102
RTVSPost2010Prop57
140
1.0
102
RTVSPost2010PropOp57
 70
     1
  0
XRECORD
  5
40F
102
{ACAD_REACTORS
330
40E
102
}
330
40E
100
AcDbXrecord
280
     1
102
RTVSPropertyOp0
 70
     0
102
RTVSPropertyOp1
 70
     0
102
RTVSPropertyOp2
 70
     0
102
RTVSPropertyOp3
 70
     0
102
RTVSPropertyOp4
 70
     0
102
RTVSPropertyOp5
 70
     0
102
RTVSPropertyOp6
 70
     0
102
RTVSPropertyOp7
 70
     0
102
RTVSPropertyOp8
 70
     0
102
RTVSPropertyOp9
 70
     0
102
RTVSPropertyOp10
 70
     0
102
RTVSPropertyOp11
 70
     0
102
RTVSPropertyOp12
 70
     0
102
RTVSPropertyOp13
 70
     0
102
RTVSPropertyOp14
 70
     2
102
RTVSPropertyOp15
 70
     0
102
RTVSPropertyOp16
 70
     0
102
RTVSPropertyOp17
 70
     0
102
RTVSPropertyOp18
 70
     0
102
RTVSPropertyOp19
 70
     0
102
RTVSPropertyOp20
 70
     0
102
RTVSPropertyOp21
 70
     0
102
RTVSPropertyOp22
 70
     0
102
RTVSPropertyOp23
 70
     0
102
RTVSPropertyOp24
 70
     0
102
RTVSPropertyOp25
 70
     0
102
RTVSPropertyOp26
 70
     0
102
RTVSPropertyOp27
 70
     0
102
RTVSPropertyOp28
 70
     0
102
RTVSPropertyOp29
 70
     0
102
RTVSPropertyOp30
 70
     0
102
RTVSPropertyOp31
 70
     0
102
RTVSPropertyOp32
 70
     0
102
RTVSPropertyOp33
 70
     0
102
RTVSPropertyOp34
 70
     0
102
RTVSPropertyOp35
 70
     0
102
RTVSPropertyOp36
 70
     0
102
RTVSPropertyOp37
 70
     0
102
RTVSPropertyOp38
 70
     0
102
RTVSPropertyOp39
 70
     0
102
RTVSPropertyOp40
 70
     0
102
RTVSPropertyOp41
 70
     0
102
RTVSPropertyOp42
 70
     0
102
RTVSPropertyOp43
 70
     0
102
RTVSPropertyOp44
 70
     0
102
RTVSPropertyOp45
 70
     0
102
RTVSPropertyOp46
 70
     0
102
RTVSPropertyOp47
 70
     0
102
RTVSPropertyOp48
 70
     0
102
RTVSPropertyOp49
 70
     0
102
RTVSPropertyOp50
 70
     0
102
RTVSPropertyOp51
 70
     0
102
RTVSPropertyOp52
 70
     0
102
RTVSPropertyOp53
 70
     0
102
RTVSPropertyOp54
 70
     0
102
RTVSPropertyOp55
 70
     0
102
RTVSPropertyOp56
 70
     0
102
RTVSPropertyOp57
 70
     0
102
RTVSPost2010Prop28
280
     0
102
RTVSPost2010PropOp28
 70
     0
102
RTVSPost2010Prop29
280
     1
102
RTVSPost2010PropOp29
 70
     0
102
RTVSPost2010Prop30
280
     1
102
RTVSPost2010PropOp30
 70
     0
102
RTVSPost2010Prop31
280
     0
102
RTVSPost2010PropOp31
 70
     0
102
RTVSPost2010Prop32
280
     0
102
RTVSPost2010PropOp32
 70
     0
102
RTVSPost2010Prop33
280
     0
102
RTVSPost2010PropOp33
 70
     0
102
RTVSPost2010Prop34
280
     0
102
RTVSPost2010PropOp34
 70
     0
102
RTVSPost2010Prop35
280
     0
102
RTVSPost2010PropOp35
 70
     0
102
RTVSPost2010Prop36
280
     0
102
RTVSPost2010PropOp36
 70
     0
102
RTVSPost2010Prop37
 90
       50
102
RTVSPost2010PropOp37
 70
     0
102
RTVSPost2010Prop38
140
0.0
102
RTVSPost2010PropOp38
 70
     0
102
RTVSPost2010Prop39
140
1.0
102
RTVSPost2010PropOp39
 70
     0
102
RTVSPost2010Prop40
 90
        0
102
RTVSPost2010PropOp40
 70
     0
102
RTVSPost2010Prop41ColorIndex
 90
       18
102
RTVSPost2010Prop41ColorRGB
 90
        0
102
RTVSPost2010PropOp41
 70
     0
102
RTVSPost2010Prop42
 90
       50
102
RTVSPost2010PropOp42
 70
     0
102
RTVSPost2010Prop43
 90
        3
102
RTVSPost2010PropOp43
 70
     0
102
RTVSPost2010Prop44ColorIndex
 90
        5
102
RTVSPost2010Prop44ColorRGB
 90
      255
102
RTVSPost2010PropOp44
 70
     0
102
RTVSPost2010Prop45
280
     0
102
RTVSPost2010PropOp45
 70
     0
102
RTVSPost2010Prop46
 90
       50
102
RTVSPost2010PropOp46
 70
     0
102
RTVSPost2010Prop47
 90
       50
102
RTVSPost2010PropOp47
 70
     0
102
RTVSPost2010Prop48
 90
       50
102
RTVSPost2010PropOp48
 70
     0
102
RTVSPost2010Prop49
280
     0
102
RTVSPost2010PropOp49
 70
     0
102
RTVSPost2010Prop50
 90
       50
102
RTVSPost2010PropOp50
 70
     0
102
RTVSPost2010Prop51ColorIndex
 90
      256
102
RTVSPost2010Prop51ColorRGB
 90
-16777216
102
RTVSPost2010PropOp51
 70
     0
102
RTVSPost2010Prop52
140
1.0
102
RTVSPost2010PropOp52
 70
     0
102
RTVSPost2010Prop53
 90
        2
102
RTVSPost2010PropOp53
 70
     0
102
RTVSPost2010Prop54
  1
strokes_ogs.tif
102
RTVSPost2010PropOp54
 70
     0
102
RTVSPost2010Prop55
280
     0
102
RTVSPost2010PropOp55
 70
     0
102
RTVSPost2010Prop56
140
1.0
102
RTVSPost2010PropOp56
 70
     0
102
RTVSPost2010Prop57
140
1.0
102
RTVSPost2010PropOp57
 70
     0
  0
XRECORD
  5
407
102
{ACAD_REACTORS
330
406
102
}
330
406
100
AcDbXrecord
280
     1
102
RTVSPropertyOp0
 70
     1
102
RTVSPropertyOp1
 70
     1
102
RTVSPropertyOp2
 70
     1
102
RTVSPropertyOp3
 70
     1
102
RTVSPropertyOp4
 70
     1
102
RTVSPropertyOp5
 70
     1
102
RTVSPropertyOp6
 70
     1
102
RTVSPropertyOp7
 70
     1
102
RTVSPropertyOp8
 70
     1
102
RTVSPropertyOp9
 70
     1
102
RTVSPropertyOp10
 70
     1
102
RTVSPropertyOp11
 70
     1
102
RTVSPropertyOp12
 70
     1
102
RTVSPropertyOp13
 70
     1
102
RTVSPropertyOp14
 70
     1
102
RTVSPropertyOp15
 70
     1
102
RTVSPropertyOp16
 70
     1
102
RTVSPropertyOp17
 70
     1
102
RTVSPropertyOp18
 70
     1
102
RTVSPropertyOp19
 70
     1
102
RTVSPropertyOp20
 70
     1
102
RTVSPropertyOp21
 70
     1
102
RTVSPropertyOp22
 70
     1
102
RTVSPropertyOp23
 70
     1
102
RTVSPropertyOp24
 70
     1
102
RTVSPropertyOp25
 70
     1
102
RTVSPropertyOp26
 70
     1
102
RTVSPropertyOp27
 70
     1
102
RTVSPropertyOp28
 70
     1
102
RTVSPropertyOp29
 70
     1
102
RTVSPropertyOp30
 70
     1
102
RTVSPropertyOp31
 70
     1
102
RTVSPropertyOp32
 70
     1
102
RTVSPropertyOp33
 70
     1
102
RTVSPropertyOp34
 70
     1
102
RTVSPropertyOp35
 70
     1
102
RTVSPropertyOp36
 70
     1
102
RTVSPropertyOp37
 70
     1
102
RTVSPropertyOp38
 70
     1
102
RTVSPropertyOp39
 70
     1
102
RTVSPropertyOp40
 70
     1
102
RTVSPropertyOp41
 70
     1
102
RTVSPropertyOp42
 70
     1
102
RTVSPropertyOp43
 70
     1
102
RTVSPropertyOp44
 70
     1
102
RTVSPropertyOp45
 70
     1
102
RTVSPropertyOp46
 70
     1
102
RTVSPropertyOp47
 70
     1
102
RTVSPropertyOp48
 70
     1
102
RTVSPropertyOp49
 70
     1
102
RTVSPropertyOp50
 70
     1
102
RTVSPropertyOp51
 70
     0
102
RTVSPropertyOp52
 70
     0
102
RTVSPropertyOp53
 70
     1
102
RTVSPropertyOp54
 70
     1
102
RTVSPropertyOp55
 70
     1
102
RTVSPropertyOp56
 70
     1
102
RTVSPropertyOp57
 70
     1
102
RTVSPost2010Prop28
280
     0
102
RTVSPost2010PropOp28
 70
     1
102
RTVSPost2010Prop29
280
     1
102
RTVSPost2010PropOp29
 70
     1
102
RTVSPost2010Prop30
280
     1
102
RTVSPost2010PropOp30
 70
     1
102
RTVSPost2010Prop31
280
     0
102
RTVSPost2010PropOp31
 70
     1
102
RTVSPost2010Prop32
280
     0
102
RTVSPost2010PropOp32
 70
     1
102
RTVSPost2010Prop33
280
     0
102
RTVSPost2010PropOp33
 70
     1
102
RTVSPost2010Prop34
280
     0
102
RTVSPost2010PropOp34
 70
     1
102
RTVSPost2010Prop35
280
     0
102
RTVSPost2010PropOp35
 70
     1
102
RTVSPost2010Prop36
280
     0
102
RTVSPost2010PropOp36
 70
     1
102
RTVSPost2010Prop37
 90
       50
102
RTVSPost2010PropOp37
 70
     1
102
RTVSPost2010Prop38
140
0.0
102
RTVSPost2010PropOp38
 70
     1
102
RTVSPost2010Prop39
140
1.0
102
RTVSPost2010PropOp39
 70
     1
102
RTVSPost2010Prop40
 90
        0
102
RTVSPost2010PropOp40
 70
     1
102
RTVSPost2010Prop41ColorIndex
 90
       18
102
RTVSPost2010Prop41ColorRGB
 90
        0
102
RTVSPost2010PropOp41
 70
     1
102
RTVSPost2010Prop42
 90
       50
102
RTVSPost2010PropOp42
 70
     1
102
RTVSPost2010Prop43
 90
        3
102
RTVSPost2010PropOp43
 70
     1
102
RTVSPost2010Prop44ColorIndex
 90
        5
102
RTVSPost2010Prop44ColorRGB
 90
      255
102
RTVSPost2010PropOp44
 70
     1
102
RTVSPost2010Prop45
280
     0
102
RTVSPost2010PropOp45
 70
     1
102
RTVSPost2010Prop46
 90
       50
102
RTVSPost2010PropOp46
 70
     1
102
RTVSPost2010Prop47
 90
       50
102
RTVSPost2010PropOp47
 70
     1
102
RTVSPost2010Prop48
 90
       50
102
RTVSPost2010PropOp48
 70
     1
102
RTVSPost2010Prop49
280
     0
102
RTVSPost2010PropOp49
 70
     1
102
RTVSPost2010Prop50
 90
       50
102
RTVSPost2010PropOp50
 70
     1
102
RTVSPost2010Prop51ColorIndex
 90
      256
102
RTVSPost2010Prop51ColorRGB
 90
-16777216
102
RTVSPost2010PropOp51
 70
     0
102
RTVSPost2010Prop52
140
1.0
102
RTVSPost2010PropOp52
 70
     0
102
RTVSPost2010Prop53
 90
        2
102
RTVSPost2010PropOp53
 70
     1
102
RTVSPost2010Prop54
  1
strokes_ogs.tif
102
RTVSPost2010PropOp54
 70
     1
102
RTVSPost2010Prop55
280
     0
102
RTVSPost2010PropOp55
 70
     1
102
RTVSPost2010Prop56
140
1.0
102
RTVSPost2010PropOp56
 70
     1
102
RTVSPost2010Prop57
140
1.0
102
RTVSPost2010PropOp57
 70
     1
  0
XRECORD
  5
3EB
102
{ACAD_REACTORS
330
3EA
102
}
330
3EA
100
AcDbXrecord
280
     1
102
RTVSPropertyOp0
 70
     1
102
RTVSPropertyOp1
 70
     1
102
RTVSPropertyOp2
 70
     1
102
RTVSPropertyOp3
 70
     1
102
RTVSPropertyOp4
 70
     1
102
RTVSPropertyOp5
 70
     1
102
RTVSPropertyOp6
 70
     1
102
RTVSPropertyOp7
 70
     1
102
RTVSPropertyOp8
 70
     1
102
RTVSPropertyOp9
 70
     1
102
RTVSPropertyOp10
 70
     1
102
RTVSPropertyOp11
 70
     1
102
RTVSPropertyOp12
 70
     1
102
RTVSPropertyOp13
 70
     1
102
RTVSPropertyOp14
 70
     1
102
RTVSPropertyOp15
 70
     1
102
RTVSPropertyOp16
 70
     1
102
RTVSPropertyOp17
 70
     1
102
RTVSPropertyOp18
 70
     1
102
RTVSPropertyOp19
 70
     1
102
RTVSPropertyOp20
 70
     1
102
RTVSPropertyOp21
 70
     1
102
RTVSPropertyOp22
 70
     1
102
RTVSPropertyOp23
 70
     1
102
RTVSPropertyOp24
 70
     1
102
RTVSPropertyOp25
 70
     1
102
RTVSPropertyOp26
 70
     1
102
RTVSPropertyOp27
 70
     1
102
RTVSPropertyOp28
 70
     1
102
RTVSPropertyOp29
 70
     1
102
RTVSPropertyOp30
 70
     1
102
RTVSPropertyOp31
 70
     1
102
RTVSPropertyOp32
 70
     1
102
RTVSPropertyOp33
 70
     1
102
RTVSPropertyOp34
 70
     1
102
RTVSPropertyOp35
 70
     1
102
RTVSPropertyOp36
 70
     1
102
RTVSPropertyOp37
 70
     1
102
RTVSPropertyOp38
 70
     1
102
RTVSPropertyOp39
 70
     1
102
RTVSPropertyOp40
 70
     1
102
RTVSPropertyOp41
 70
     1
102
RTVSPropertyOp42
 70
     1
102
RTVSPropertyOp43
 70
     1
102
RTVSPropertyOp44
 70
     1
102
RTVSPropertyOp45
 70
     1
102
RTVSPropertyOp46
 70
     1
102
RTVSPropertyOp47
 70
     1
102
RTVSPropertyOp48
 70
     1
102
RTVSPropertyOp49
 70
     1
102
RTVSPropertyOp50
 70
     1
102
RTVSPropertyOp51
 70
     0
102
RTVSPropertyOp52
 70
     0
102
RTVSPropertyOp53
 70
     1
102
RTVSPropertyOp54
 70
     1
102
RTVSPropertyOp55
 70
     1
102
RTVSPropertyOp56
 70
     1
102
RTVSPropertyOp57
 70
     1
102
RTVSPost2010Prop28
280
     0
102
RTVSPost2010PropOp28
 70
     1
102
RTVSPost2010Prop29
280
     1
102
RTVSPost2010PropOp29
 70
     1
102
RTVSPost2010Prop30
280
     1
102
RTVSPost2010PropOp30
 70
     1
102
RTVSPost2010Prop31
280
     0
102
RTVSPost2010PropOp31
 70
     1
102
RTVSPost2010Prop32
280
     0
102
RTVSPost2010PropOp32
 70
     1
102
RTVSPost2010Prop33
280
     0
102
RTVSPost2010PropOp33
 70
     1
102
RTVSPost2010Prop34
280
     0
102
RTVSPost2010PropOp34
 70
     1
102
RTVSPost2010Prop35
280
     0
102
RTVSPost2010PropOp35
 70
     1
102
RTVSPost2010Prop36
280
     0
102
RTVSPost2010PropOp36
 70
     1
102
RTVSPost2010Prop37
 90
       50
102
RTVSPost2010PropOp37
 70
     1
102
RTVSPost2010Prop38
140
0.0
102
RTVSPost2010PropOp38
 70
     1
102
RTVSPost2010Prop39
140
1.0
102
RTVSPost2010PropOp39
 70
     1
102
RTVSPost2010Prop40
 90
        0
102
RTVSPost2010PropOp40
 70
     1
102
RTVSPost2010Prop41ColorIndex
 90
       18
102
RTVSPost2010Prop41ColorRGB
 90
        0
102
RTVSPost2010PropOp41
 70
     1
102
RTVSPost2010Prop42
 90
       50
102
RTVSPost2010PropOp42
 70
     1
102
RTVSPost2010Prop43
 90
        3
102
RTVSPost2010PropOp43
 70
     1
102
RTVSPost2010Prop44ColorIndex
 90
        5
102
RTVSPost2010Prop44ColorRGB
 90
      255
102
RTVSPost2010PropOp44
 70
     1
102
RTVSPost2010Prop45
280
     0
102
RTVSPost2010PropOp45
 70
     1
102
RTVSPost2010Prop46
 90
       50
102
RTVSPost2010PropOp46
 70
     1
102
RTVSPost2010Prop47
 90
       50
102
RTVSPost2010PropOp47
 70
     1
102
RTVSPost2010Prop48
 90
       50
102
RTVSPost2010PropOp48
 70
     1
102
RTVSPost2010Prop49
280
     0
102
RTVSPost2010PropOp49
 70
     1
102
RTVSPost2010Prop50
 90
       50
102
RTVSPost2010PropOp50
 70
     1
102
RTVSPost2010Prop51ColorIndex
 90
      256
102
RTVSPost2010Prop51ColorRGB
 90
-16777216
102
RTVSPost2010PropOp51
 70
     0
102
RTVSPost2010Prop52
140
1.0
102
RTVSPost2010PropOp52
 70
     0
102
RTVSPost2010Prop53
 90
        2
102
RTVSPost2010PropOp53
 70
     1
102
RTVSPost2010Prop54
  1
strokes_ogs.tif
102
RTVSPost2010PropOp54
 70
     1
102
RTVSPost2010Prop55
280
     0
102
RTVSPost2010PropOp55
 70
     1
102
RTVSPost2010Prop56
140
1.0
102
RTVSPost2010PropOp56
 70
     1
102
RTVSPost2010Prop57
140
1.0
102
RTVSPost2010PropOp57
 70
     1
  0
XRECORD
  5
3ED
102
{ACAD_REACTORS
330
3EC
102
}
330
3EC
100
AcDbXrecord
280
     1
102
RTVSPropertyOp0
 70
     1
102
RTVSPropertyOp1
 70
     1
102
RTVSPropertyOp2
 70
     1
102
RTVSPropertyOp3
 70
     1
102
RTVSPropertyOp4
 70
     1
102
RTVSPropertyOp5
 70
     1
102
RTVSPropertyOp6
 70
     1
102
RTVSPropertyOp7
 70
     1
102
RTVSPropertyOp8
 70
     1
102
RTVSPropertyOp9
 70
     1
102
RTVSPropertyOp10
 70
     1
102
RTVSPropertyOp11
 70
     1
102
RTVSPropertyOp12
 70
     1
102
RTVSPropertyOp13
 70
     1
102
RTVSPropertyOp14
 70
     1
102
RTVSPropertyOp15
 70
     1
102
RTVSPropertyOp16
 70
     1
102
RTVSPropertyOp17
 70
     1
102
RTVSPropertyOp18
 70
     1
102
RTVSPropertyOp19
 70
     1
102
RTVSPropertyOp20
 70
     1
102
RTVSPropertyOp21
 70
     1
102
RTVSPropertyOp22
 70
     1
102
RTVSPropertyOp23
 70
     1
102
RTVSPropertyOp24
 70
     1
102
RTVSPropertyOp25
 70
     1
102
RTVSPropertyOp26
 70
     1
102
RTVSPropertyOp27
 70
     1
102
RTVSPropertyOp28
 70
     1
102
RTVSPropertyOp29
 70
     1
102
RTVSPropertyOp30
 70
     1
102
RTVSPropertyOp31
 70
     1
102
RTVSPropertyOp32
 70
     1
102
RTVSPropertyOp33
 70
     1
102
RTVSPropertyOp34
 70
     1
102
RTVSPropertyOp35
 70
     1
102
RTVSPropertyOp36
 70
     1
102
RTVSPropertyOp37
 70
     1
102
RTVSPropertyOp38
 70
     1
102
RTVSPropertyOp39
 70
     1
102
RTVSPropertyOp40
 70
     1
102
RTVSPropertyOp41
 70
     1
102
RTVSPropertyOp42
 70
     1
102
RTVSPropertyOp43
 70
     1
102
RTVSPropertyOp44
 70
     1
102
RTVSPropertyOp45
 70
     1
102
RTVSPropertyOp46
 70
     1
102
RTVSPropertyOp47
 70
     1
102
RTVSPropertyOp48
 70
     1
102
RTVSPropertyOp49
 70
     1
102
RTVSPropertyOp50
 70
     1
102
RTVSPropertyOp51
 70
     0
102
RTVSPropertyOp52
 70
     0
102
RTVSPropertyOp53
 70
     1
102
RTVSPropertyOp54
 70
     1
102
RTVSPropertyOp55
 70
     1
102
RTVSPropertyOp56
 70
     1
102
RTVSPropertyOp57
 70
     1
102
RTVSPost2010Prop28
280
     0
102
RTVSPost2010PropOp28
 70
     1
102
RTVSPost2010Prop29
280
     1
102
RTVSPost2010PropOp29
 70
     1
102
RTVSPost2010Prop30
280
     1
102
RTVSPost2010PropOp30
 70
     1
102
RTVSPost2010Prop31
280
     0
102
RTVSPost2010PropOp31
 70
     1
102
RTVSPost2010Prop32
280
     0
102
RTVSPost2010PropOp32
 70
     1
102
RTVSPost2010Prop33
280
     0
102
RTVSPost2010PropOp33
 70
     1
102
RTVSPost2010Prop34
280
     0
102
RTVSPost2010PropOp34
 70
     1
102
RTVSPost2010Prop35
280
     0
102
RTVSPost2010PropOp35
 70
     1
102
RTVSPost2010Prop36
280
     0
102
RTVSPost2010PropOp36
 70
     1
102
RTVSPost2010Prop37
 90
       50
102
RTVSPost2010PropOp37
 70
     1
102
RTVSPost2010Prop38
140
0.0
102
RTVSPost2010PropOp38
 70
     1
102
RTVSPost2010Prop39
140
1.0
102
RTVSPost2010PropOp39
 70
     1
102
RTVSPost2010Prop40
 90
        0
102
RTVSPost2010PropOp40
 70
     1
102
RTVSPost2010Prop41ColorIndex
 90
       18
102
RTVSPost2010Prop41ColorRGB
 90
        0
102
RTVSPost2010PropOp41
 70
     1
102
RTVSPost2010Prop42
 90
       50
102
RTVSPost2010PropOp42
 70
     1
102
RTVSPost2010Prop43
 90
        3
102
RTVSPost2010PropOp43
 70
     1
102
RTVSPost2010Prop44ColorIndex
 90
        5
102
RTVSPost2010Prop44ColorRGB
 90
      255
102
RTVSPost2010PropOp44
 70
     1
102
RTVSPost2010Prop45
280
     0
102
RTVSPost2010PropOp45
 70
     1
102
RTVSPost2010Prop46
 90
       50
102
RTVSPost2010PropOp46
 70
     1
102
RTVSPost2010Prop47
 90
       50
102
RTVSPost2010PropOp47
 70
     1
102
RTVSPost2010Prop48
 90
       50
102
RTVSPost2010PropOp48
 70
     1
102
RTVSPost2010Prop49
280
     0
102
RTVSPost2010PropOp49
 70
     1
102
RTVSPost2010Prop50
 90
       50
102
RTVSPost2010PropOp50
 70
     1
102
RTVSPost2010Prop51ColorIndex
 90
      256
102
RTVSPost2010Prop51ColorRGB
 90
-16777216
102
RTVSPost2010PropOp51
 70
     0
102
RTVSPost2010Prop52
140
1.0
102
RTVSPost2010PropOp52
 70
     0
102
RTVSPost2010Prop53
 90
        2
102
RTVSPost2010PropOp53
 70
     1
102
RTVSPost2010Prop54
  1
strokes_ogs.tif
102
RTVSPost2010PropOp54
 70
     1
102
RTVSPost2010Prop55
280
     0
102
RTVSPost2010PropOp55
 70
     1
102
RTVSPost2010Prop56
140
1.0
102
RTVSPost2010PropOp56
 70
     1
102
RTVSPost2010Prop57
140
1.0
102
RTVSPost2010PropOp57
 70
     1
  0
XRECORD
  5
3EF
102
{ACAD_REACTORS
330
3EE
102
}
330
3EE
100
AcDbXrecord
280
     1
102
RTVSPropertyOp0
 70
     1
102
RTVSPropertyOp1
 70
     1
102
RTVSPropertyOp2
 70
     1
102
RTVSPropertyOp3
 70
     1
102
RTVSPropertyOp4
 70
     1
102
RTVSPropertyOp5
 70
     1
102
RTVSPropertyOp6
 70
     1
102
RTVSPropertyOp7
 70
     1
102
RTVSPropertyOp8
 70
     1
102
RTVSPropertyOp9
 70
     1
102
RTVSPropertyOp10
 70
     1
102
RTVSPropertyOp11
 70
     1
102
RTVSPropertyOp12
 70
     1
102
RTVSPropertyOp13
 70
     1
102
RTVSPropertyOp14
 70
     1
102
RTVSPropertyOp15
 70
     1
102
RTVSPropertyOp16
 70
     1
102
RTVSPropertyOp17
 70
     1
102
RTVSPropertyOp18
 70
     1
102
RTVSPropertyOp19
 70
     1
102
RTVSPropertyOp20
 70
     1
102
RTVSPropertyOp21
 70
     1
102
RTVSPropertyOp22
 70
     1
102
RTVSPropertyOp23
 70
     1
102
RTVSPropertyOp24
 70
     1
102
RTVSPropertyOp25
 70
     1
102
RTVSPropertyOp26
 70
     1
102
RTVSPropertyOp27
 70
     1
102
RTVSPropertyOp28
 70
     1
102
RTVSPropertyOp29
 70
     1
102
RTVSPropertyOp30
 70
     1
102
RTVSPropertyOp31
 70
     1
102
RTVSPropertyOp32
 70
     1
102
RTVSPropertyOp33
 70
     1
102
RTVSPropertyOp34
 70
     1
102
RTVSPropertyOp35
 70
     1
102
RTVSPropertyOp36
 70
     1
102
RTVSPropertyOp37
 70
     1
102
RTVSPropertyOp38
 70
     1
102
RTVSPropertyOp39
 70
     1
102
RTVSPropertyOp40
 70
     1
102
RTVSPropertyOp41
 70
     1
102
RTVSPropertyOp42
 70
     1
102
RTVSPropertyOp43
 70
     1
102
RTVSPropertyOp44
 70
     1
102
RTVSPropertyOp45
 70
     1
102
RTVSPropertyOp46
 70
     1
102
RTVSPropertyOp47
 70
     1
102
RTVSPropertyOp48
 70
     1
102
RTVSPropertyOp49
 70
     1
102
RTVSPropertyOp50
 70
     1
102
RTVSPropertyOp51
 70
     0
102
RTVSPropertyOp52
 70
     0
102
RTVSPropertyOp53
 70
     1
102
RTVSPropertyOp54
 70
     1
102
RTVSPropertyOp55
 70
     1
102
RTVSPropertyOp56
 70
     1
102
RTVSPropertyOp57
 70
     1
102
RTVSPost2010Prop28
280
     0
102
RTVSPost2010PropOp28
 70
     1
102
RTVSPost2010Prop29
280
     1
102
RTVSPost2010PropOp29
 70
     1
102
RTVSPost2010Prop30
280
     1
102
RTVSPost2010PropOp30
 70
     1
102
RTVSPost2010Prop31
280
     0
102
RTVSPost2010PropOp31
 70
     1
102
RTVSPost2010Prop32
280
     0
102
RTVSPost2010PropOp32
 70
     1
102
RTVSPost2010Prop33
280
     0
102
RTVSPost2010PropOp33
 70
     1
102
RTVSPost2010Prop34
280
     0
102
RTVSPost2010PropOp34
 70
     1
102
RTVSPost2010Prop35
280
     0
102
RTVSPost2010PropOp35
 70
     1
102
RTVSPost2010Prop36
280
     0
102
RTVSPost2010PropOp36
 70
     1
102
RTVSPost2010Prop37
 90
       50
102
RTVSPost2010PropOp37
 70
     1
102
RTVSPost2010Prop38
140
0.0
102
RTVSPost2010PropOp38
 70
     1
102
RTVSPost2010Prop39
140
1.0
102
RTVSPost2010PropOp39
 70
     1
102
RTVSPost2010Prop40
 90
        0
102
RTVSPost2010PropOp40
 70
     1
102
RTVSPost2010Prop41ColorIndex
 90
       18
102
RTVSPost2010Prop41ColorRGB
 90
        0
102
RTVSPost2010PropOp41
 70
     1
102
RTVSPost2010Prop42
 90
       50
102
RTVSPost2010PropOp42
 70
     1
102
RTVSPost2010Prop43
 90
        3
102
RTVSPost2010PropOp43
 70
     1
102
RTVSPost2010Prop44ColorIndex
 90
        5
102
RTVSPost2010Prop44ColorRGB
 90
      255
102
RTVSPost2010PropOp44
 70
     1
102
RTVSPost2010Prop45
280
     0
102
RTVSPost2010PropOp45
 70
     1
102
RTVSPost2010Prop46
 90
       50
102
RTVSPost2010PropOp46
 70
     1
102
RTVSPost2010Prop47
 90
       50
102
RTVSPost2010PropOp47
 70
     1
102
RTVSPost2010Prop48
 90
       50
102
RTVSPost2010PropOp48
 70
     1
102
RTVSPost2010Prop49
280
     0
102
RTVSPost2010PropOp49
 70
     1
102
RTVSPost2010Prop50
 90
       50
102
RTVSPost2010PropOp50
 70
     1
102
RTVSPost2010Prop51ColorIndex
 90
      256
102
RTVSPost2010Prop51ColorRGB
 90
-16777216
102
RTVSPost2010PropOp51
 70
     0
102
RTVSPost2010Prop52
140
1.0
102
RTVSPost2010PropOp52
 70
     0
102
RTVSPost2010Prop53
 90
        2
102
RTVSPost2010PropOp53
 70
     1
102
RTVSPost2010Prop54
  1
strokes_ogs.tif
102
RTVSPost2010PropOp54
 70
     1
102
RTVSPost2010Prop55
280
     0
102
RTVSPost2010PropOp55
 70
     1
102
RTVSPost2010Prop56
140
1.0
102
RTVSPost2010PropOp56
 70
     1
102
RTVSPost2010Prop57
140
1.0
102
RTVSPost2010PropOp57
 70
     1
  0
XRECORD
  5
3F1
102
{ACAD_REACTORS
330
3F0
102
}
330
3F0
100
AcDbXrecord
280
     1
102
RTVSPropertyOp0
 70
     1
102
RTVSPropertyOp1
 70
     1
102
RTVSPropertyOp2
 70
     1
102
RTVSPropertyOp3
 70
     1
102
RTVSPropertyOp4
 70
     1
102
RTVSPropertyOp5
 70
     1
102
RTVSPropertyOp6
 70
     1
102
RTVSPropertyOp7
 70
     1
102
RTVSPropertyOp8
 70
     1
102
RTVSPropertyOp9
 70
     1
102
RTVSPropertyOp10
 70
     1
102
RTVSPropertyOp11
 70
     1
102
RTVSPropertyOp12
 70
     1
102
RTVSPropertyOp13
 70
     1
102
RTVSPropertyOp14
 70
     1
102
RTVSPropertyOp15
 70
     1
102
RTVSPropertyOp16
 70
     1
102
RTVSPropertyOp17
 70
     1
102
RTVSPropertyOp18
 70
     1
102
RTVSPropertyOp19
 70
     1
102
RTVSPropertyOp20
 70
     1
102
RTVSPropertyOp21
 70
     1
102
RTVSPropertyOp22
 70
     1
102
RTVSPropertyOp23
 70
     1
102
RTVSPropertyOp24
 70
     1
102
RTVSPropertyOp25
 70
     1
102
RTVSPropertyOp26
 70
     1
102
RTVSPropertyOp27
 70
     1
102
RTVSPropertyOp28
 70
     1
102
RTVSPropertyOp29
 70
     1
102
RTVSPropertyOp30
 70
     1
102
RTVSPropertyOp31
 70
     1
102
RTVSPropertyOp32
 70
     1
102
RTVSPropertyOp33
 70
     1
102
RTVSPropertyOp34
 70
     1
102
RTVSPropertyOp35
 70
     1
102
RTVSPropertyOp36
 70
     1
102
RTVSPropertyOp37
 70
     1
102
RTVSPropertyOp38
 70
     1
102
RTVSPropertyOp39
 70
     1
102
RTVSPropertyOp40
 70
     1
102
RTVSPropertyOp41
 70
     1
102
RTVSPropertyOp42
 70
     1
102
RTVSPropertyOp43
 70
     1
102
RTVSPropertyOp44
 70
     1
102
RTVSPropertyOp45
 70
     1
102
RTVSPropertyOp46
 70
     1
102
RTVSPropertyOp47
 70
     1
102
RTVSPropertyOp48
 70
     1
102
RTVSPropertyOp49
 70
     1
102
RTVSPropertyOp50
 70
     1
102
RTVSPropertyOp51
 70
     0
102
RTVSPropertyOp52
 70
     0
102
RTVSPropertyOp53
 70
     1
102
RTVSPropertyOp54
 70
     1
102
RTVSPropertyOp55
 70
     1
102
RTVSPropertyOp56
 70
     1
102
RTVSPropertyOp57
 70
     1
102
RTVSPost2010Prop28
280
     0
102
RTVSPost2010PropOp28
 70
     1
102
RTVSPost2010Prop29
280
     1
102
RTVSPost2010PropOp29
 70
     1
102
RTVSPost2010Prop30
280
     1
102
RTVSPost2010PropOp30
 70
     1
102
RTVSPost2010Prop31
280
     0
102
RTVSPost2010PropOp31
 70
     1
102
RTVSPost2010Prop32
280
     0
102
RTVSPost2010PropOp32
 70
     1
102
RTVSPost2010Prop33
280
     0
102
RTVSPost2010PropOp33
 70
     1
102
RTVSPost2010Prop34
280
     0
102
RTVSPost2010PropOp34
 70
     1
102
RTVSPost2010Prop35
280
     0
102
RTVSPost2010PropOp35
 70
     1
102
RTVSPost2010Prop36
280
     0
102
RTVSPost2010PropOp36
 70
     1
102
RTVSPost2010Prop37
 90
       50
102
RTVSPost2010PropOp37
 70
     1
102
RTVSPost2010Prop38
140
0.0
102
RTVSPost2010PropOp38
 70
     1
102
RTVSPost2010Prop39
140
1.0
102
RTVSPost2010PropOp39
 70
     1
102
RTVSPost2010Prop40
 90
        0
102
RTVSPost2010PropOp40
 70
     1
102
RTVSPost2010Prop41ColorIndex
 90
       18
102
RTVSPost2010Prop41ColorRGB
 90
        0
102
RTVSPost2010PropOp41
 70
     1
102
RTVSPost2010Prop42
 90
       50
102
RTVSPost2010PropOp42
 70
     1
102
RTVSPost2010Prop43
 90
        3
102
RTVSPost2010PropOp43
 70
     1
102
RTVSPost2010Prop44ColorIndex
 90
        5
102
RTVSPost2010Prop44ColorRGB
 90
      255
102
RTVSPost2010PropOp44
 70
     1
102
RTVSPost2010Prop45
280
     0
102
RTVSPost2010PropOp45
 70
     1
102
RTVSPost2010Prop46
 90
       50
102
RTVSPost2010PropOp46
 70
     1
102
RTVSPost2010Prop47
 90
       50
102
RTVSPost2010PropOp47
 70
     1
102
RTVSPost2010Prop48
 90
       50
102
RTVSPost2010PropOp48
 70
     1
102
RTVSPost2010Prop49
280
     0
102
RTVSPost2010PropOp49
 70
     1
102
RTVSPost2010Prop50
 90
       50
102
RTVSPost2010PropOp50
 70
     1
102
RTVSPost2010Prop51ColorIndex
 90
      256
102
RTVSPost2010Prop51ColorRGB
 90
-16777216
102
RTVSPost2010PropOp51
 70
     0
102
RTVSPost2010Prop52
140
1.0
102
RTVSPost2010PropOp52
 70
     0
102
RTVSPost2010Prop53
 90
        2
102
RTVSPost2010PropOp53
 70
     1
102
RTVSPost2010Prop54
  1
strokes_ogs.tif
102
RTVSPost2010PropOp54
 70
     1
102
RTVSPost2010Prop55
280
     0
102
RTVSPost2010PropOp55
 70
     1
102
RTVSPost2010Prop56
140
1.0
102
RTVSPost2010PropOp56
 70
     1
102
RTVSPost2010Prop57
140
1.0
102
RTVSPost2010PropOp57
 70
     1
  0
XRECORD
  5
3F7
102
{ACAD_REACTORS
330
3F6
102
}
330
3F6
100
AcDbXrecord
280
     1
102
RTVSPropertyOp0
 70
     1
102
RTVSPropertyOp1
 70
     1
102
RTVSPropertyOp2
 70
     1
102
RTVSPropertyOp3
 70
     1
102
RTVSPropertyOp4
 70
     1
102
RTVSPropertyOp5
 70
     1
102
RTVSPropertyOp6
 70
     1
102
RTVSPropertyOp7
 70
     1
102
RTVSPropertyOp8
 70
     1
102
RTVSPropertyOp9
 70
     1
102
RTVSPropertyOp10
 70
     1
102
RTVSPropertyOp11
 70
     1
102
RTVSPropertyOp12
 70
     1
102
RTVSPropertyOp13
 70
     1
102
RTVSPropertyOp14
 70
     1
102
RTVSPropertyOp15
 70
     1
102
RTVSPropertyOp16
 70
     1
102
RTVSPropertyOp17
 70
     1
102
RTVSPropertyOp18
 70
     1
102
RTVSPropertyOp19
 70
     1
102
RTVSPropertyOp20
 70
     1
102
RTVSPropertyOp21
 70
     1
102
RTVSPropertyOp22
 70
     1
102
RTVSPropertyOp23
 70
     1
102
RTVSPropertyOp24
 70
     1
102
RTVSPropertyOp25
 70
     1
102
RTVSPropertyOp26
 70
     1
102
RTVSPropertyOp27
 70
     1
102
RTVSPropertyOp28
 70
     1
102
RTVSPropertyOp29
 70
     1
102
RTVSPropertyOp30
 70
     1
102
RTVSPropertyOp31
 70
     1
102
RTVSPropertyOp32
 70
     1
102
RTVSPropertyOp33
 70
     1
102
RTVSPropertyOp34
 70
     1
102
RTVSPropertyOp35
 70
     1
102
RTVSPropertyOp36
 70
     1
102
RTVSPropertyOp37
 70
     1
102
RTVSPropertyOp38
 70
     1
102
RTVSPropertyOp39
 70
     1
102
RTVSPropertyOp40
 70
     1
102
RTVSPropertyOp41
 70
     1
102
RTVSPropertyOp42
 70
     1
102
RTVSPropertyOp43
 70
     1
102
RTVSPropertyOp44
 70
     1
102
RTVSPropertyOp45
 70
     1
102
RTVSPropertyOp46
 70
     1
102
RTVSPropertyOp47
 70
     1
102
RTVSPropertyOp48
 70
     1
102
RTVSPropertyOp49
 70
     1
102
RTVSPropertyOp50
 70
     1
102
RTVSPropertyOp51
 70
     0
102
RTVSPropertyOp52
 70
     0
102
RTVSPropertyOp53
 70
     1
102
RTVSPropertyOp54
 70
     1
102
RTVSPropertyOp55
 70
     1
102
RTVSPropertyOp56
 70
     1
102
RTVSPropertyOp57
 70
     1
102
RTVSPost2010Prop28
280
     0
102
RTVSPost2010PropOp28
 70
     1
102
RTVSPost2010Prop29
280
     1
102
RTVSPost2010PropOp29
 70
     1
102
RTVSPost2010Prop30
280
     1
102
RTVSPost2010PropOp30
 70
     1
102
RTVSPost2010Prop31
280
     0
102
RTVSPost2010PropOp31
 70
     1
102
RTVSPost2010Prop32
280
     0
102
RTVSPost2010PropOp32
 70
     1
102
RTVSPost2010Prop33
280
     0
102
RTVSPost2010PropOp33
 70
     1
102
RTVSPost2010Prop34
280
     0
102
RTVSPost2010PropOp34
 70
     1
102
RTVSPost2010Prop35
280
     0
102
RTVSPost2010PropOp35
 70
     1
102
RTVSPost2010Prop36
280
     0
102
RTVSPost2010PropOp36
 70
     1
102
RTVSPost2010Prop37
 90
       50
102
RTVSPost2010PropOp37
 70
     1
102
RTVSPost2010Prop38
140
0.0
102
RTVSPost2010PropOp38
 70
     1
102
RTVSPost2010Prop39
140
1.0
102
RTVSPost2010PropOp39
 70
     1
102
RTVSPost2010Prop40
 90
        0
102
RTVSPost2010PropOp40
 70
     1
102
RTVSPost2010Prop41ColorIndex
 90
       18
102
RTVSPost2010Prop41ColorRGB
 90
        0
102
RTVSPost2010PropOp41
 70
     1
102
RTVSPost2010Prop42
 90
       50
102
RTVSPost2010PropOp42
 70
     1
102
RTVSPost2010Prop43
 90
        3
102
RTVSPost2010PropOp43
 70
     1
102
RTVSPost2010Prop44ColorIndex
 90
        5
102
RTVSPost2010Prop44ColorRGB
 90
      255
102
RTVSPost2010PropOp44
 70
     1
102
RTVSPost2010Prop45
280
     0
102
RTVSPost2010PropOp45
 70
     1
102
RTVSPost2010Prop46
 90
       50
102
RTVSPost2010PropOp46
 70
     1
102
RTVSPost2010Prop47
 90
       50
102
RTVSPost2010PropOp47
 70
     1
102
RTVSPost2010Prop48
 90
       50
102
RTVSPost2010PropOp48
 70
     1
102
RTVSPost2010Prop49
280
     0
102
RTVSPost2010PropOp49
 70
     1
102
RTVSPost2010Prop50
 90
       50
102
RTVSPost2010PropOp50
 70
     1
102
RTVSPost2010Prop51ColorIndex
 90
      256
102
RTVSPost2010Prop51ColorRGB
 90
-16777216
102
RTVSPost2010PropOp51
 70
     0
102
RTVSPost2010Prop52
140
1.0
102
RTVSPost2010PropOp52
 70
     0
102
RTVSPost2010Prop53
 90
        2
102
RTVSPost2010PropOp53
 70
     1
102
RTVSPost2010Prop54
  1
strokes_ogs.tif
102
RTVSPost2010PropOp54
 70
     1
102
RTVSPost2010Prop55
280
     0
102
RTVSPost2010PropOp55
 70
     1
102
RTVSPost2010Prop56
140
1.0
102
RTVSPost2010PropOp56
 70
     1
102
RTVSPost2010Prop57
140
1.0
102
RTVSPost2010PropOp57
 70
     1
  0
XRECORD
  5
40B
102
{ACAD_REACTORS
330
40A
102
}
330
40A
100
AcDbXrecord
280
     1
102
RTVSPropertyOp0
 70
     0
102
RTVSPropertyOp1
 70
     0
102
RTVSPropertyOp2
 70
     0
102
RTVSPropertyOp3
 70
     0
102
RTVSPropertyOp4
 70
     0
102
RTVSPropertyOp5
 70
     0
102
RTVSPropertyOp6
 70
     0
102
RTVSPropertyOp7
 70
     0
102
RTVSPropertyOp8
 70
     0
102
RTVSPropertyOp9
 70
     0
102
RTVSPropertyOp10
 70
     0
102
RTVSPropertyOp11
 70
     0
102
RTVSPropertyOp12
 70
     0
102
RTVSPropertyOp13
 70
     0
102
RTVSPropertyOp14
 70
     2
102
RTVSPropertyOp15
 70
     0
102
RTVSPropertyOp16
 70
     0
102
RTVSPropertyOp17
 70
     0
102
RTVSPropertyOp18
 70
     0
102
RTVSPropertyOp19
 70
     0
102
RTVSPropertyOp20
 70
     0
102
RTVSPropertyOp21
 70
     0
102
RTVSPropertyOp22
 70
     0
102
RTVSPropertyOp23
 70
     0
102
RTVSPropertyOp24
 70
     0
102
RTVSPropertyOp25
 70
     0
102
RTVSPropertyOp26
 70
     0
102
RTVSPropertyOp27
 70
     0
102
RTVSPropertyOp28
 70
     0
102
RTVSPropertyOp29
 70
     0
102
RTVSPropertyOp30
 70
     0
102
RTVSPropertyOp31
 70
     0
102
RTVSPropertyOp32
 70
     0
102
RTVSPropertyOp33
 70
     0
102
RTVSPropertyOp34
 70
     0
102
RTVSPropertyOp35
 70
     0
102
RTVSPropertyOp36
 70
     0
102
RTVSPropertyOp37
 70
     0
102
RTVSPropertyOp38
 70
     0
102
RTVSPropertyOp39
 70
     0
102
RTVSPropertyOp40
 70
     0
102
RTVSPropertyOp41
 70
     0
102
RTVSPropertyOp42
 70
     0
102
RTVSPropertyOp43
 70
     0
102
RTVSPropertyOp44
 70
     0
102
RTVSPropertyOp45
 70
     0
102
RTVSPropertyOp46
 70
     0
102
RTVSPropertyOp47
 70
     0
102
RTVSPropertyOp48
 70
     0
102
RTVSPropertyOp49
 70
     0
102
RTVSPropertyOp50
 70
     0
102
RTVSPropertyOp51
 70
     0
102
RTVSPropertyOp52
 70
     0
102
RTVSPropertyOp53
 70
     0
102
RTVSPropertyOp54
 70
     0
102
RTVSPropertyOp55
 70
     0
102
RTVSPropertyOp56
 70
     0
102
RTVSPropertyOp57
 70
     0
102
RTVSPost2010Prop28
280
     0
102
RTVSPost2010PropOp28
 70
     0
102
RTVSPost2010Prop29
280
     1
102
RTVSPost2010PropOp29
 70
     0
102
RTVSPost2010Prop30
280
     1
102
RTVSPost2010PropOp30
 70
     0
102
RTVSPost2010Prop31
280
     0
102
RTVSPost2010PropOp31
 70
     0
102
RTVSPost2010Prop32
280
     0
102
RTVSPost2010PropOp32
 70
     0
102
RTVSPost2010Prop33
280
     0
102
RTVSPost2010PropOp33
 70
     0
102
RTVSPost2010Prop34
280
     0
102
RTVSPost2010PropOp34
 70
     0
102
RTVSPost2010Prop35
280
     0
102
RTVSPost2010PropOp35
 70
     0
102
RTVSPost2010Prop36
280
     0
102
RTVSPost2010PropOp36
 70
     0
102
RTVSPost2010Prop37
 90
       50
102
RTVSPost2010PropOp37
 70
     0
102
RTVSPost2010Prop38
140
0.0
102
RTVSPost2010PropOp38
 70
     0
102
RTVSPost2010Prop39
140
1.0
102
RTVSPost2010PropOp39
 70
     0
102
RTVSPost2010Prop40
 90
        0
102
RTVSPost2010PropOp40
 70
     0
102
RTVSPost2010Prop41ColorIndex
 90
       18
102
RTVSPost2010Prop41ColorRGB
 90
        0
102
RTVSPost2010PropOp41
 70
     0
102
RTVSPost2010Prop42
 90
       50
102
RTVSPost2010PropOp42
 70
     0
102
RTVSPost2010Prop43
 90
        3
102
RTVSPost2010PropOp43
 70
     0
102
RTVSPost2010Prop44ColorIndex
 90
        5
102
RTVSPost2010Prop44ColorRGB
 90
      255
102
RTVSPost2010PropOp44
 70
     0
102
RTVSPost2010Prop45
280
     0
102
RTVSPost2010PropOp45
 70
     0
102
RTVSPost2010Prop46
 90
       50
102
RTVSPost2010PropOp46
 70
     0
102
RTVSPost2010Prop47
 90
       50
102
RTVSPost2010PropOp47
 70
     0
102
RTVSPost2010Prop48
 90
       50
102
RTVSPost2010PropOp48
 70
     0
102
RTVSPost2010Prop49
280
     0
102
RTVSPost2010PropOp49
 70
     0
102
RTVSPost2010Prop50
 90
       50
102
RTVSPost2010PropOp50
 70
     0
102
RTVSPost2010Prop51ColorIndex
 90
      256
102
RTVSPost2010Prop51ColorRGB
 90
-16777216
102
RTVSPost2010PropOp51
 70
     0
102
RTVSPost2010Prop52
140
1.0
102
RTVSPost2010PropOp52
 70
     0
102
RTVSPost2010Prop53
 90
        2
102
RTVSPost2010PropOp53
 70
     0
102
RTVSPost2010Prop54
  1
strokes_ogs.tif
102
RTVSPost2010PropOp54
 70
     0
102
RTVSPost2010Prop55
280
     0
102
RTVSPost2010PropOp55
 70
     0
102
RTVSPost2010Prop56
140
1.0
102
RTVSPost2010PropOp56
 70
     0
102
RTVSPost2010Prop57
140
1.0
102
RTVSPost2010PropOp57
 70
     0
  0
XRECORD
  5
405
102
{ACAD_REACTORS
330
404
102
}
330
404
100
AcDbXrecord
280
     1
102
RTVSPropertyOp0
 70
     1
102
RTVSPropertyOp1
 70
     1
102
RTVSPropertyOp2
 70
     1
102
RTVSPropertyOp3
 70
     1
102
RTVSPropertyOp4
 70
     1
102
RTVSPropertyOp5
 70
     1
102
RTVSPropertyOp6
 70
     1
102
RTVSPropertyOp7
 70
     1
102
RTVSPropertyOp8
 70
     1
102
RTVSPropertyOp9
 70
     1
102
RTVSPropertyOp10
 70
     1
102
RTVSPropertyOp11
 70
     1
102
RTVSPropertyOp12
 70
     1
102
RTVSPropertyOp13
 70
     1
102
RTVSPropertyOp14
 70
     1
102
RTVSPropertyOp15
 70
     1
102
RTVSPropertyOp16
 70
     1
102
RTVSPropertyOp17
 70
     1
102
RTVSPropertyOp18
 70
     1
102
RTVSPropertyOp19
 70
     1
102
RTVSPropertyOp20
 70
     1
102
RTVSPropertyOp21
 70
     1
102
RTVSPropertyOp22
 70
     1
102
RTVSPropertyOp23
 70
     1
102
RTVSPropertyOp24
 70
     1
102
RTVSPropertyOp25
 70
     1
102
RTVSPropertyOp26
 70
     1
102
RTVSPropertyOp27
 70
     1
102
RTVSPropertyOp28
 70
     1
102
RTVSPropertyOp29
 70
     1
102
RTVSPropertyOp30
 70
     1
102
RTVSPropertyOp31
 70
     1
102
RTVSPropertyOp32
 70
     1
102
RTVSPropertyOp33
 70
     1
102
RTVSPropertyOp34
 70
     1
102
RTVSPropertyOp35
 70
     1
102
RTVSPropertyOp36
 70
     1
102
RTVSPropertyOp37
 70
     1
102
RTVSPropertyOp38
 70
     1
102
RTVSPropertyOp39
 70
     1
102
RTVSPropertyOp40
 70
     1
102
RTVSPropertyOp41
 70
     1
102
RTVSPropertyOp42
 70
     1
102
RTVSPropertyOp43
 70
     1
102
RTVSPropertyOp44
 70
     1
102
RTVSPropertyOp45
 70
     1
102
RTVSPropertyOp46
 70
     1
102
RTVSPropertyOp47
 70
     1
102
RTVSPropertyOp48
 70
     1
102
RTVSPropertyOp49
 70
     1
102
RTVSPropertyOp50
 70
     1
102
RTVSPropertyOp51
 70
     0
102
RTVSPropertyOp52
 70
     0
102
RTVSPropertyOp53
 70
     1
102
RTVSPropertyOp54
 70
     1
102
RTVSPropertyOp55
 70
     1
102
RTVSPropertyOp56
 70
     1
102
RTVSPropertyOp57
 70
     1
102
RTVSPost2010Prop28
280
     0
102
RTVSPost2010PropOp28
 70
     1
102
RTVSPost2010Prop29
280
     1
102
RTVSPost2010PropOp29
 70
     1
102
RTVSPost2010Prop30
280
     1
102
RTVSPost2010PropOp30
 70
     1
102
RTVSPost2010Prop31
280
     0
102
RTVSPost2010PropOp31
 70
     1
102
RTVSPost2010Prop32
280
     0
102
RTVSPost2010PropOp32
 70
     1
102
RTVSPost2010Prop33
280
     0
102
RTVSPost2010PropOp33
 70
     1
102
RTVSPost2010Prop34
280
     0
102
RTVSPost2010PropOp34
 70
     1
102
RTVSPost2010Prop35
280
     0
102
RTVSPost2010PropOp35
 70
     1
102
RTVSPost2010Prop36
280
     0
102
RTVSPost2010PropOp36
 70
     1
102
RTVSPost2010Prop37
 90
       50
102
RTVSPost2010PropOp37
 70
     1
102
RTVSPost2010Prop38
140
0.0
102
RTVSPost2010PropOp38
 70
     1
102
RTVSPost2010Prop39
140
1.0
102
RTVSPost2010PropOp39
 70
     1
102
RTVSPost2010Prop40
 90
        0
102
RTVSPost2010PropOp40
 70
     1
102
RTVSPost2010Prop41ColorIndex
 90
       18
102
RTVSPost2010Prop41ColorRGB
 90
        0
102
RTVSPost2010PropOp41
 70
     1
102
RTVSPost2010Prop42
 90
       50
102
RTVSPost2010PropOp42
 70
     1
102
RTVSPost2010Prop43
 90
        3
102
RTVSPost2010PropOp43
 70
     1
102
RTVSPost2010Prop44ColorIndex
 90
        5
102
RTVSPost2010Prop44ColorRGB
 90
      255
102
RTVSPost2010PropOp44
 70
     1
102
RTVSPost2010Prop45
280
     0
102
RTVSPost2010PropOp45
 70
     1
102
RTVSPost2010Prop46
 90
       50
102
RTVSPost2010PropOp46
 70
     1
102
RTVSPost2010Prop47
 90
       50
102
RTVSPost2010PropOp47
 70
     1
102
RTVSPost2010Prop48
 90
       50
102
RTVSPost2010PropOp48
 70
     1
102
RTVSPost2010Prop49
280
     0
102
RTVSPost2010PropOp49
 70
     1
102
RTVSPost2010Prop50
 90
       50
102
RTVSPost2010PropOp50
 70
     1
102
RTVSPost2010Prop51ColorIndex
 90
      256
102
RTVSPost2010Prop51ColorRGB
 90
-16777216
102
RTVSPost2010PropOp51
 70
     0
102
RTVSPost2010Prop52
140
1.0
102
RTVSPost2010PropOp52
 70
     0
102
RTVSPost2010Prop53
 90
        2
102
RTVSPost2010PropOp53
 70
     1
102
RTVSPost2010Prop54
  1
strokes_ogs.tif
102
RTVSPost2010PropOp54
 70
     1
102
RTVSPost2010Prop55
280
     0
102
RTVSPost2010PropOp55
 70
     1
102
RTVSPost2010Prop56
140
1.0
102
RTVSPost2010PropOp56
 70
     1
102
RTVSPost2010Prop57
140
1.0
102
RTVSPost2010PropOp57
 70
     1
  0
XRECORD
  5
40D
102
{ACAD_REACTORS
330
40C
102
}
330
40C
100
AcDbXrecord
280
     1
102
RTVSPropertyOp0
 70
     0
102
RTVSPropertyOp1
 70
     0
102
RTVSPropertyOp2
 70
     0
102
RTVSPropertyOp3
 70
     0
102
RTVSPropertyOp4
 70
     0
102
RTVSPropertyOp5
 70
     0
102
RTVSPropertyOp6
 70
     0
102
RTVSPropertyOp7
 70
     0
102
RTVSPropertyOp8
 70
     0
102
RTVSPropertyOp9
 70
     0
102
RTVSPropertyOp10
 70
     0
102
RTVSPropertyOp11
 70
     0
102
RTVSPropertyOp12
 70
     0
102
RTVSPropertyOp13
 70
     0
102
RTVSPropertyOp14
 70
     2
102
RTVSPropertyOp15
 70
     0
102
RTVSPropertyOp16
 70
     0
102
RTVSPropertyOp17
 70
     0
102
RTVSPropertyOp18
 70
     0
102
RTVSPropertyOp19
 70
     0
102
RTVSPropertyOp20
 70
     0
102
RTVSPropertyOp21
 70
     0
102
RTVSPropertyOp22
 70
     0
102
RTVSPropertyOp23
 70
     0
102
RTVSPropertyOp24
 70
     0
102
RTVSPropertyOp25
 70
     0
102
RTVSPropertyOp26
 70
     0
102
RTVSPropertyOp27
 70
     0
102
RTVSPropertyOp28
 70
     0
102
RTVSPropertyOp29
 70
     0
102
RTVSPropertyOp30
 70
     0
102
RTVSPropertyOp31
 70
     0
102
RTVSPropertyOp32
 70
     0
102
RTVSPropertyOp33
 70
     0
102
RTVSPropertyOp34
 70
     0
102
RTVSPropertyOp35
 70
     0
102
RTVSPropertyOp36
 70
     0
102
RTVSPropertyOp37
 70
     0
102
RTVSPropertyOp38
 70
     0
102
RTVSPropertyOp39
 70
     0
102
RTVSPropertyOp40
 70
     0
102
RTVSPropertyOp41
 70
     0
102
RTVSPropertyOp42
 70
     0
102
RTVSPropertyOp43
 70
     0
102
RTVSPropertyOp44
 70
     0
102
RTVSPropertyOp45
 70
     0
102
RTVSPropertyOp46
 70
     0
102
RTVSPropertyOp47
 70
     0
102
RTVSPropertyOp48
 70
     0
102
RTVSPropertyOp49
 70
     0
102
RTVSPropertyOp50
 70
     0
102
RTVSPropertyOp51
 70
     0
102
RTVSPropertyOp52
 70
     0
102
RTVSPropertyOp53
 70
     0
102
RTVSPropertyOp54
 70
     0
102
RTVSPropertyOp55
 70
     0
102
RTVSPropertyOp56
 70
     0
102
RTVSPropertyOp57
 70
     0
102
RTVSPost2010Prop28
280
     0
102
RTVSPost2010PropOp28
 70
     0
102
RTVSPost2010Prop29
280
     1
102
RTVSPost2010PropOp29
 70
     0
102
RTVSPost2010Prop30
280
     1
102
RTVSPost2010PropOp30
 70
     0
102
RTVSPost2010Prop31
280
     0
102
RTVSPost2010PropOp31
 70
     0
102
RTVSPost2010Prop32
280
     0
102
RTVSPost2010PropOp32
 70
     0
102
RTVSPost2010Prop33
280
     0
102
RTVSPost2010PropOp33
 70
     0
102
RTVSPost2010Prop34
280
     0
102
RTVSPost2010PropOp34
 70
     0
102
RTVSPost2010Prop35
280
     0
102
RTVSPost2010PropOp35
 70
     0
102
RTVSPost2010Prop36
280
     0
102
RTVSPost2010PropOp36
 70
     0
102
RTVSPost2010Prop37
 90
       50
102
RTVSPost2010PropOp37
 70
     0
102
RTVSPost2010Prop38
140
0.0
102
RTVSPost2010PropOp38
 70
     0
102
RTVSPost2010Prop39
140
1.0
102
RTVSPost2010PropOp39
 70
     0
102
RTVSPost2010Prop40
 90
        0
102
RTVSPost2010PropOp40
 70
     0
102
RTVSPost2010Prop41ColorIndex
 90
       18
102
RTVSPost2010Prop41ColorRGB
 90
        0
102
RTVSPost2010PropOp41
 70
     0
102
RTVSPost2010Prop42
 90
       50
102
RTVSPost2010PropOp42
 70
     0
102
RTVSPost2010Prop43
 90
        3
102
RTVSPost2010PropOp43
 70
     0
102
RTVSPost2010Prop44ColorIndex
 90
        5
102
RTVSPost2010Prop44ColorRGB
 90
      255
102
RTVSPost2010PropOp44
 70
     0
102
RTVSPost2010Prop45
280
     0
102
RTVSPost2010PropOp45
 70
     0
102
RTVSPost2010Prop46
 90
       50
102
RTVSPost2010PropOp46
 70
     0
102
RTVSPost2010Prop47
 90
       50
102
RTVSPost2010PropOp47
 70
     0
102
RTVSPost2010Prop48
 90
       50
102
RTVSPost2010PropOp48
 70
     0
102
RTVSPost2010Prop49
280
     0
102
RTVSPost2010PropOp49
 70
     0
102
RTVSPost2010Prop50
 90
       50
102
RTVSPost2010PropOp50
 70
     0
102
RTVSPost2010Prop51ColorIndex
 90
      256
102
RTVSPost2010Prop51ColorRGB
 90
-16777216
102
RTVSPost2010PropOp51
 70
     0
102
RTVSPost2010Prop52
140
1.0
102
RTVSPost2010PropOp52
 70
     0
102
RTVSPost2010Prop53
 90
        2
102
RTVSPost2010PropOp53
 70
     0
102
RTVSPost2010Prop54
  1
strokes_ogs.tif
102
RTVSPost2010PropOp54
 70
     0
102
RTVSPost2010Prop55
280
     0
102
RTVSPost2010PropOp55
 70
     0
102
RTVSPost2010Prop56
140
1.0
102
RTVSPost2010PropOp56
 70
     0
102
RTVSPost2010Prop57
140
1.0
102
RTVSPost2010PropOp57
 70
     0
  0
XRECORD
  5
3FB
102
{ACAD_REACTORS
330
3FA
102
}
330
3FA
100
AcDbXrecord
280
     1
102
RTVSPropertyOp0
 70
     1
102
RTVSPropertyOp1
 70
     1
102
RTVSPropertyOp2
 70
     1
102
RTVSPropertyOp3
 70
     1
102
RTVSPropertyOp4
 70
     1
102
RTVSPropertyOp5
 70
     1
102
RTVSPropertyOp6
 70
     1
102
RTVSPropertyOp7
 70
     1
102
RTVSPropertyOp8
 70
     1
102
RTVSPropertyOp9
 70
     1
102
RTVSPropertyOp10
 70
     1
102
RTVSPropertyOp11
 70
     1
102
RTVSPropertyOp12
 70
     1
102
RTVSPropertyOp13
 70
     1
102
RTVSPropertyOp14
 70
     1
102
RTVSPropertyOp15
 70
     1
102
RTVSPropertyOp16
 70
     1
102
RTVSPropertyOp17
 70
     1
102
RTVSPropertyOp18
 70
     1
102
RTVSPropertyOp19
 70
     1
102
RTVSPropertyOp20
 70
     1
102
RTVSPropertyOp21
 70
     1
102
RTVSPropertyOp22
 70
     1
102
RTVSPropertyOp23
 70
     1
102
RTVSPropertyOp24
 70
     1
102
RTVSPropertyOp25
 70
     1
102
RTVSPropertyOp26
 70
     1
102
RTVSPropertyOp27
 70
     1
102
RTVSPropertyOp28
 70
     1
102
RTVSPropertyOp29
 70
     1
102
RTVSPropertyOp30
 70
     1
102
RTVSPropertyOp31
 70
     1
102
RTVSPropertyOp32
 70
     1
102
RTVSPropertyOp33
 70
     1
102
RTVSPropertyOp34
 70
     1
102
RTVSPropertyOp35
 70
     1
102
RTVSPropertyOp36
 70
     1
102
RTVSPropertyOp37
 70
     1
102
RTVSPropertyOp38
 70
     1
102
RTVSPropertyOp39
 70
     1
102
RTVSPropertyOp40
 70
     1
102
RTVSPropertyOp41
 70
     1
102
RTVSPropertyOp42
 70
     1
102
RTVSPropertyOp43
 70
     1
102
RTVSPropertyOp44
 70
     1
102
RTVSPropertyOp45
 70
     1
102
RTVSPropertyOp46
 70
     1
102
RTVSPropertyOp47
 70
     1
102
RTVSPropertyOp48
 70
     1
102
RTVSPropertyOp49
 70
     1
102
RTVSPropertyOp50
 70
     1
102
RTVSPropertyOp51
 70
     0
102
RTVSPropertyOp52
 70
     0
102
RTVSPropertyOp53
 70
     1
102
RTVSPropertyOp54
 70
     1
102
RTVSPropertyOp55
 70
     1
102
RTVSPropertyOp56
 70
     1
102
RTVSPropertyOp57
 70
     1
102
RTVSPost2010Prop28
280
     0
102
RTVSPost2010PropOp28
 70
     1
102
RTVSPost2010Prop29
280
     1
102
RTVSPost2010PropOp29
 70
     1
102
RTVSPost2010Prop30
280
     1
102
RTVSPost2010PropOp30
 70
     1
102
RTVSPost2010Prop31
280
     0
102
RTVSPost2010PropOp31
 70
     1
102
RTVSPost2010Prop32
280
     0
102
RTVSPost2010PropOp32
 70
     1
102
RTVSPost2010Prop33
280
     0
102
RTVSPost2010PropOp33
 70
     1
102
RTVSPost2010Prop34
280
     0
102
RTVSPost2010PropOp34
 70
     1
102
RTVSPost2010Prop35
280
     0
102
RTVSPost2010PropOp35
 70
     1
102
RTVSPost2010Prop36
280
     0
102
RTVSPost2010PropOp36
 70
     1
102
RTVSPost2010Prop37
 90
       50
102
RTVSPost2010PropOp37
 70
     1
102
RTVSPost2010Prop38
140
0.0
102
RTVSPost2010PropOp38
 70
     1
102
RTVSPost2010Prop39
140
1.0
102
RTVSPost2010PropOp39
 70
     1
102
RTVSPost2010Prop40
 90
        0
102
RTVSPost2010PropOp40
 70
     1
102
RTVSPost2010Prop41ColorIndex
 90
       18
102
RTVSPost2010Prop41ColorRGB
 90
        0
102
RTVSPost2010PropOp41
 70
     1
102
RTVSPost2010Prop42
 90
       50
102
RTVSPost2010PropOp42
 70
     1
102
RTVSPost2010Prop43
 90
        3
102
RTVSPost2010PropOp43
 70
     1
102
RTVSPost2010Prop44ColorIndex
 90
        5
102
RTVSPost2010Prop44ColorRGB
 90
      255
102
RTVSPost2010PropOp44
 70
     1
102
RTVSPost2010Prop45
280
     0
102
RTVSPost2010PropOp45
 70
     1
102
RTVSPost2010Prop46
 90
       50
102
RTVSPost2010PropOp46
 70
     1
102
RTVSPost2010Prop47
 90
       50
102
RTVSPost2010PropOp47
 70
     1
102
RTVSPost2010Prop48
 90
       50
102
RTVSPost2010PropOp48
 70
     1
102
RTVSPost2010Prop49
280
     0
102
RTVSPost2010PropOp49
 70
     1
102
RTVSPost2010Prop50
 90
       50
102
RTVSPost2010PropOp50
 70
     1
102
RTVSPost2010Prop51ColorIndex
 90
      256
102
RTVSPost2010Prop51ColorRGB
 90
-16777216
102
RTVSPost2010PropOp51
 70
     0
102
RTVSPost2010Prop52
140
1.0
102
RTVSPost2010PropOp52
 70
     0
102
RTVSPost2010Prop53
 90
        2
102
RTVSPost2010PropOp53
 70
     1
102
RTVSPost2010Prop54
  1
strokes_ogs.tif
102
RTVSPost2010PropOp54
 70
     1
102
RTVSPost2010Prop55
280
     0
102
RTVSPost2010PropOp55
 70
     1
102
RTVSPost2010Prop56
140
1.0
102
RTVSPost2010PropOp56
 70
     1
102
RTVSPost2010Prop57
140
1.0
102
RTVSPost2010PropOp57
 70
     1
  0
XRECORD
  5
419
102
{ACAD_REACTORS
330
418
102
}
330
418
100
AcDbXrecord
280
     1
102
RTVSPropertyOp0
 70
     1
102
RTVSPropertyOp1
 70
     1
102
RTVSPropertyOp2
 70
     1
102
RTVSPropertyOp3
 70
     1
102
RTVSPropertyOp4
 70
     1
102
RTVSPropertyOp5
 70
     1
102
RTVSPropertyOp6
 70
     1
102
RTVSPropertyOp7
 70
     1
102
RTVSPropertyOp8
 70
     1
102
RTVSPropertyOp9
 70
     1
102
RTVSPropertyOp10
 70
     1
102
RTVSPropertyOp11
 70
     1
102
RTVSPropertyOp12
 70
     1
102
RTVSPropertyOp13
 70
     1
102
RTVSPropertyOp14
 70
     1
102
RTVSPropertyOp15
 70
     1
102
RTVSPropertyOp16
 70
     1
102
RTVSPropertyOp17
 70
     1
102
RTVSPropertyOp18
 70
     1
102
RTVSPropertyOp19
 70
     1
102
RTVSPropertyOp20
 70
     1
102
RTVSPropertyOp21
 70
     1
102
RTVSPropertyOp22
 70
     1
102
RTVSPropertyOp23
 70
     1
102
RTVSPropertyOp24
 70
     1
102
RTVSPropertyOp25
 70
     1
102
RTVSPropertyOp26
 70
     1
102
RTVSPropertyOp27
 70
     1
102
RTVSPropertyOp28
 70
     1
102
RTVSPropertyOp29
 70
     1
102
RTVSPropertyOp30
 70
     1
102
RTVSPropertyOp31
 70
     1
102
RTVSPropertyOp32
 70
     1
102
RTVSPropertyOp33
 70
     1
102
RTVSPropertyOp34
 70
     1
102
RTVSPropertyOp35
 70
     1
102
RTVSPropertyOp36
 70
     1
102
RTVSPropertyOp37
 70
     1
102
RTVSPropertyOp38
 70
     1
102
RTVSPropertyOp39
 70
     1
102
RTVSPropertyOp40
 70
     1
102
RTVSPropertyOp41
 70
     1
102
RTVSPropertyOp42
 70
     1
102
RTVSPropertyOp43
 70
     1
102
RTVSPropertyOp44
 70
     1
102
RTVSPropertyOp45
 70
     1
102
RTVSPropertyOp46
 70
     1
102
RTVSPropertyOp47
 70
     1
102
RTVSPropertyOp48
 70
     1
102
RTVSPropertyOp49
 70
     1
102
RTVSPropertyOp50
 70
     1
102
RTVSPropertyOp51
 70
     0
102
RTVSPropertyOp52
 70
     0
102
RTVSPropertyOp53
 70
     1
102
RTVSPropertyOp54
 70
     1
102
RTVSPropertyOp55
 70
     1
102
RTVSPropertyOp56
 70
     1
102
RTVSPropertyOp57
 70
     1
102
RTVSPost2010Prop28
280
     0
102
RTVSPost2010PropOp28
 70
     1
102
RTVSPost2010Prop29
280
     1
102
RTVSPost2010PropOp29
 70
     1
102
RTVSPost2010Prop30
280
     1
102
RTVSPost2010PropOp30
 70
     1
102
RTVSPost2010Prop31
280
     0
102
RTVSPost2010PropOp31
 70
     1
102
RTVSPost2010Prop32
280
     0
102
RTVSPost2010PropOp32
 70
     1
102
RTVSPost2010Prop33
280
     0
102
RTVSPost2010PropOp33
 70
     1
102
RTVSPost2010Prop34
280
     0
102
RTVSPost2010PropOp34
 70
     1
102
RTVSPost2010Prop35
280
     0
102
RTVSPost2010PropOp35
 70
     1
102
RTVSPost2010Prop36
280
     0
102
RTVSPost2010PropOp36
 70
     1
102
RTVSPost2010Prop37
 90
       50
102
RTVSPost2010PropOp37
 70
     1
102
RTVSPost2010Prop38
140
0.0
102
RTVSPost2010PropOp38
 70
     1
102
RTVSPost2010Prop39
140
1.0
102
RTVSPost2010PropOp39
 70
     1
102
RTVSPost2010Prop40
 90
        0
102
RTVSPost2010PropOp40
 70
     1
102
RTVSPost2010Prop41ColorIndex
 90
       18
102
RTVSPost2010Prop41ColorRGB
 90
        0
102
RTVSPost2010PropOp41
 70
     1
102
RTVSPost2010Prop42
 90
       50
102
RTVSPost2010PropOp42
 70
     1
102
RTVSPost2010Prop43
 90
        3
102
RTVSPost2010PropOp43
 70
     1
102
RTVSPost2010Prop44ColorIndex
 90
        5
102
RTVSPost2010Prop44ColorRGB
 90
      255
102
RTVSPost2010PropOp44
 70
     1
102
RTVSPost2010Prop45
280
     0
102
RTVSPost2010PropOp45
 70
     1
102
RTVSPost2010Prop46
 90
       50
102
RTVSPost2010PropOp46
 70
     1
102
RTVSPost2010Prop47
 90
       50
102
RTVSPost2010PropOp47
 70
     1
102
RTVSPost2010Prop48
 90
       50
102
RTVSPost2010PropOp48
 70
     1
102
RTVSPost2010Prop49
280
     0
102
RTVSPost2010PropOp49
 70
     1
102
RTVSPost2010Prop50
 90
       50
102
RTVSPost2010PropOp50
 70
     1
102
RTVSPost2010Prop51ColorIndex
 90
      256
102
RTVSPost2010Prop51ColorRGB
 90
-16777216
102
RTVSPost2010PropOp51
 70
     0
102
RTVSPost2010Prop52
140
1.0
102
RTVSPost2010PropOp52
 70
     0
102
RTVSPost2010Prop53
 90
        2
102
RTVSPost2010PropOp53
 70
     1
102
RTVSPost2010Prop54
  1
strokes_ogs.tif
102
RTVSPost2010PropOp54
 70
     1
102
RTVSPost2010Prop55
280
     0
102
RTVSPost2010PropOp55
 70
     1
102
RTVSPost2010Prop56
140
1.0
102
RTVSPost2010PropOp56
 70
     1
102
RTVSPost2010Prop57
140
1.0
102
RTVSPost2010PropOp57
 70
     1
  0
XRECORD
  5
417
102
{ACAD_REACTORS
330
416
102
}
330
416
100
AcDbXrecord
280
     1
102
RTVSPropertyOp0
 70
     1
102
RTVSPropertyOp1
 70
     1
102
RTVSPropertyOp2
 70
     1
102
RTVSPropertyOp3
 70
     1
102
RTVSPropertyOp4
 70
     1
102
RTVSPropertyOp5
 70
     1
102
RTVSPropertyOp6
 70
     1
102
RTVSPropertyOp7
 70
     1
102
RTVSPropertyOp8
 70
     1
102
RTVSPropertyOp9
 70
     1
102
RTVSPropertyOp10
 70
     1
102
RTVSPropertyOp11
 70
     1
102
RTVSPropertyOp12
 70
     1
102
RTVSPropertyOp13
 70
     1
102
RTVSPropertyOp14
 70
     1
102
RTVSPropertyOp15
 70
     1
102
RTVSPropertyOp16
 70
     1
102
RTVSPropertyOp17
 70
     1
102
RTVSPropertyOp18
 70
     1
102
RTVSPropertyOp19
 70
     1
102
RTVSPropertyOp20
 70
     1
102
RTVSPropertyOp21
 70
     1
102
RTVSPropertyOp22
 70
     1
102
RTVSPropertyOp23
 70
     1
102
RTVSPropertyOp24
 70
     1
102
RTVSPropertyOp25
 70
     1
102
RTVSPropertyOp26
 70
     1
102
RTVSPropertyOp27
 70
     1
102
RTVSPropertyOp28
 70
     1
102
RTVSPropertyOp29
 70
     1
102
RTVSPropertyOp30
 70
     1
102
RTVSPropertyOp31
 70
     1
102
RTVSPropertyOp32
 70
     1
102
RTVSPropertyOp33
 70
     1
102
RTVSPropertyOp34
 70
     1
102
RTVSPropertyOp35
 70
     1
102
RTVSPropertyOp36
 70
     1
102
RTVSPropertyOp37
 70
     1
102
RTVSPropertyOp38
 70
     1
102
RTVSPropertyOp39
 70
     1
102
RTVSPropertyOp40
 70
     1
102
RTVSPropertyOp41
 70
     1
102
RTVSPropertyOp42
 70
     1
102
RTVSPropertyOp43
 70
     1
102
RTVSPropertyOp44
 70
     1
102
RTVSPropertyOp45
 70
     1
102
RTVSPropertyOp46
 70
     1
102
RTVSPropertyOp47
 70
     1
102
RTVSPropertyOp48
 70
     1
102
RTVSPropertyOp49
 70
     1
102
RTVSPropertyOp50
 70
     1
102
RTVSPropertyOp51
 70
     0
102
RTVSPropertyOp52
 70
     0
102
RTVSPropertyOp53
 70
     1
102
RTVSPropertyOp54
 70
     1
102
RTVSPropertyOp55
 70
     1
102
RTVSPropertyOp56
 70
     1
102
RTVSPropertyOp57
 70
     1
102
RTVSPost2010Prop28
280
     0
102
RTVSPost2010PropOp28
 70
     1
102
RTVSPost2010Prop29
280
     1
102
RTVSPost2010PropOp29
 70
     1
102
RTVSPost2010Prop30
280
     1
102
RTVSPost2010PropOp30
 70
     1
102
RTVSPost2010Prop31
280
     0
102
RTVSPost2010PropOp31
 70
     1
102
RTVSPost2010Prop32
280
     0
102
RTVSPost2010PropOp32
 70
     1
102
RTVSPost2010Prop33
280
     0
102
RTVSPost2010PropOp33
 70
     1
102
RTVSPost2010Prop34
280
     0
102
RTVSPost2010PropOp34
 70
     1
102
RTVSPost2010Prop35
280
     0
102
RTVSPost2010PropOp35
 70
     1
102
RTVSPost2010Prop36
280
     0
102
RTVSPost2010PropOp36
 70
     1
102
RTVSPost2010Prop37
 90
       50
102
RTVSPost2010PropOp37
 70
     1
102
RTVSPost2010Prop38
140
0.0
102
RTVSPost2010PropOp38
 70
     1
102
RTVSPost2010Prop39
140
1.0
102
RTVSPost2010PropOp39
 70
     1
102
RTVSPost2010Prop40
 90
        0
102
RTVSPost2010PropOp40
 70
     1
102
RTVSPost2010Prop41ColorIndex
 90
       18
102
RTVSPost2010Prop41ColorRGB
 90
        0
102
RTVSPost2010PropOp41
 70
     1
102
RTVSPost2010Prop42
 90
       50
102
RTVSPost2010PropOp42
 70
     1
102
RTVSPost2010Prop43
 90
        3
102
RTVSPost2010PropOp43
 70
     1
102
RTVSPost2010Prop44ColorIndex
 90
        5
102
RTVSPost2010Prop44ColorRGB
 90
      255
102
RTVSPost2010PropOp44
 70
     1
102
RTVSPost2010Prop45
280
     0
102
RTVSPost2010PropOp45
 70
     1
102
RTVSPost2010Prop46
 90
       50
102
RTVSPost2010PropOp46
 70
     1
102
RTVSPost2010Prop47
 90
       50
102
RTVSPost2010PropOp47
 70
     1
102
RTVSPost2010Prop48
 90
       50
102
RTVSPost2010PropOp48
 70
     1
102
RTVSPost2010Prop49
280
     0
102
RTVSPost2010PropOp49
 70
     1
102
RTVSPost2010Prop50
 90
       50
102
RTVSPost2010PropOp50
 70
     1
102
RTVSPost2010Prop51ColorIndex
 90
      256
102
RTVSPost2010Prop51ColorRGB
 90
-16777216
102
RTVSPost2010PropOp51
 70
     0
102
RTVSPost2010Prop52
140
1.0
102
RTVSPost2010PropOp52
 70
     0
102
RTVSPost2010Prop53
 90
        2
102
RTVSPost2010PropOp53
 70
     1
102
RTVSPost2010Prop54
  1
strokes_ogs.tif
102
RTVSPost2010PropOp54
 70
     1
102
RTVSPost2010Prop55
280
     0
102
RTVSPost2010PropOp55
 70
     1
102
RTVSPost2010Prop56
140
1.0
102
RTVSPost2010PropOp56
 70
     1
102
RTVSPost2010Prop57
140
1.0
102
RTVSPost2010PropOp57
 70
     1
  0
XRECORD
  5
411
102
{ACAD_REACTORS
330
410
102
}
330
410
100
AcDbXrecord
280
     1
102
RTVSPropertyOp0
 70
     1
102
RTVSPropertyOp1
 70
     1
102
RTVSPropertyOp2
 70
     1
102
RTVSPropertyOp3
 70
     1
102
RTVSPropertyOp4
 70
     1
102
RTVSPropertyOp5
 70
     1
102
RTVSPropertyOp6
 70
     1
102
RTVSPropertyOp7
 70
     1
102
RTVSPropertyOp8
 70
     1
102
RTVSPropertyOp9
 70
     1
102
RTVSPropertyOp10
 70
     1
102
RTVSPropertyOp11
 70
     1
102
RTVSPropertyOp12
 70
     1
102
RTVSPropertyOp13
 70
     1
102
RTVSPropertyOp14
 70
     1
102
RTVSPropertyOp15
 70
     1
102
RTVSPropertyOp16
 70
     1
102
RTVSPropertyOp17
 70
     1
102
RTVSPropertyOp18
 70
     1
102
RTVSPropertyOp19
 70
     1
102
RTVSPropertyOp20
 70
     1
102
RTVSPropertyOp21
 70
     1
102
RTVSPropertyOp22
 70
     1
102
RTVSPropertyOp23
 70
     1
102
RTVSPropertyOp24
 70
     1
102
RTVSPropertyOp25
 70
     1
102
RTVSPropertyOp26
 70
     1
102
RTVSPropertyOp27
 70
     1
102
RTVSPropertyOp28
 70
     1
102
RTVSPropertyOp29
 70
     1
102
RTVSPropertyOp30
 70
     1
102
RTVSPropertyOp31
 70
     1
102
RTVSPropertyOp32
 70
     1
102
RTVSPropertyOp33
 70
     1
102
RTVSPropertyOp34
 70
     1
102
RTVSPropertyOp35
 70
     1
102
RTVSPropertyOp36
 70
     1
102
RTVSPropertyOp37
 70
     1
102
RTVSPropertyOp38
 70
     1
102
RTVSPropertyOp39
 70
     1
102
RTVSPropertyOp40
 70
     1
102
RTVSPropertyOp41
 70
     1
102
RTVSPropertyOp42
 70
     1
102
RTVSPropertyOp43
 70
     1
102
RTVSPropertyOp44
 70
     1
102
RTVSPropertyOp45
 70
     1
102
RTVSPropertyOp46
 70
     1
102
RTVSPropertyOp47
 70
     1
102
RTVSPropertyOp48
 70
     1
102
RTVSPropertyOp49
 70
     1
102
RTVSPropertyOp50
 70
     1
102
RTVSPropertyOp51
 70
     0
102
RTVSPropertyOp52
 70
     0
102
RTVSPropertyOp53
 70
     1
102
RTVSPropertyOp54
 70
     1
102
RTVSPropertyOp55
 70
     1
102
RTVSPropertyOp56
 70
     1
102
RTVSPropertyOp57
 70
     1
102
RTVSPost2010Prop28
280
     0
102
RTVSPost2010PropOp28
 70
     1
102
RTVSPost2010Prop29
280
     1
102
RTVSPost2010PropOp29
 70
     1
102
RTVSPost2010Prop30
280
     1
102
RTVSPost2010PropOp30
 70
     1
102
RTVSPost2010Prop31
280
     0
102
RTVSPost2010PropOp31
 70
     1
102
RTVSPost2010Prop32
280
     0
102
RTVSPost2010PropOp32
 70
     1
102
RTVSPost2010Prop33
280
     0
102
RTVSPost2010PropOp33
 70
     1
102
RTVSPost2010Prop34
280
     0
102
RTVSPost2010PropOp34
 70
     1
102
RTVSPost2010Prop35
280
     0
102
RTVSPost2010PropOp35
 70
     1
102
RTVSPost2010Prop36
280
     0
102
RTVSPost2010PropOp36
 70
     1
102
RTVSPost2010Prop37
 90
       50
102
RTVSPost2010PropOp37
 70
     1
102
RTVSPost2010Prop38
140
0.0
102
RTVSPost2010PropOp38
 70
     1
102
RTVSPost2010Prop39
140
1.0
102
RTVSPost2010PropOp39
 70
     1
102
RTVSPost2010Prop40
 90
        0
102
RTVSPost2010PropOp40
 70
     1
102
RTVSPost2010Prop41ColorIndex
 90
       18
102
RTVSPost2010Prop41ColorRGB
 90
        0
102
RTVSPost2010PropOp41
 70
     1
102
RTVSPost2010Prop42
 90
       50
102
RTVSPost2010PropOp42
 70
     1
102
RTVSPost2010Prop43
 90
        3
102
RTVSPost2010PropOp43
 70
     1
102
RTVSPost2010Prop44ColorIndex
 90
        5
102
RTVSPost2010Prop44ColorRGB
 90
      255
102
RTVSPost2010PropOp44
 70
     1
102
RTVSPost2010Prop45
280
     0
102
RTVSPost2010PropOp45
 70
     1
102
RTVSPost2010Prop46
 90
       50
102
RTVSPost2010PropOp46
 70
     1
102
RTVSPost2010Prop47
 90
       50
102
RTVSPost2010PropOp47
 70
     1
102
RTVSPost2010Prop48
 90
       50
102
RTVSPost2010PropOp48
 70
     1
102
RTVSPost2010Prop49
280
     0
102
RTVSPost2010PropOp49
 70
     1
102
RTVSPost2010Prop50
 90
       50
102
RTVSPost2010PropOp50
 70
     1
102
RTVSPost2010Prop51ColorIndex
 90
      256
102
RTVSPost2010Prop51ColorRGB
 90
-16777216
102
RTVSPost2010PropOp51
 70
     0
102
RTVSPost2010Prop52
140
1.0
102
RTVSPost2010PropOp52
 70
     0
102
RTVSPost2010Prop53
 90
        2
102
RTVSPost2010PropOp53
 70
     1
102
RTVSPost2010Prop54
  1
strokes_ogs.tif
102
RTVSPost2010PropOp54
 70
     1
102
RTVSPost2010Prop55
280
     0
102
RTVSPost2010PropOp55
 70
     1
102
RTVSPost2010Prop56
140
1.0
102
RTVSPost2010PropOp56
 70
     1
102
RTVSPost2010Prop57
140
1.0
102
RTVSPost2010PropOp57
 70
     1
  0
XRECORD
  5
413
102
{ACAD_REACTORS
330
412
102
}
330
412
100
AcDbXrecord
280
     1
102
RTVSPropertyOp0
 70
     1
102
RTVSPropertyOp1
 70
     1
102
RTVSPropertyOp2
 70
     1
102
RTVSPropertyOp3
 70
     1
102
RTVSPropertyOp4
 70
     1
102
RTVSPropertyOp5
 70
     1
102
RTVSPropertyOp6
 70
     1
102
RTVSPropertyOp7
 70
     1
102
RTVSPropertyOp8
 70
     1
102
RTVSPropertyOp9
 70
     1
102
RTVSPropertyOp10
 70
     1
102
RTVSPropertyOp11
 70
     1
102
RTVSPropertyOp12
 70
     1
102
RTVSPropertyOp13
 70
     1
102
RTVSPropertyOp14
 70
     1
102
RTVSPropertyOp15
 70
     1
102
RTVSPropertyOp16
 70
     1
102
RTVSPropertyOp17
 70
     1
102
RTVSPropertyOp18
 70
     1
102
RTVSPropertyOp19
 70
     1
102
RTVSPropertyOp20
 70
     1
102
RTVSPropertyOp21
 70
     1
102
RTVSPropertyOp22
 70
     1
102
RTVSPropertyOp23
 70
     1
102
RTVSPropertyOp24
 70
     1
102
RTVSPropertyOp25
 70
     1
102
RTVSPropertyOp26
 70
     1
102
RTVSPropertyOp27
 70
     1
102
RTVSPropertyOp28
 70
     1
102
RTVSPropertyOp29
 70
     1
102
RTVSPropertyOp30
 70
     1
102
RTVSPropertyOp31
 70
     1
102
RTVSPropertyOp32
 70
     1
102
RTVSPropertyOp33
 70
     1
102
RTVSPropertyOp34
 70
     1
102
RTVSPropertyOp35
 70
     1
102
RTVSPropertyOp36
 70
     1
102
RTVSPropertyOp37
 70
     1
102
RTVSPropertyOp38
 70
     1
102
RTVSPropertyOp39
 70
     1
102
RTVSPropertyOp40
 70
     1
102
RTVSPropertyOp41
 70
     1
102
RTVSPropertyOp42
 70
     1
102
RTVSPropertyOp43
 70
     1
102
RTVSPropertyOp44
 70
     1
102
RTVSPropertyOp45
 70
     1
102
RTVSPropertyOp46
 70
     1
102
RTVSPropertyOp47
 70
     1
102
RTVSPropertyOp48
 70
     1
102
RTVSPropertyOp49
 70
     1
102
RTVSPropertyOp50
 70
     1
102
RTVSPropertyOp51
 70
     0
102
RTVSPropertyOp52
 70
     0
102
RTVSPropertyOp53
 70
     1
102
RTVSPropertyOp54
 70
     1
102
RTVSPropertyOp55
 70
     1
102
RTVSPropertyOp56
 70
     1
102
RTVSPropertyOp57
 70
     1
102
RTVSPost2010Prop28
280
     0
102
RTVSPost2010PropOp28
 70
     1
102
RTVSPost2010Prop29
280
     1
102
RTVSPost2010PropOp29
 70
     1
102
RTVSPost2010Prop30
280
     1
102
RTVSPost2010PropOp30
 70
     1
102
RTVSPost2010Prop31
280
     0
102
RTVSPost2010PropOp31
 70
     1
102
RTVSPost2010Prop32
280
     0
102
RTVSPost2010PropOp32
 70
     1
102
RTVSPost2010Prop33
280
     0
102
RTVSPost2010PropOp33
 70
     1
102
RTVSPost2010Prop34
280
     0
102
RTVSPost2010PropOp34
 70
     1
102
RTVSPost2010Prop35
280
     0
102
RTVSPost2010PropOp35
 70
     1
102
RTVSPost2010Prop36
280
     0
102
RTVSPost2010PropOp36
 70
     1
102
RTVSPost2010Prop37
 90
       50
102
RTVSPost2010PropOp37
 70
     1
102
RTVSPost2010Prop38
140
0.0
102
RTVSPost2010PropOp38
 70
     1
102
RTVSPost2010Prop39
140
1.0
102
RTVSPost2010PropOp39
 70
     1
102
RTVSPost2010Prop40
 90
        0
102
RTVSPost2010PropOp40
 70
     1
102
RTVSPost2010Prop41ColorIndex
 90
       18
102
RTVSPost2010Prop41ColorRGB
 90
        0
102
RTVSPost2010PropOp41
 70
     1
102
RTVSPost2010Prop42
 90
       50
102
RTVSPost2010PropOp42
 70
     1
102
RTVSPost2010Prop43
 90
        3
102
RTVSPost2010PropOp43
 70
     1
102
RTVSPost2010Prop44ColorIndex
 90
        5
102
RTVSPost2010Prop44ColorRGB
 90
      255
102
RTVSPost2010PropOp44
 70
     1
102
RTVSPost2010Prop45
280
     0
102
RTVSPost2010PropOp45
 70
     1
102
RTVSPost2010Prop46
 90
       50
102
RTVSPost2010PropOp46
 70
     1
102
RTVSPost2010Prop47
 90
       50
102
RTVSPost2010PropOp47
 70
     1
102
RTVSPost2010Prop48
 90
       50
102
RTVSPost2010PropOp48
 70
     1
102
RTVSPost2010Prop49
280
     0
102
RTVSPost2010PropOp49
 70
     1
102
RTVSPost2010Prop50
 90
       50
102
RTVSPost2010PropOp50
 70
     1
102
RTVSPost2010Prop51ColorIndex
 90
      256
102
RTVSPost2010Prop51ColorRGB
 90
-16777216
102
RTVSPost2010PropOp51
 70
     0
102
RTVSPost2010Prop52
140
1.0
102
RTVSPost2010PropOp52
 70
     0
102
RTVSPost2010Prop53
 90
        2
102
RTVSPost2010PropOp53
 70
     1
102
RTVSPost2010Prop54
  1
strokes_ogs.tif
102
RTVSPost2010PropOp54
 70
     1
102
RTVSPost2010Prop55
280
     0
102
RTVSPost2010PropOp55
 70
     1
102
RTVSPost2010Prop56
140
1.0
102
RTVSPost2010PropOp56
 70
     1
102
RTVSPost2010Prop57
140
1.0
102
RTVSPost2010PropOp57
 70
     1
  0
XRECORD
  5
403
102
{ACAD_REACTORS
330
402
102
}
330
402
100
AcDbXrecord
280
     1
102
RTVSPropertyOp0
 70
     1
102
RTVSPropertyOp1
 70
     1
102
RTVSPropertyOp2
 70
     1
102
RTVSPropertyOp3
 70
     1
102
RTVSPropertyOp4
 70
     1
102
RTVSPropertyOp5
 70
     1
102
RTVSPropertyOp6
 70
     1
102
RTVSPropertyOp7
 70
     1
102
RTVSPropertyOp8
 70
     1
102
RTVSPropertyOp9
 70
     1
102
RTVSPropertyOp10
 70
     1
102
RTVSPropertyOp11
 70
     1
102
RTVSPropertyOp12
 70
     1
102
RTVSPropertyOp13
 70
     1
102
RTVSPropertyOp14
 70
     1
102
RTVSPropertyOp15
 70
     1
102
RTVSPropertyOp16
 70
     1
102
RTVSPropertyOp17
 70
     1
102
RTVSPropertyOp18
 70
     1
102
RTVSPropertyOp19
 70
     1
102
RTVSPropertyOp20
 70
     1
102
RTVSPropertyOp21
 70
     1
102
RTVSPropertyOp22
 70
     1
102
RTVSPropertyOp23
 70
     1
102
RTVSPropertyOp24
 70
     1
102
RTVSPropertyOp25
 70
     1
102
RTVSPropertyOp26
 70
     1
102
RTVSPropertyOp27
 70
     1
102
RTVSPropertyOp28
 70
     1
102
RTVSPropertyOp29
 70
     1
102
RTVSPropertyOp30
 70
     1
102
RTVSPropertyOp31
 70
     1
102
RTVSPropertyOp32
 70
     1
102
RTVSPropertyOp33
 70
     1
102
RTVSPropertyOp34
 70
     1
102
RTVSPropertyOp35
 70
     1
102
RTVSPropertyOp36
 70
     1
102
RTVSPropertyOp37
 70
     1
102
RTVSPropertyOp38
 70
     1
102
RTVSPropertyOp39
 70
     1
102
RTVSPropertyOp40
 70
     1
102
RTVSPropertyOp41
 70
     1
102
RTVSPropertyOp42
 70
     1
102
RTVSPropertyOp43
 70
     1
102
RTVSPropertyOp44
 70
     1
102
RTVSPropertyOp45
 70
     1
102
RTVSPropertyOp46
 70
     1
102
RTVSPropertyOp47
 70
     1
102
RTVSPropertyOp48
 70
     1
102
RTVSPropertyOp49
 70
     1
102
RTVSPropertyOp50
 70
     1
102
RTVSPropertyOp51
 70
     0
102
RTVSPropertyOp52
 70
     0
102
RTVSPropertyOp53
 70
     1
102
RTVSPropertyOp54
 70
     1
102
RTVSPropertyOp55
 70
     1
102
RTVSPropertyOp56
 70
     1
102
RTVSPropertyOp57
 70
     1
102
RTVSPost2010Prop28
280
     0
102
RTVSPost2010PropOp28
 70
     1
102
RTVSPost2010Prop29
280
     1
102
RTVSPost2010PropOp29
 70
     1
102
RTVSPost2010Prop30
280
     1
102
RTVSPost2010PropOp30
 70
     1
102
RTVSPost2010Prop31
280
     0
102
RTVSPost2010PropOp31
 70
     1
102
RTVSPost2010Prop32
280
     0
102
RTVSPost2010PropOp32
 70
     1
102
RTVSPost2010Prop33
280
     0
102
RTVSPost2010PropOp33
 70
     1
102
RTVSPost2010Prop34
280
     0
102
RTVSPost2010PropOp34
 70
     1
102
RTVSPost2010Prop35
280
     0
102
RTVSPost2010PropOp35
 70
     1
102
RTVSPost2010Prop36
280
     0
102
RTVSPost2010PropOp36
 70
     1
102
RTVSPost2010Prop37
 90
       50
102
RTVSPost2010PropOp37
 70
     1
102
RTVSPost2010Prop38
140
0.0
102
RTVSPost2010PropOp38
 70
     1
102
RTVSPost2010Prop39
140
1.0
102
RTVSPost2010PropOp39
 70
     1
102
RTVSPost2010Prop40
 90
        0
102
RTVSPost2010PropOp40
 70
     1
102
RTVSPost2010Prop41ColorIndex
 90
       18
102
RTVSPost2010Prop41ColorRGB
 90
        0
102
RTVSPost2010PropOp41
 70
     1
102
RTVSPost2010Prop42
 90
       50
102
RTVSPost2010PropOp42
 70
     1
102
RTVSPost2010Prop43
 90
        3
102
RTVSPost2010PropOp43
 70
     1
102
RTVSPost2010Prop44ColorIndex
 90
        5
102
RTVSPost2010Prop44ColorRGB
 90
      255
102
RTVSPost2010PropOp44
 70
     1
102
RTVSPost2010Prop45
280
     0
102
RTVSPost2010PropOp45
 70
     1
102
RTVSPost2010Prop46
 90
       50
102
RTVSPost2010PropOp46
 70
     1
102
RTVSPost2010Prop47
 90
       50
102
RTVSPost2010PropOp47
 70
     1
102
RTVSPost2010Prop48
 90
       50
102
RTVSPost2010PropOp48
 70
     1
102
RTVSPost2010Prop49
280
     0
102
RTVSPost2010PropOp49
 70
     1
102
RTVSPost2010Prop50
 90
       50
102
RTVSPost2010PropOp50
 70
     1
102
RTVSPost2010Prop51ColorIndex
 90
      256
102
RTVSPost2010Prop51ColorRGB
 90
-16777216
102
RTVSPost2010PropOp51
 70
     0
102
RTVSPost2010Prop52
140
1.0
102
RTVSPost2010PropOp52
 70
     0
102
RTVSPost2010Prop53
 90
        2
102
RTVSPost2010PropOp53
 70
     1
102
RTVSPost2010Prop54
  1
strokes_ogs.tif
102
RTVSPost2010PropOp54
 70
     1
102
RTVSPost2010Prop55
280
     0
102
RTVSPost2010PropOp55
 70
     1
102
RTVSPost2010Prop56
140
1.0
102
RTVSPost2010PropOp56
 70
     1
102
RTVSPost2010Prop57
140
1.0
102
RTVSPost2010PropOp57
 70
     1
  0
XRECORD
  5
3F5
102
{ACAD_REACTORS
330
3F4
102
}
330
3F4
100
AcDbXrecord
280
     1
102
RTVSPropertyOp0
 70
     1
102
RTVSPropertyOp1
 70
     1
102
RTVSPropertyOp2
 70
     1
102
RTVSPropertyOp3
 70
     1
102
RTVSPropertyOp4
 70
     1
102
RTVSPropertyOp5
 70
     1
102
RTVSPropertyOp6
 70
     1
102
RTVSPropertyOp7
 70
     1
102
RTVSPropertyOp8
 70
     1
102
RTVSPropertyOp9
 70
     1
102
RTVSPropertyOp10
 70
     1
102
RTVSPropertyOp11
 70
     1
102
RTVSPropertyOp12
 70
     1
102
RTVSPropertyOp13
 70
     1
102
RTVSPropertyOp14
 70
     1
102
RTVSPropertyOp15
 70
     1
102
RTVSPropertyOp16
 70
     1
102
RTVSPropertyOp17
 70
     1
102
RTVSPropertyOp18
 70
     1
102
RTVSPropertyOp19
 70
     1
102
RTVSPropertyOp20
 70
     1
102
RTVSPropertyOp21
 70
     1
102
RTVSPropertyOp22
 70
     1
102
RTVSPropertyOp23
 70
     1
102
RTVSPropertyOp24
 70
     1
102
RTVSPropertyOp25
 70
     1
102
RTVSPropertyOp26
 70
     1
102
RTVSPropertyOp27
 70
     1
102
RTVSPropertyOp28
 70
     1
102
RTVSPropertyOp29
 70
     1
102
RTVSPropertyOp30
 70
     1
102
RTVSPropertyOp31
 70
     1
102
RTVSPropertyOp32
 70
     1
102
RTVSPropertyOp33
 70
     1
102
RTVSPropertyOp34
 70
     1
102
RTVSPropertyOp35
 70
     1
102
RTVSPropertyOp36
 70
     1
102
RTVSPropertyOp37
 70
     1
102
RTVSPropertyOp38
 70
     1
102
RTVSPropertyOp39
 70
     1
102
RTVSPropertyOp40
 70
     1
102
RTVSPropertyOp41
 70
     1
102
RTVSPropertyOp42
 70
     1
102
RTVSPropertyOp43
 70
     1
102
RTVSPropertyOp44
 70
     1
102
RTVSPropertyOp45
 70
     1
102
RTVSPropertyOp46
 70
     1
102
RTVSPropertyOp47
 70
     1
102
RTVSPropertyOp48
 70
     1
102
RTVSPropertyOp49
 70
     1
102
RTVSPropertyOp50
 70
     1
102
RTVSPropertyOp51
 70
     0
102
RTVSPropertyOp52
 70
     0
102
RTVSPropertyOp53
 70
     1
102
RTVSPropertyOp54
 70
     1
102
RTVSPropertyOp55
 70
     1
102
RTVSPropertyOp56
 70
     1
102
RTVSPropertyOp57
 70
     1
102
RTVSPost2010Prop28
280
     0
102
RTVSPost2010PropOp28
 70
     1
102
RTVSPost2010Prop29
280
     1
102
RTVSPost2010PropOp29
 70
     1
102
RTVSPost2010Prop30
280
     1
102
RTVSPost2010PropOp30
 70
     1
102
RTVSPost2010Prop31
280
     0
102
RTVSPost2010PropOp31
 70
     1
102
RTVSPost2010Prop32
280
     0
102
RTVSPost2010PropOp32
 70
     1
102
RTVSPost2010Prop33
280
     0
102
RTVSPost2010PropOp33
 70
     1
102
RTVSPost2010Prop34
280
     0
102
RTVSPost2010PropOp34
 70
     1
102
RTVSPost2010Prop35
280
     0
102
RTVSPost2010PropOp35
 70
     1
102
RTVSPost2010Prop36
280
     0
102
RTVSPost2010PropOp36
 70
     1
102
RTVSPost2010Prop37
 90
       50
102
RTVSPost2010PropOp37
 70
     1
102
RTVSPost2010Prop38
140
0.0
102
RTVSPost2010PropOp38
 70
     1
102
RTVSPost2010Prop39
140
1.0
102
RTVSPost2010PropOp39
 70
     1
102
RTVSPost2010Prop40
 90
        0
102
RTVSPost2010PropOp40
 70
     1
102
RTVSPost2010Prop41ColorIndex
 90
       18
102
RTVSPost2010Prop41ColorRGB
 90
        0
102
RTVSPost2010PropOp41
 70
     1
102
RTVSPost2010Prop42
 90
       50
102
RTVSPost2010PropOp42
 70
     1
102
RTVSPost2010Prop43
 90
        3
102
RTVSPost2010PropOp43
 70
     1
102
RTVSPost2010Prop44ColorIndex
 90
        5
102
RTVSPost2010Prop44ColorRGB
 90
      255
102
RTVSPost2010PropOp44
 70
     1
102
RTVSPost2010Prop45
280
     0
102
RTVSPost2010PropOp45
 70
     1
102
RTVSPost2010Prop46
 90
       50
102
RTVSPost2010PropOp46
 70
     1
102
RTVSPost2010Prop47
 90
       50
102
RTVSPost2010PropOp47
 70
     1
102
RTVSPost2010Prop48
 90
       50
102
RTVSPost2010PropOp48
 70
     1
102
RTVSPost2010Prop49
280
     0
102
RTVSPost2010PropOp49
 70
     1
102
RTVSPost2010Prop50
 90
       50
102
RTVSPost2010PropOp50
 70
     1
102
RTVSPost2010Prop51ColorIndex
 90
      256
102
RTVSPost2010Prop51ColorRGB
 90
-16777216
102
RTVSPost2010PropOp51
 70
     0
102
RTVSPost2010Prop52
140
1.0
102
RTVSPost2010PropOp52
 70
     0
102
RTVSPost2010Prop53
 90
        2
102
RTVSPost2010PropOp53
 70
     1
102
RTVSPost2010Prop54
  1
strokes_ogs.tif
102
RTVSPost2010PropOp54
 70
     1
102
RTVSPost2010Prop55
280
     0
102
RTVSPost2010PropOp55
 70
     1
102
RTVSPost2010Prop56
140
1.0
102
RTVSPost2010PropOp56
 70
     1
102
RTVSPost2010Prop57
140
1.0
102
RTVSPost2010PropOp57
 70
     1
  0
XRECORD
  5
415
102
{ACAD_REACTORS
330
414
102
}
330
414
100
AcDbXrecord
280
     1
102
RTVSPropertyOp0
 70
     1
102
RTVSPropertyOp1
 70
     1
102
RTVSPropertyOp2
 70
     1
102
RTVSPropertyOp3
 70
     1
102
RTVSPropertyOp4
 70
     1
102
RTVSPropertyOp5
 70
     1
102
RTVSPropertyOp6
 70
     1
102
RTVSPropertyOp7
 70
     1
102
RTVSPropertyOp8
 70
     1
102
RTVSPropertyOp9
 70
     1
102
RTVSPropertyOp10
 70
     1
102
RTVSPropertyOp11
 70
     1
102
RTVSPropertyOp12
 70
     1
102
RTVSPropertyOp13
 70
     1
102
RTVSPropertyOp14
 70
     1
102
RTVSPropertyOp15
 70
     1
102
RTVSPropertyOp16
 70
     1
102
RTVSPropertyOp17
 70
     1
102
RTVSPropertyOp18
 70
     1
102
RTVSPropertyOp19
 70
     1
102
RTVSPropertyOp20
 70
     1
102
RTVSPropertyOp21
 70
     1
102
RTVSPropertyOp22
 70
     1
102
RTVSPropertyOp23
 70
     1
102
RTVSPropertyOp24
 70
     1
102
RTVSPropertyOp25
 70
     1
102
RTVSPropertyOp26
 70
     1
102
RTVSPropertyOp27
 70
     1
102
RTVSPropertyOp28
 70
     1
102
RTVSPropertyOp29
 70
     1
102
RTVSPropertyOp30
 70
     1
102
RTVSPropertyOp31
 70
     1
102
RTVSPropertyOp32
 70
     1
102
RTVSPropertyOp33
 70
     1
102
RTVSPropertyOp34
 70
     1
102
RTVSPropertyOp35
 70
     1
102
RTVSPropertyOp36
 70
     1
102
RTVSPropertyOp37
 70
     1
102
RTVSPropertyOp38
 70
     1
102
RTVSPropertyOp39
 70
     1
102
RTVSPropertyOp40
 70
     1
102
RTVSPropertyOp41
 70
     1
102
RTVSPropertyOp42
 70
     1
102
RTVSPropertyOp43
 70
     1
102
RTVSPropertyOp44
 70
     1
102
RTVSPropertyOp45
 70
     1
102
RTVSPropertyOp46
 70
     1
102
RTVSPropertyOp47
 70
     1
102
RTVSPropertyOp48
 70
     1
102
RTVSPropertyOp49
 70
     1
102
RTVSPropertyOp50
 70
     1
102
RTVSPropertyOp51
 70
     0
102
RTVSPropertyOp52
 70
     0
102
RTVSPropertyOp53
 70
     1
102
RTVSPropertyOp54
 70
     1
102
RTVSPropertyOp55
 70
     1
102
RTVSPropertyOp56
 70
     1
102
RTVSPropertyOp57
 70
     1
102
RTVSPost2010Prop28
280
     0
102
RTVSPost2010PropOp28
 70
     1
102
RTVSPost2010Prop29
280
     1
102
RTVSPost2010PropOp29
 70
     1
102
RTVSPost2010Prop30
280
     1
102
RTVSPost2010PropOp30
 70
     1
102
RTVSPost2010Prop31
280
     0
102
RTVSPost2010PropOp31
 70
     1
102
RTVSPost2010Prop32
280
     0
102
RTVSPost2010PropOp32
 70
     1
102
RTVSPost2010Prop33
280
     0
102
RTVSPost2010PropOp33
 70
     1
102
RTVSPost2010Prop34
280
     0
102
RTVSPost2010PropOp34
 70
     1
102
RTVSPost2010Prop35
280
     0
102
RTVSPost2010PropOp35
 70
     1
102
RTVSPost2010Prop36
280
     0
102
RTVSPost2010PropOp36
 70
     1
102
RTVSPost2010Prop37
 90
       50
102
RTVSPost2010PropOp37
 70
     1
102
RTVSPost2010Prop38
140
0.0
102
RTVSPost2010PropOp38
 70
     1
102
RTVSPost2010Prop39
140
1.0
102
RTVSPost2010PropOp39
 70
     1
102
RTVSPost2010Prop40
 90
        0
102
RTVSPost2010PropOp40
 70
     1
102
RTVSPost2010Prop41ColorIndex
 90
       18
102
RTVSPost2010Prop41ColorRGB
 90
        0
102
RTVSPost2010PropOp41
 70
     1
102
RTVSPost2010Prop42
 90
       50
102
RTVSPost2010PropOp42
 70
     1
102
RTVSPost2010Prop43
 90
        3
102
RTVSPost2010PropOp43
 70
     1
102
RTVSPost2010Prop44ColorIndex
 90
        5
102
RTVSPost2010Prop44ColorRGB
 90
      255
102
RTVSPost2010PropOp44
 70
     1
102
RTVSPost2010Prop45
280
     0
102
RTVSPost2010PropOp45
 70
     1
102
RTVSPost2010Prop46
 90
       50
102
RTVSPost2010PropOp46
 70
     1
102
RTVSPost2010Prop47
 90
       50
102
RTVSPost2010PropOp47
 70
     1
102
RTVSPost2010Prop48
 90
       50
102
RTVSPost2010PropOp48
 70
     1
102
RTVSPost2010Prop49
280
     0
102
RTVSPost2010PropOp49
 70
     1
102
RTVSPost2010Prop50
 90
       50
102
RTVSPost2010PropOp50
 70
     1
102
RTVSPost2010Prop51ColorIndex
 90
      256
102
RTVSPost2010Prop51ColorRGB
 90
-16777216
102
RTVSPost2010PropOp51
 70
     0
102
RTVSPost2010Prop52
140
1.0
102
RTVSPost2010PropOp52
 70
     0
102
RTVSPost2010Prop53
 90
        2
102
RTVSPost2010PropOp53
 70
     1
102
RTVSPost2010Prop54
  1
strokes_ogs.tif
102
RTVSPost2010PropOp54
 70
     1
102
RTVSPost2010Prop55
280
     0
102
RTVSPost2010PropOp55
 70
     1
102
RTVSPost2010Prop56
140
1.0
102
RTVSPost2010PropOp56
 70
     1
102
RTVSPost2010Prop57
140
1.0
102
RTVSPost2010PropOp57
 70
     1
  0
ENDSEC
  0
EOF
